ISO-10303-21;
HEADER;
FILE_DESCRIPTION ((), '1');
FILE_NAME ('C:\\Users\\rob\\OneDrive - MAFord Europe\\Customers & Projects\\M\\MAFE\\STEP FILE CORRECTION\\CORRECTED\\137VF 0505.STP', '2023-03-29T13:31:14', ('Unknown'), ('M A Ford'), 'OneCNC-XR8 Mill 3D Expert', 'OneCNC-XR8 Mill 3D Expert', '');
FILE_SCHEMA (('CONFIG_CONTROL_DESIGN'));
ENDSEC;

DATA;
#1 = CARTESIAN_POINT ('', (4.93038065763132E-32, 2.5, -6.12323399573677E-16));
#2 = VERTEX_POINT ('', #1);
#3 = CARTESIAN_POINT ('', (-1.53080849893419E-16, 9.37349864163661E-33, -9.37349864163661E-33));
#4 = VERTEX_POINT ('', #3);
#5 = CARTESIAN_POINT ('', (4.93038065763132E-32, 2.5, -6.12323399573677E-16));
#6 = CARTESIAN_POINT ('', (-1.53080849893419E-16, 9.37349864163661E-33, -9.37349864163661E-33));
#7 = B_SPLINE_CURVE_WITH_KNOTS ('', 1, (#5, #6), .UNSPECIFIED., .F., .U., (2, 2), (0., 1.), .UNSPECIFIED.);
#8 = EDGE_CURVE ('', #2, #4, #7, .T.);
#9 = ORIENTED_EDGE ('', *, *, #8, .F.);
#10 = CARTESIAN_POINT ('', (4.93038065763132E-32, 2.5, -6.12323399573677E-16));
#11 = CARTESIAN_POINT ('', (-6.12323399573676E-16, 2.5, 10.));
#12 = CARTESIAN_POINT ('', (-9.18485099360515E-16, -7.5, 5.));
#13 = CARTESIAN_POINT ('', (-3.06161699786838E-16, -7.5, -5.));
#14 = CARTESIAN_POINT ('', (6.12323399573677E-16, 2.5, -10.));
#15 = CARTESIAN_POINT ('', (4.93038065763132E-32, 2.5, -6.12323399573677E-16));
#16 = (
   BOUNDED_CURVE ()
   B_SPLINE_CURVE (5, (#10, #11, #12, #13, #14, #15), .UNSPECIFIED., .T., .U.)
   B_SPLINE_CURVE_WITH_KNOTS ((6, 6), (0., 1.), .UNSPECIFIED.)
   CURVE ()
   GEOMETRIC_REPRESENTATION_ITEM ()
   RATIONAL_B_SPLINE_CURVE ((5., 1., 1., 1., 1., 5.))
   REPRESENTATION_ITEM ('')
);
#17 = EDGE_CURVE ('', #2, #2, #16, .T.);
#18 = ORIENTED_EDGE ('', *, *, #17, .T.);
#19 = ORIENTED_EDGE ('', *, *, #8, .T.);
#20 = EDGE_LOOP ('', (#9, #18, #19));
#21 = FACE_OUTER_BOUND ('', #20, .T.);
#22 = CARTESIAN_POINT ('', (4.93038065763132E-32, 2.5, -6.12323399573677E-16));
#23 = CARTESIAN_POINT ('', (-1.53080849893419E-16, 9.37349864163661E-33, -9.37349864163661E-33));
#24 = CARTESIAN_POINT ('', (-6.12323399573676E-16, 2.5, 10.));
#25 = CARTESIAN_POINT ('', (-1.53080849893419E-16, 9.37349864163661E-33, -9.37349864163661E-33));
#26 = CARTESIAN_POINT ('', (-9.18485099360515E-16, -7.5, 5.));
#27 = CARTESIAN_POINT ('', (-1.53080849893419E-16, 9.37349864163661E-33, -9.37349864163661E-33));
#28 = CARTESIAN_POINT ('', (-3.06161699786838E-16, -7.5, -5.));
#29 = CARTESIAN_POINT ('', (-1.53080849893419E-16, 9.37349864163661E-33, -9.37349864163661E-33));
#30 = CARTESIAN_POINT ('', (6.12323399573677E-16, 2.5, -10.));
#31 = CARTESIAN_POINT ('', (-1.53080849893419E-16, 9.37349864163661E-33, -9.37349864163661E-33));
#32 = CARTESIAN_POINT ('', (4.93038065763132E-32, 2.5, -6.12323399573677E-16));
#33 = CARTESIAN_POINT ('', (-1.53080849893419E-16, 9.37349864163661E-33, -9.37349864163661E-33));
#34 = (
   BOUNDED_SURFACE ()
   B_SPLINE_SURFACE (5, 1, ((#22, #23), (#24, #25), (#26, #27), (#28, #29), (#30, #31), (#32, #33)), .UNSPECIFIED., .T., .F., .U.)
   B_SPLINE_SURFACE_WITH_KNOTS ((6, 6), (2, 2), (0., 1.), (0., 1.), .UNSPECIFIED.)
   SURFACE ()
   GEOMETRIC_REPRESENTATION_ITEM ()
   RATIONAL_B_SPLINE_SURFACE (((5., 5.), (1., 1.), (1., 1.), (1., 1.), (1., 1.), (5., 5.)))
   REPRESENTATION_ITEM ('')
);
#35 = ADVANCED_FACE ('', (#21), #34, .T.);
#36 = CARTESIAN_POINT ('', (-31., 2.5, -6.12323399573676E-16));
#37 = VERTEX_POINT ('', #36);
#38 = CARTESIAN_POINT ('', (-31., 2.5, -6.12323399573676E-16));
#39 = CARTESIAN_POINT ('', (-20.6666666666667, 2.5, -6.12323399573676E-16));
#40 = CARTESIAN_POINT ('', (-10.3333333333333, 2.5, -6.12323399573677E-16));
#41 = CARTESIAN_POINT ('', (4.93038065763132E-32, 2.5, -6.12323399573677E-16));
#42 = B_SPLINE_CURVE_WITH_KNOTS ('', 3, (#38, #39, #40, #41), .UNSPECIFIED., .F., .U., (4, 4), (0., 1.), .UNSPECIFIED.);
#43 = EDGE_CURVE ('', #37, #2, #42, .T.);
#44 = ORIENTED_EDGE ('', *, *, #43, .F.);
#45 = CARTESIAN_POINT ('', (-31., 2.5, -6.12323399573676E-16));
#46 = CARTESIAN_POINT ('', (-31., 2.49999999999999, 9.99999999999999));
#47 = CARTESIAN_POINT ('', (-31., -7.5, 4.99999999999999));
#48 = CARTESIAN_POINT ('', (-31., -7.49999999999999, -5.));
#49 = CARTESIAN_POINT ('', (-31., 2.50000000000001, -9.99999999999999));
#50 = CARTESIAN_POINT ('', (-31., 2.5, -6.12323399573676E-16));
#51 = (
   BOUNDED_CURVE ()
   B_SPLINE_CURVE (5, (#45, #46, #47, #48, #49, #50), .UNSPECIFIED., .T., .U.)
   B_SPLINE_CURVE_WITH_KNOTS ((6, 6), (0., 1.), .UNSPECIFIED.)
   CURVE ()
   GEOMETRIC_REPRESENTATION_ITEM ()
   RATIONAL_B_SPLINE_CURVE ((5., 1., 1., 1., 1., 5.))
   REPRESENTATION_ITEM ('')
);
#52 = EDGE_CURVE ('', #37, #37, #51, .T.);
#53 = ORIENTED_EDGE ('', *, *, #52, .T.);
#54 = ORIENTED_EDGE ('', *, *, #43, .T.);
#55 = ORIENTED_EDGE ('', *, *, #17, .F.);
#56 = EDGE_LOOP ('', (#44, #53, #54, #55));
#57 = FACE_OUTER_BOUND ('', #56, .T.);
#58 = CARTESIAN_POINT ('', (-31., 2.5, -6.12323399573676E-16));
#59 = CARTESIAN_POINT ('', (-20.6666666666667, 2.5, -6.12323399573676E-16));
#60 = CARTESIAN_POINT ('', (-10.3333333333333, 2.5, -6.12323399573677E-16));
#61 = CARTESIAN_POINT ('', (4.93038065763132E-32, 2.5, -6.12323399573677E-16));
#62 = CARTESIAN_POINT ('', (-31., 2.49999999999999, 9.99999999999999));
#63 = CARTESIAN_POINT ('', (-20.6666666666667, 2.5, 9.99999999999999));
#64 = CARTESIAN_POINT ('', (-10.3333333333333, 2.5, 10.));
#65 = CARTESIAN_POINT ('', (-6.12323399573676E-16, 2.5, 10.));
#66 = CARTESIAN_POINT ('', (-31., -7.5, 4.99999999999999));
#67 = CARTESIAN_POINT ('', (-20.6666666666667, -7.5, 4.99999999999999));
#68 = CARTESIAN_POINT ('', (-10.3333333333333, -7.5, 5.));
#69 = CARTESIAN_POINT ('', (-9.18485099360515E-16, -7.5, 5.));
#70 = CARTESIAN_POINT ('', (-31., -7.49999999999999, -5.));
#71 = CARTESIAN_POINT ('', (-20.6666666666667, -7.49999999999999, -5.));
#72 = CARTESIAN_POINT ('', (-10.3333333333333, -7.5, -5.));
#73 = CARTESIAN_POINT ('', (-3.06161699786838E-16, -7.5, -5.));
#74 = CARTESIAN_POINT ('', (-31., 2.50000000000001, -9.99999999999999));
#75 = CARTESIAN_POINT ('', (-20.6666666666667, 2.5, -10.));
#76 = CARTESIAN_POINT ('', (-10.3333333333333, 2.5, -10.));
#77 = CARTESIAN_POINT ('', (6.12323399573677E-16, 2.5, -10.));
#78 = CARTESIAN_POINT ('', (-31., 2.5, -6.12323399573676E-16));
#79 = CARTESIAN_POINT ('', (-20.6666666666667, 2.5, -6.12323399573676E-16));
#80 = CARTESIAN_POINT ('', (-10.3333333333333, 2.5, -6.12323399573677E-16));
#81 = CARTESIAN_POINT ('', (4.93038065763132E-32, 2.5, -6.12323399573677E-16));
#82 = (
   BOUNDED_SURFACE ()
   B_SPLINE_SURFACE (5, 3, ((#58, #59, #60, #61), (#62, #63, #64, #65), (#66, #67, #68, #69), (#70, #71, #72, #73), (#74, #75, #76, #77), (#78, #79, #80, #81)), .UNSPECIFIED., .T., .F., .U.)
   B_SPLINE_SURFACE_WITH_KNOTS ((6, 6), (4, 4), (0., 1.), (0., 1.), .UNSPECIFIED.)
   SURFACE ()
   GEOMETRIC_REPRESENTATION_ITEM ()
   RATIONAL_B_SPLINE_SURFACE (((5., 5., 5., 5.), (1., 1., 1., 1.), (1., 1., 1., 1.), (1., 1., 1., 1.), (1., 1., 1., 1.), (5., 5., 5., 5.)))
   REPRESENTATION_ITEM ('')
);
#83 = ADVANCED_FACE ('', (#57), #82, .T.);
#84 = CARTESIAN_POINT ('', (-31.8660254037844, 3., -7.34788079488411E-16));
#85 = VERTEX_POINT ('', #84);
#86 = CARTESIAN_POINT ('', (-31.8660254037844, 3., -7.34788079488411E-16));
#87 = CARTESIAN_POINT ('', (-31.5773502691896, 2.83333333333334, -6.93966519516834E-16));
#88 = CARTESIAN_POINT ('', (-31.2886751345947, 2.66666666666667, -6.53144959545256E-16));
#89 = CARTESIAN_POINT ('', (-31., 2.5, -6.12323399573676E-16));
#90 = B_SPLINE_CURVE_WITH_KNOTS ('', 3, (#86, #87, #88, #89), .UNSPECIFIED., .F., .U., (4, 4), (0., 1.), .UNSPECIFIED.);
#91 = EDGE_CURVE ('', #85, #37, #90, .T.);
#92 = ORIENTED_EDGE ('', *, *, #91, .F.);
#93 = CARTESIAN_POINT ('', (-31.8660254037844, 3., -7.34788079488411E-16));
#94 = CARTESIAN_POINT ('', (-31.8660254037844, 3., 12.));
#95 = CARTESIAN_POINT ('', (-31.8660254037844, -8.99999999999999, 5.99999999999999));
#96 = CARTESIAN_POINT ('', (-31.8660254037844, -8.99999999999999, -6.));
#97 = CARTESIAN_POINT ('', (-31.8660254037844, 3., -12.));
#98 = CARTESIAN_POINT ('', (-31.8660254037844, 3., -7.34788079488411E-16));
#99 = (
   BOUNDED_CURVE ()
   B_SPLINE_CURVE (5, (#93, #94, #95, #96, #97, #98), .UNSPECIFIED., .T., .U.)
   B_SPLINE_CURVE_WITH_KNOTS ((6, 6), (0., 1.), .UNSPECIFIED.)
   CURVE ()
   GEOMETRIC_REPRESENTATION_ITEM ()
   RATIONAL_B_SPLINE_CURVE ((5., 1., 1., 1., 1., 5.))
   REPRESENTATION_ITEM ('')
);
#100 = EDGE_CURVE ('', #85, #85, #99, .T.);
#101 = ORIENTED_EDGE ('', *, *, #100, .T.);
#102 = ORIENTED_EDGE ('', *, *, #91, .T.);
#103 = ORIENTED_EDGE ('', *, *, #52, .F.);
#104 = EDGE_LOOP ('', (#92, #101, #102, #103));
#105 = FACE_OUTER_BOUND ('', #104, .T.);
#106 = CARTESIAN_POINT ('', (-31.8660254037844, 3., -7.34788079488411E-16));
#107 = CARTESIAN_POINT ('', (-31.5773502691896, 2.83333333333334, -6.93966519516834E-16));
#108 = CARTESIAN_POINT ('', (-31.2886751345947, 2.66666666666667, -6.53144959545256E-16));
#109 = CARTESIAN_POINT ('', (-31., 2.5, -6.12323399573676E-16));
#110 = CARTESIAN_POINT ('', (-31.8660254037844, 3., 12.));
#111 = CARTESIAN_POINT ('', (-31.5773502691896, 2.83333333333333, 11.3333333333333));
#112 = CARTESIAN_POINT ('', (-31.2886751345947, 2.66666666666667, 10.6666666666667));
#113 = CARTESIAN_POINT ('', (-31., 2.49999999999999, 9.99999999999999));
#114 = CARTESIAN_POINT ('', (-31.8660254037844, -8.99999999999999, 5.99999999999999));
#115 = CARTESIAN_POINT ('', (-31.5773502691896, -8.50000000000001, 5.66666666666667));
#116 = CARTESIAN_POINT ('', (-31.2886751345947, -8.00000000000001, 5.33333333333333));
#117 = CARTESIAN_POINT ('', (-31., -7.5, 4.99999999999999));
#118 = CARTESIAN_POINT ('', (-31.8660254037844, -8.99999999999999, -6.));
#119 = CARTESIAN_POINT ('', (-31.5773502691896, -8.50000000000001, -5.66666666666668));
#120 = CARTESIAN_POINT ('', (-31.2886751345947, -8.00000000000001, -5.33333333333334));
#121 = CARTESIAN_POINT ('', (-31., -7.49999999999999, -5.));
#122 = CARTESIAN_POINT ('', (-31.8660254037844, 3., -12.));
#123 = CARTESIAN_POINT ('', (-31.5773502691896, 2.83333333333334, -11.3333333333333));
#124 = CARTESIAN_POINT ('', (-31.2886751345947, 2.66666666666668, -10.6666666666667));
#125 = CARTESIAN_POINT ('', (-31., 2.50000000000001, -9.99999999999999));
#126 = CARTESIAN_POINT ('', (-31.8660254037844, 3., -7.34788079488411E-16));
#127 = CARTESIAN_POINT ('', (-31.5773502691896, 2.83333333333334, -6.93966519516834E-16));
#128 = CARTESIAN_POINT ('', (-31.2886751345947, 2.66666666666667, -6.53144959545256E-16));
#129 = CARTESIAN_POINT ('', (-31., 2.5, -6.12323399573676E-16));
#130 = (
   BOUNDED_SURFACE ()
   B_SPLINE_SURFACE (5, 3, ((#106, #107, #108, #109), (#110, #111, #112, #113), (#114, #115, #116, #117), (#118, #119, #120, #121), (#122, #123, #124, #125), (#126, #127, #128, #129)), .UNSPECIFIED., .T., .F., .U.)
   B_SPLINE_SURFACE_WITH_KNOTS ((6, 6), (4, 4), (0., 1.), (0., 1.), .UNSPECIFIED.)
   SURFACE ()
   GEOMETRIC_REPRESENTATION_ITEM ()
   RATIONAL_B_SPLINE_SURFACE (((5., 5., 5., 5.), (1., 1., 1., 1.), (1., 1., 1., 1.), (1., 1., 1., 1.), (1., 1., 1., 1.), (5., 5., 5., 5.)))
   REPRESENTATION_ITEM ('')
);
#131 = ADVANCED_FACE ('', (#105), #130, .T.);
#132 = CARTESIAN_POINT ('', (-73.75, 3., -7.34788079488411E-16));
#133 = VERTEX_POINT ('', #132);
#134 = CARTESIAN_POINT ('', (-73.75, 3., -7.34788079488411E-16));
#135 = CARTESIAN_POINT ('', (-59.788675134595, 3., -7.34788079488411E-16));
#136 = CARTESIAN_POINT ('', (-45.8273502691896, 3., -7.34788079488411E-16));
#137 = CARTESIAN_POINT ('', (-31.8660254037844, 3., -7.34788079488411E-16));
#138 = B_SPLINE_CURVE_WITH_KNOTS ('', 3, (#134, #135, #136, #137), .UNSPECIFIED., .F., .U., (4, 4), (0., 1.), .UNSPECIFIED.);
#139 = EDGE_CURVE ('', #133, #85, #138, .T.);
#140 = ORIENTED_EDGE ('', *, *, #139, .F.);
#141 = CARTESIAN_POINT ('', (-73.75, 3., -7.34788079488411E-16));
#142 = CARTESIAN_POINT ('', (-73.75, 2.99999999999998, 12.));
#143 = CARTESIAN_POINT ('', (-73.75, -8.99999999999999, 5.99999999999998));
#144 = CARTESIAN_POINT ('', (-73.75, -8.99999999999997, -6.00000000000001));
#145 = CARTESIAN_POINT ('', (-73.75, 3.00000000000002, -12.));
#146 = CARTESIAN_POINT ('', (-73.75, 3., -7.34788079488411E-16));
#147 = (
   BOUNDED_CURVE ()
   B_SPLINE_CURVE (5, (#141, #142, #143, #144, #145, #146), .UNSPECIFIED., .T., .U.)
   B_SPLINE_CURVE_WITH_KNOTS ((6, 6), (0., 1.), .UNSPECIFIED.)
   CURVE ()
   GEOMETRIC_REPRESENTATION_ITEM ()
   RATIONAL_B_SPLINE_CURVE ((5., 1., 1., 1., 1., 5.))
   REPRESENTATION_ITEM ('')
);
#148 = EDGE_CURVE ('', #133, #133, #147, .T.);
#149 = ORIENTED_EDGE ('', *, *, #148, .T.);
#150 = ORIENTED_EDGE ('', *, *, #139, .T.);
#151 = ORIENTED_EDGE ('', *, *, #100, .F.);
#152 = EDGE_LOOP ('', (#140, #149, #150, #151));
#153 = FACE_OUTER_BOUND ('', #152, .T.);
#154 = CARTESIAN_POINT ('', (-73.75, 3., -7.34788079488411E-16));
#155 = CARTESIAN_POINT ('', (-59.788675134595, 3., -7.34788079488411E-16));
#156 = CARTESIAN_POINT ('', (-45.8273502691896, 3., -7.34788079488411E-16));
#157 = CARTESIAN_POINT ('', (-31.8660254037844, 3., -7.34788079488411E-16));
#158 = CARTESIAN_POINT ('', (-73.75, 2.99999999999998, 12.));
#159 = CARTESIAN_POINT ('', (-59.788675134595, 2.99999999999999, 12.));
#160 = CARTESIAN_POINT ('', (-45.8273502691896, 2.99999999999999, 12.));
#161 = CARTESIAN_POINT ('', (-31.8660254037844, 3., 12.));
#162 = CARTESIAN_POINT ('', (-73.75, -8.99999999999999, 5.99999999999998));
#163 = CARTESIAN_POINT ('', (-59.788675134595, -8.99999999999999, 5.99999999999998));
#164 = CARTESIAN_POINT ('', (-45.8273502691896, -8.99999999999999, 5.99999999999998));
#165 = CARTESIAN_POINT ('', (-31.8660254037844, -8.99999999999999, 5.99999999999999));
#166 = CARTESIAN_POINT ('', (-73.75, -8.99999999999997, -6.00000000000001));
#167 = CARTESIAN_POINT ('', (-59.788675134595, -8.99999999999998, -6.00000000000001));
#168 = CARTESIAN_POINT ('', (-45.8273502691896, -8.99999999999998, -6.));
#169 = CARTESIAN_POINT ('', (-31.8660254037844, -8.99999999999999, -6.));
#170 = CARTESIAN_POINT ('', (-73.75, 3.00000000000002, -12.));
#171 = CARTESIAN_POINT ('', (-59.788675134595, 3.00000000000001, -12.));
#172 = CARTESIAN_POINT ('', (-45.8273502691896, 3.00000000000001, -12.));
#173 = CARTESIAN_POINT ('', (-31.8660254037844, 3., -12.));
#174 = CARTESIAN_POINT ('', (-73.75, 3., -7.34788079488411E-16));
#175 = CARTESIAN_POINT ('', (-59.788675134595, 3., -7.34788079488411E-16));
#176 = CARTESIAN_POINT ('', (-45.8273502691896, 3., -7.34788079488411E-16));
#177 = CARTESIAN_POINT ('', (-31.8660254037844, 3., -7.34788079488411E-16));
#178 = (
   BOUNDED_SURFACE ()
   B_SPLINE_SURFACE (5, 3, ((#154, #155, #156, #157), (#158, #159, #160, #161), (#162, #163, #164, #165), (#166, #167, #168, #169), (#170, #171, #172, #173), (#174, #175, #176, #177)), .UNSPECIFIED., .T., .F., .U.)
   B_SPLINE_SURFACE_WITH_KNOTS ((6, 6), (4, 4), (0., 1.), (0., 1.), .UNSPECIFIED.)
   SURFACE ()
   GEOMETRIC_REPRESENTATION_ITEM ()
   RATIONAL_B_SPLINE_SURFACE (((5., 5., 5., 5.), (1., 1., 1., 1.), (1., 1., 1., 1.), (1., 1., 1., 1.), (1., 1., 1., 1.), (5., 5., 5., 5.)))
   REPRESENTATION_ITEM ('')
);
#179 = ADVANCED_FACE ('', (#153), #178, .T.);
#180 = CARTESIAN_POINT ('', (-74., 4.53119315684521E-15, -4.53119315684521E-15));
#181 = VERTEX_POINT ('', #180);
#182 = CARTESIAN_POINT ('', (-74., 2.75, -6.73555739531043E-16));
#183 = VERTEX_POINT ('', #182);
#184 = CARTESIAN_POINT ('', (-74., 4.53119315684521E-15, -4.53119315684521E-15));
#185 = CARTESIAN_POINT ('', (-74., 2.75, -6.73555739531043E-16));
#186 = B_SPLINE_CURVE_WITH_KNOTS ('', 1, (#184, #185), .UNSPECIFIED., .F., .U., (2, 2), (0., 1.), .UNSPECIFIED.);
#187 = EDGE_CURVE ('', #181, #183, #186, .T.);
#188 = ORIENTED_EDGE ('', *, *, #187, .F.);
#189 = ORIENTED_EDGE ('', *, *, #187, .T.);
#190 = CARTESIAN_POINT ('', (-74., 2.75, -6.73555739531043E-16));
#191 = CARTESIAN_POINT ('', (-74., 2.74999999999998, 11.));
#192 = CARTESIAN_POINT ('', (-74., -8.24999999999999, 5.49999999999998));
#193 = CARTESIAN_POINT ('', (-74., -8.24999999999997, -5.50000000000001));
#194 = CARTESIAN_POINT ('', (-74., 2.75000000000002, -11.));
#195 = CARTESIAN_POINT ('', (-74., 2.75, -6.73555739531043E-16));
#196 = (
   BOUNDED_CURVE ()
   B_SPLINE_CURVE (5, (#190, #191, #192, #193, #194, #195), .UNSPECIFIED., .T., .U.)
   B_SPLINE_CURVE_WITH_KNOTS ((6, 6), (0., 1.), .UNSPECIFIED.)
   CURVE ()
   GEOMETRIC_REPRESENTATION_ITEM ()
   RATIONAL_B_SPLINE_CURVE ((5., 1., 1., 1., 1., 5.))
   REPRESENTATION_ITEM ('')
);
#197 = EDGE_CURVE ('', #183, #183, #196, .T.);
#198 = ORIENTED_EDGE ('', *, *, #197, .F.);
#199 = EDGE_LOOP ('', (#188, #189, #198));
#200 = FACE_OUTER_BOUND ('', #199, .T.);
#201 = CARTESIAN_POINT ('', (-74., 4.53119315684521E-15, -4.53119315684521E-15));
#202 = CARTESIAN_POINT ('', (-74., 2.75, -6.73555739531043E-16));
#203 = CARTESIAN_POINT ('', (-74., 4.53119315684521E-15, -4.53119315684521E-15));
#204 = CARTESIAN_POINT ('', (-74., 2.74999999999998, 11.));
#205 = CARTESIAN_POINT ('', (-74., 4.53119315684521E-15, -4.53119315684521E-15));
#206 = CARTESIAN_POINT ('', (-74., -8.24999999999999, 5.49999999999998));
#207 = CARTESIAN_POINT ('', (-74., 4.53119315684521E-15, -4.53119315684521E-15));
#208 = CARTESIAN_POINT ('', (-74., -8.24999999999997, -5.50000000000001));
#209 = CARTESIAN_POINT ('', (-74., 4.53119315684521E-15, -4.53119315684521E-15));
#210 = CARTESIAN_POINT ('', (-74., 2.75000000000002, -11.));
#211 = CARTESIAN_POINT ('', (-74., 4.53119315684521E-15, -4.53119315684521E-15));
#212 = CARTESIAN_POINT ('', (-74., 2.75, -6.73555739531043E-16));
#213 = (
   BOUNDED_SURFACE ()
   B_SPLINE_SURFACE (5, 1, ((#201, #202), (#203, #204), (#205, #206), (#207, #208), (#209, #210), (#211, #212)), .UNSPECIFIED., .T., .F., .U.)
   B_SPLINE_SURFACE_WITH_KNOTS ((6, 6), (2, 2), (0., 1.), (0., 1.), .UNSPECIFIED.)
   SURFACE ()
   GEOMETRIC_REPRESENTATION_ITEM ()
   RATIONAL_B_SPLINE_SURFACE (((5., 5.), (1., 1.), (1., 1.), (1., 1.), (1., 1.), (5., 5.)))
   REPRESENTATION_ITEM ('')
);
#214 = ADVANCED_FACE ('', (#200), #213, .T.);
#215 = CARTESIAN_POINT ('', (-74., 2.75, -6.73555739531043E-16));
#216 = CARTESIAN_POINT ('', (-73.9166666666664, 2.83333333333333, -6.93966519516831E-16));
#217 = CARTESIAN_POINT ('', (-73.8333333333335, 2.91666666666666, -7.14377299502621E-16));
#218 = CARTESIAN_POINT ('', (-73.75, 3., -7.34788079488411E-16));
#219 = B_SPLINE_CURVE_WITH_KNOTS ('', 3, (#215, #216, #217, #218), .UNSPECIFIED., .F., .U., (4, 4), (0., 1.), .UNSPECIFIED.);
#220 = EDGE_CURVE ('', #183, #133, #219, .T.);
#221 = ORIENTED_EDGE ('', *, *, #220, .F.);
#222 = ORIENTED_EDGE ('', *, *, #197, .T.);
#223 = ORIENTED_EDGE ('', *, *, #220, .T.);
#224 = ORIENTED_EDGE ('', *, *, #148, .F.);
#225 = EDGE_LOOP ('', (#221, #222, #223, #224));
#226 = FACE_OUTER_BOUND ('', #225, .T.);
#227 = CARTESIAN_POINT ('', (-74., 2.75, -6.73555739531043E-16));
#228 = CARTESIAN_POINT ('', (-73.9166666666664, 2.83333333333333, -6.93966519516831E-16));
#229 = CARTESIAN_POINT ('', (-73.8333333333335, 2.91666666666666, -7.14377299502621E-16));
#230 = CARTESIAN_POINT ('', (-73.75, 3., -7.34788079488411E-16));
#231 = CARTESIAN_POINT ('', (-74., 2.74999999999998, 11.));
#232 = CARTESIAN_POINT ('', (-73.9166666666664, 2.83333333333331, 11.3333333333333));
#233 = CARTESIAN_POINT ('', (-73.8333333333335, 2.91666666666665, 11.6666666666666));
#234 = CARTESIAN_POINT ('', (-73.75, 2.99999999999998, 12.));
#235 = CARTESIAN_POINT ('', (-74., -8.24999999999999, 5.49999999999998));
#236 = CARTESIAN_POINT ('', (-73.9166666666664, -8.49999999999997, 5.66666666666663));
#237 = CARTESIAN_POINT ('', (-73.8333333333335, -8.74999999999998, 5.8333333333333));
#238 = CARTESIAN_POINT ('', (-73.75, -8.99999999999999, 5.99999999999998));
#239 = CARTESIAN_POINT ('', (-74., -8.24999999999997, -5.50000000000001));
#240 = CARTESIAN_POINT ('', (-73.9166666666664, -8.49999999999995, -5.66666666666666));
#241 = CARTESIAN_POINT ('', (-73.8333333333335, -8.74999999999997, -5.83333333333333));
#242 = CARTESIAN_POINT ('', (-73.75, -8.99999999999997, -6.00000000000001));
#243 = CARTESIAN_POINT ('', (-74., 2.75000000000002, -11.));
#244 = CARTESIAN_POINT ('', (-73.9166666666664, 2.83333333333334, -11.3333333333333));
#245 = CARTESIAN_POINT ('', (-73.8333333333335, 2.91666666666668, -11.6666666666666));
#246 = CARTESIAN_POINT ('', (-73.75, 3.00000000000002, -12.));
#247 = CARTESIAN_POINT ('', (-74., 2.75, -6.73555739531043E-16));
#248 = CARTESIAN_POINT ('', (-73.9166666666664, 2.83333333333333, -6.93966519516831E-16));
#249 = CARTESIAN_POINT ('', (-73.8333333333335, 2.91666666666666, -7.14377299502621E-16));
#250 = CARTESIAN_POINT ('', (-73.75, 3., -7.34788079488411E-16));
#251 = (
   BOUNDED_SURFACE ()
   B_SPLINE_SURFACE (5, 3, ((#227, #228, #229, #230), (#231, #232, #233, #234), (#235, #236, #237, #238), (#239, #240, #241, #242), (#243, #244, #245, #246), (#247, #248, #249, #250)), .UNSPECIFIED., .T., .F., .U.)
   B_SPLINE_SURFACE_WITH_KNOTS ((6, 6), (4, 4), (0., 1.), (0., 1.), .UNSPECIFIED.)
   SURFACE ()
   GEOMETRIC_REPRESENTATION_ITEM ()
   RATIONAL_B_SPLINE_SURFACE (((5., 5., 5., 5.), (1., 1., 1., 1.), (1., 1., 1., 1.), (1., 1., 1., 1.), (1., 1., 1., 1.), (5., 5., 5., 5.)))
   REPRESENTATION_ITEM ('')
);
#252 = ADVANCED_FACE ('', (#226), #251, .T.);
#253 = CLOSED_SHELL ('', (#35, #83, #131, #179, #214, #252));
#254 = MANIFOLD_SOLID_BREP ('', #253);
#255 = (
   LENGTH_UNIT ()
   NAMED_UNIT (*)
   SI_UNIT (.MILLI., .METRE.)
);
#256 = (
   NAMED_UNIT (*)
   SI_UNIT ($, .STERADIAN.)
   SOLID_ANGLE_UNIT ()
);
#257 = (
   NAMED_UNIT (*)
   SI_UNIT ($, .RADIAN.)
   PLANE_ANGLE_UNIT ()
);
#258 = UNCERTAINTY_MEASURE_WITH_UNIT (LENGTH_MEASURE(0.001), #255, 'DISTANCE_ACCURACY_VALUE', '');
#259 = (
   GEOMETRIC_REPRESENTATION_CONTEXT (3)
   GLOBAL_UNCERTAINTY_ASSIGNED_CONTEXT ((#258))
   GLOBAL_UNIT_ASSIGNED_CONTEXT ((#255, #256, #257))
   REPRESENTATION_CONTEXT ('', '3D')
);
#260 = SHAPE_REPRESENTATION ('', (), #259);
#261 = APPLICATION_CONTEXT ('configuration controlled 3D designs of mechanical parts and assemblies');
#262 = APPLICATION_PROTOCOL_DEFINITION ('International Standard', 'config_control_design', 1997, #261);
#263 = MECHANICAL_CONTEXT ('', #261, 'mechanical');
#264 = PRODUCT ('', '', '', (#263));
#265 = PERSON_AND_ORGANIZATION_ROLE ('design_owner');
#266 = PERSON ('', '', $, $, $, $);
#267 = ORGANIZATION ($, '', '');
#268 = PERSON_AND_ORGANIZATION (#266, #267);
#269 = CC_DESIGN_PERSON_AND_ORGANIZATION_ASSIGNMENT (#268, #265, (#264));
#270 = PRODUCT_RELATED_PRODUCT_CATEGORY ('detail', $, (#264));
#271 = PRODUCT_DEFINITION_FORMATION_WITH_SPECIFIED_SOURCE ('', '', #264, .NOT_KNOWN.);
#272 = APPROVAL_STATUS ('approved');
#273 = APPROVAL (#272, '');
#274 = CALENDAR_DATE (2023, 29, 3);
#275 = COORDINATED_UNIVERSAL_TIME_OFFSET (0, $, .AHEAD.);
#276 = LOCAL_TIME (13, 31, 14., #275);
#277 = DATE_AND_TIME (#274, #276);
#278 = APPROVAL_DATE_TIME (#277, #273);
#279 = APPROVAL_ROLE ('');
#280 = PERSON ('', '', $, $, $, $);
#281 = ORGANIZATION ($, '', '');
#282 = PERSON_AND_ORGANIZATION (#280, #281);
#283 = APPROVAL_PERSON_ORGANIZATION (#282, #273, #279);
#284 = CC_DESIGN_APPROVAL (#273, (#271));
#285 = PERSON_AND_ORGANIZATION_ROLE ('creator');
#286 = PERSON ('', '', $, $, $, $);
#287 = ORGANIZATION ($, '', '');
#288 = PERSON_AND_ORGANIZATION (#286, #287);
#289 = CC_DESIGN_PERSON_AND_ORGANIZATION_ASSIGNMENT (#288, #285, (#271));
#290 = PERSON_AND_ORGANIZATION_ROLE ('part_supplier');
#291 = PERSON ('', '', $, $, $, $);
#292 = ORGANIZATION ($, '', '');
#293 = PERSON_AND_ORGANIZATION (#291, #292);
#294 = CC_DESIGN_PERSON_AND_ORGANIZATION_ASSIGNMENT (#293, #290, (#271));
#295 = SECURITY_CLASSIFICATION_LEVEL ('unclassified');
#296 = SECURITY_CLASSIFICATION ('', '', #295);
#297 = APPROVAL_STATUS ('approved');
#298 = APPROVAL (#297, '');
#299 = CALENDAR_DATE (2023, 29, 3);
#300 = COORDINATED_UNIVERSAL_TIME_OFFSET (0, $, .AHEAD.);
#301 = LOCAL_TIME (13, 31, 14., #300);
#302 = DATE_AND_TIME (#299, #301);
#303 = APPROVAL_DATE_TIME (#302, #298);
#304 = APPROVAL_ROLE ('');
#305 = PERSON ('', '', $, $, $, $);
#306 = ORGANIZATION ($, '', '');
#307 = PERSON_AND_ORGANIZATION (#305, #306);
#308 = APPROVAL_PERSON_ORGANIZATION (#307, #298, #304);
#309 = CC_DESIGN_APPROVAL (#298, (#296));
#310 = DATE_TIME_ROLE ('classification_date');
#311 = CALENDAR_DATE (2023, 29, 3);
#312 = COORDINATED_UNIVERSAL_TIME_OFFSET (0, $, .AHEAD.);
#313 = LOCAL_TIME (13, 31, 14., #312);
#314 = DATE_AND_TIME (#311, #313);
#315 = CC_DESIGN_DATE_AND_TIME_ASSIGNMENT (#314, #310, (#296));
#316 = PERSON_AND_ORGANIZATION_ROLE ('classification_officer');
#317 = PERSON ('', '', $, $, $, $);
#318 = ORGANIZATION ($, '', '');
#319 = PERSON_AND_ORGANIZATION (#317, #318);
#320 = CC_DESIGN_PERSON_AND_ORGANIZATION_ASSIGNMENT (#319, #316, (#296));
#321 = CC_DESIGN_SECURITY_CLASSIFICATION (#296, (#271));
#322 = DESIGN_CONTEXT ('', #261, 'design');
#323 = PRODUCT_DEFINITION ('', '', #271, #322);
#324 = APPROVAL_STATUS ('approved');
#325 = APPROVAL (#324, '');
#326 = CALENDAR_DATE (2023, 29, 3);
#327 = COORDINATED_UNIVERSAL_TIME_OFFSET (0, $, .AHEAD.);
#328 = LOCAL_TIME (13, 31, 14., #327);
#329 = DATE_AND_TIME (#326, #328);
#330 = APPROVAL_DATE_TIME (#329, #325);
#331 = APPROVAL_ROLE ('');
#332 = PERSON ('', '', $, $, $, $);
#333 = ORGANIZATION ($, '', '');
#334 = PERSON_AND_ORGANIZATION (#332, #333);
#335 = APPROVAL_PERSON_ORGANIZATION (#334, #325, #331);
#336 = CC_DESIGN_APPROVAL (#325, (#323));
#337 = DATE_TIME_ROLE ('creation_date');
#338 = CALENDAR_DATE (2023, 29, 3);
#339 = COORDINATED_UNIVERSAL_TIME_OFFSET (0, $, .AHEAD.);
#340 = LOCAL_TIME (13, 31, 14., #339);
#341 = DATE_AND_TIME (#338, #340);
#342 = CC_DESIGN_DATE_AND_TIME_ASSIGNMENT (#341, #337, (#323));
#343 = PERSON_AND_ORGANIZATION_ROLE ('creator');
#344 = PERSON ('', '', $, $, $, $);
#345 = ORGANIZATION ($, '', '');
#346 = PERSON_AND_ORGANIZATION (#344, #345);
#347 = CC_DESIGN_PERSON_AND_ORGANIZATION_ASSIGNMENT (#346, #343, (#323));
#348 = PRODUCT_DEFINITION_SHAPE ('', '', #323);
#349 = SHAPE_DEFINITION_REPRESENTATION (#348, #260);
#350 = SHAPE_REPRESENTATION_RELATIONSHIP ('', '', #260, #351);
#351 = ADVANCED_BREP_SHAPE_REPRESENTATION ('', (#254), #259);
ENDSEC;
END-ISO-10303-21;
