ISO-10303-21;
HEADER;
FILE_DESCRIPTION ((), '1');
FILE_NAME ('C:\\Users\\Nick\\Desktop\\TEAMS STP FILES\\138B & 138B-N5\\138B 0800.STP', '2020-04-19T08:39:34', ('Unknown'), ('M.A.FORD Europe Ltd'), 'OneCNC-XR7 Mill 3D Expert', 'OneCNC-XR7 Mill 3D Expert', '');
FILE_SCHEMA (('CONFIG_CONTROL_DESIGN'));
ENDSEC;

DATA;
#1 = CARTESIAN_POINT ('', (0., 0., 0.));
#2 = VERTEX_POINT ('', #1);
#3 = CARTESIAN_POINT ('', (-4., 4., -9.79717439317883E-16));
#4 = VERTEX_POINT ('', #3);
#5 = CARTESIAN_POINT ('', (0., 0., 0.));
#6 = CARTESIAN_POINT ('', (0., 0.437021511118906, -1.07039398950062E-16));
#7 = CARTESIAN_POINT ('', (-0.116683876452365, 1.14091301872742, -2.79443095298016E-16));
#8 = CARTESIAN_POINT ('', (-0.582193405129629, 2.16155872328221, -5.2942919432732E-16));
#9 = CARTESIAN_POINT ('', (-1.19072420123981, 2.91008724141033, -7.12765805086543E-16));
#10 = CARTESIAN_POINT ('', (-1.96460837687031, 3.47535054676717, -8.51215384602683E-16));
#11 = CARTESIAN_POINT ('', (-2.85908698127257, 3.88331612354763, -9.51138132155983E-16));
#12 = CARTESIAN_POINT ('', (-3.5629784888811, 4., -9.79717439317883E-16));
#13 = CARTESIAN_POINT ('', (-4., 4., -9.79717439317883E-16));
#14 = B_SPLINE_CURVE_WITH_KNOTS ('', 3, (#5, #6, #7, #8, #9, #10, #11, #12, #13), .UNSPECIFIED., .F., .U., (4, 1, 1, 1, 1, 1, 4), (0., 0.208662401196191, 0.33617370428258, 0.532939663384363, 0.66382629571742, 0.791337598803809, 1.), .UNSPECIFIED.);
#15 = EDGE_CURVE ('', #2, #4, #14, .T.);
#16 = ORIENTED_EDGE ('', *, *, #15, .F.);
#17 = ORIENTED_EDGE ('', *, *, #15, .T.);
#18 = CARTESIAN_POINT ('', (-4., 4., -9.79717439317883E-16));
#19 = CARTESIAN_POINT ('', (-4., 4., 16.));
#20 = CARTESIAN_POINT ('', (-4., -12., 8.));
#21 = CARTESIAN_POINT ('', (-4., -12., -8.));
#22 = CARTESIAN_POINT ('', (-4., 4., -16.));
#23 = CARTESIAN_POINT ('', (-4., 4., -9.79717439317883E-16));
#24 = (
   BOUNDED_CURVE ()
   B_SPLINE_CURVE (5, (#18, #19, #20, #21, #22, #23), .UNSPECIFIED., .T., .U.)
   B_SPLINE_CURVE_WITH_KNOTS ((6, 6), (0., 1.), .UNSPECIFIED.)
   CURVE ()
   GEOMETRIC_REPRESENTATION_ITEM ()
   RATIONAL_B_SPLINE_CURVE ((5., 1., 1., 1., 1., 5.))
   REPRESENTATION_ITEM ('')
);
#25 = EDGE_CURVE ('', #4, #4, #24, .T.);
#26 = ORIENTED_EDGE ('', *, *, #25, .F.);
#27 = EDGE_LOOP ('', (#16, #17, #26));
#28 = FACE_OUTER_BOUND ('', #27, .F.);
#29 = CARTESIAN_POINT ('', (0., 0., 0.));
#30 = CARTESIAN_POINT ('', (0., 0.437021511118906, -1.07039398950062E-16));
#31 = CARTESIAN_POINT ('', (-0.116683876452365, 1.14091301872742, -2.79443095298016E-16));
#32 = CARTESIAN_POINT ('', (-0.582193405129629, 2.16155872328221, -5.2942919432732E-16));
#33 = CARTESIAN_POINT ('', (-1.19072420123981, 2.91008724141033, -7.12765805086543E-16));
#34 = CARTESIAN_POINT ('', (-1.96460837687031, 3.47535054676717, -8.51215384602683E-16));
#35 = CARTESIAN_POINT ('', (-2.85908698127257, 3.88331612354763, -9.51138132155983E-16));
#36 = CARTESIAN_POINT ('', (-3.5629784888811, 4., -9.79717439317883E-16));
#37 = CARTESIAN_POINT ('', (-4., 4., -9.79717439317883E-16));
#38 = CARTESIAN_POINT ('', (0., 0., 0.));
#39 = CARTESIAN_POINT ('', (-1.07039398950062E-16, 0.437021511118907, 1.74808604447563));
#40 = CARTESIAN_POINT ('', (-0.116683876452365, 1.14091301872742, 4.56365207490968));
#41 = CARTESIAN_POINT ('', (-0.582193405129629, 2.16155872328221, 8.64623489312884));
#42 = CARTESIAN_POINT ('', (-1.19072420123981, 2.91008724141033, 11.6403489656413));
#43 = CARTESIAN_POINT ('', (-1.96460837687031, 3.47535054676717, 13.9014021870687));
#44 = CARTESIAN_POINT ('', (-2.85908698127257, 3.88331612354763, 15.5332644941905));
#45 = CARTESIAN_POINT ('', (-3.5629784888811, 4., 16.));
#46 = CARTESIAN_POINT ('', (-4., 4., 16.));
#47 = CARTESIAN_POINT ('', (0., 0., 0.));
#48 = CARTESIAN_POINT ('', (-1.60559098425092E-16, -1.31106453335672, 0.874043022237813));
#49 = CARTESIAN_POINT ('', (-0.116683876452366, -3.42273905618226, 2.28182603745484));
#50 = CARTESIAN_POINT ('', (-0.58219340512963, -6.48467616984663, 4.32311744656442));
#51 = CARTESIAN_POINT ('', (-1.19072420123981, -8.73026172423099, 5.82017448282067));
#52 = CARTESIAN_POINT ('', (-1.96460837687031, -10.4260516403015, 6.95070109353433));
#53 = CARTESIAN_POINT ('', (-2.85908698127257, -11.6499483706429, 7.76663224709526));
#54 = CARTESIAN_POINT ('', (-3.5629784888811, -12., 8.));
#55 = CARTESIAN_POINT ('', (-4., -12., 8.));
#56 = CARTESIAN_POINT ('', (0., 0., 0.));
#57 = CARTESIAN_POINT ('', (-5.35196994750308E-17, -1.31106453335672, -0.874043022237812));
#58 = CARTESIAN_POINT ('', (-0.116683876452365, -3.42273905618226, -2.28182603745484));
#59 = CARTESIAN_POINT ('', (-0.582193405129629, -6.48467616984663, -4.32311744656442));
#60 = CARTESIAN_POINT ('', (-1.19072420123981, -8.730261724231, -5.82017448282066));
#61 = CARTESIAN_POINT ('', (-1.96460837687031, -10.4260516403015, -6.95070109353433));
#62 = CARTESIAN_POINT ('', (-2.85908698127257, -11.6499483706429, -7.76663224709526));
#63 = CARTESIAN_POINT ('', (-3.5629784888811, -12., -8.));
#64 = CARTESIAN_POINT ('', (-4., -12., -8.));
#65 = CARTESIAN_POINT ('', (0., 0., 0.));
#66 = CARTESIAN_POINT ('', (1.07039398950062E-16, 0.437021511118906, -1.74808604447563));
#67 = CARTESIAN_POINT ('', (-0.116683876452365, 1.14091301872742, -4.56365207490968));
#68 = CARTESIAN_POINT ('', (-0.582193405129628, 2.16155872328221, -8.64623489312884));
#69 = CARTESIAN_POINT ('', (-1.19072420123981, 2.91008724141033, -11.6403489656413));
#70 = CARTESIAN_POINT ('', (-1.96460837687031, 3.47535054676716, -13.9014021870687));
#71 = CARTESIAN_POINT ('', (-2.85908698127257, 3.88331612354763, -15.5332644941905));
#72 = CARTESIAN_POINT ('', (-3.56297848888109, 4., -16.));
#73 = CARTESIAN_POINT ('', (-4., 4., -16.));
#74 = CARTESIAN_POINT ('', (0., 0., 0.));
#75 = CARTESIAN_POINT ('', (0., 0.437021511118906, -1.07039398950062E-16));
#76 = CARTESIAN_POINT ('', (-0.116683876452365, 1.14091301872742, -2.79443095298016E-16));
#77 = CARTESIAN_POINT ('', (-0.582193405129629, 2.16155872328221, -5.2942919432732E-16));
#78 = CARTESIAN_POINT ('', (-1.19072420123981, 2.91008724141033, -7.12765805086543E-16));
#79 = CARTESIAN_POINT ('', (-1.96460837687031, 3.47535054676717, -8.51215384602683E-16));
#80 = CARTESIAN_POINT ('', (-2.85908698127257, 3.88331612354763, -9.51138132155983E-16));
#81 = CARTESIAN_POINT ('', (-3.5629784888811, 4., -9.79717439317883E-16));
#82 = CARTESIAN_POINT ('', (-4., 4., -9.79717439317883E-16));
#83 = (
   BOUNDED_SURFACE ()
   B_SPLINE_SURFACE (5, 3, ((#29, #30, #31, #32, #33, #34, #35, #36, #37), (#38, #39, #40, #41, #42, #43, #44, #45, #46), (#47, #48, #49, #50, #51, #52, #53, #54, #55), (#56, #57, #58, #59, #60, #61, #62, #63, #64), (#65, #66, #67, #68, #69, #70, #71, #72, #73), (#74, #75, #76, #77, #78, #79, #80, #81, #82)), .UNSPECIFIED., .T., .F., .U.)
   B_SPLINE_SURFACE_WITH_KNOTS ((6, 6), (4, 1, 1, 1, 1, 1, 4), (0., 1.), (0., 0.208662401196191, 0.33617370428258, 0.532939663384363, 0.66382629571742, 0.791337598803809, 1.), .UNSPECIFIED.)
   SURFACE ()
   GEOMETRIC_REPRESENTATION_ITEM ()
   RATIONAL_B_SPLINE_SURFACE (((5., 5., 5., 5., 5., 5., 5., 5., 5.), (1., 1., 1., 1., 1., 1., 1., 1., 1.), (1., 1., 1., 1., 1., 1., 1., 1., 1.), (1., 1., 1., 1., 1., 1., 1., 1., 1.), (1., 1., 1., 1., 1., 1., 1., 1., 1.), (5., 5., 5., 5., 5., 5., 5., 5., 5.)))
   REPRESENTATION_ITEM ('')
);
#84 = ADVANCED_FACE ('', (#28), #83, .F.);
#85 = CARTESIAN_POINT ('', (-20., 4., -9.79717439317882E-16));
#86 = VERTEX_POINT ('', #85);
#87 = CARTESIAN_POINT ('', (-4., 4., -9.79717439317882E-16));
#88 = CARTESIAN_POINT ('', (-9.33333333333334, 4., -9.79717439317882E-16));
#89 = CARTESIAN_POINT ('', (-14.6666666666666, 4., -9.79717439317883E-16));
#90 = CARTESIAN_POINT ('', (-20., 4., -9.79717439317882E-16));
#91 = B_SPLINE_CURVE_WITH_KNOTS ('', 3, (#87, #88, #89, #90), .UNSPECIFIED., .F., .U., (4, 4), (0., 1.), .UNSPECIFIED.);
#92 = EDGE_CURVE ('', #4, #86, #91, .T.);
#93 = ORIENTED_EDGE ('', *, *, #92, .F.);
#94 = ORIENTED_EDGE ('', *, *, #25, .T.);
#95 = ORIENTED_EDGE ('', *, *, #92, .T.);
#96 = CARTESIAN_POINT ('', (-20., 4., -9.79717439317882E-16));
#97 = CARTESIAN_POINT ('', (-20., 4., 16.));
#98 = CARTESIAN_POINT ('', (-20., -12., 8.));
#99 = CARTESIAN_POINT ('', (-20., -12., -8.));
#100 = CARTESIAN_POINT ('', (-20., 4., -16.));
#101 = CARTESIAN_POINT ('', (-20., 4., -9.79717439317882E-16));
#102 = (
   BOUNDED_CURVE ()
   B_SPLINE_CURVE (5, (#96, #97, #98, #99, #100, #101), .UNSPECIFIED., .T., .U.)
   B_SPLINE_CURVE_WITH_KNOTS ((6, 6), (0., 1.), .UNSPECIFIED.)
   CURVE ()
   GEOMETRIC_REPRESENTATION_ITEM ()
   RATIONAL_B_SPLINE_CURVE ((5., 1., 1., 1., 1., 5.))
   REPRESENTATION_ITEM ('')
);
#103 = EDGE_CURVE ('', #86, #86, #102, .T.);
#104 = ORIENTED_EDGE ('', *, *, #103, .F.);
#105 = EDGE_LOOP ('', (#93, #94, #95, #104));
#106 = FACE_OUTER_BOUND ('', #105, .F.);
#107 = CARTESIAN_POINT ('', (-4., 4., -9.79717439317882E-16));
#108 = CARTESIAN_POINT ('', (-9.33333333333334, 4., -9.79717439317882E-16));
#109 = CARTESIAN_POINT ('', (-14.6666666666666, 4., -9.79717439317883E-16));
#110 = CARTESIAN_POINT ('', (-20., 4., -9.79717439317882E-16));
#111 = CARTESIAN_POINT ('', (-4., 4., 16.));
#112 = CARTESIAN_POINT ('', (-9.33333333333334, 4., 16.));
#113 = CARTESIAN_POINT ('', (-14.6666666666666, 4., 16.));
#114 = CARTESIAN_POINT ('', (-20., 4., 16.));
#115 = CARTESIAN_POINT ('', (-4., -12., 8.));
#116 = CARTESIAN_POINT ('', (-9.33333333333334, -12., 8.));
#117 = CARTESIAN_POINT ('', (-14.6666666666666, -12., 8.00000000000001));
#118 = CARTESIAN_POINT ('', (-20., -12., 8.));
#119 = CARTESIAN_POINT ('', (-4., -12., -8.));
#120 = CARTESIAN_POINT ('', (-9.33333333333334, -12., -8.));
#121 = CARTESIAN_POINT ('', (-14.6666666666666, -12., -8.00000000000001));
#122 = CARTESIAN_POINT ('', (-20., -12., -8.));
#123 = CARTESIAN_POINT ('', (-4., 4., -16.));
#124 = CARTESIAN_POINT ('', (-9.33333333333334, 4., -16.));
#125 = CARTESIAN_POINT ('', (-14.6666666666666, 4., -16.));
#126 = CARTESIAN_POINT ('', (-20., 4., -16.));
#127 = CARTESIAN_POINT ('', (-4., 4., -9.79717439317882E-16));
#128 = CARTESIAN_POINT ('', (-9.33333333333334, 4., -9.79717439317882E-16));
#129 = CARTESIAN_POINT ('', (-14.6666666666666, 4., -9.79717439317883E-16));
#130 = CARTESIAN_POINT ('', (-20., 4., -9.79717439317882E-16));
#131 = (
   BOUNDED_SURFACE ()
   B_SPLINE_SURFACE (5, 3, ((#107, #108, #109, #110), (#111, #112, #113, #114), (#115, #116, #117, #118), (#119, #120, #121, #122), (#123, #124, #125, #126), (#127, #128, #129, #130)), .UNSPECIFIED., .T., .F., .U.)
   B_SPLINE_SURFACE_WITH_KNOTS ((6, 6), (4, 4), (0., 1.), (0., 1.), .UNSPECIFIED.)
   SURFACE ()
   GEOMETRIC_REPRESENTATION_ITEM ()
   RATIONAL_B_SPLINE_SURFACE (((5., 5., 5., 5.), (1., 1., 1., 1.), (1., 1., 1., 1.), (1., 1., 1., 1.), (1., 1., 1., 1.), (5., 5., 5., 5.)))
   REPRESENTATION_ITEM ('')
);
#132 = ADVANCED_FACE ('', (#106), #131, .F.);
#133 = CARTESIAN_POINT ('', (-63.75, 4., -9.79717439317882E-16));
#134 = VERTEX_POINT ('', #133);
#135 = CARTESIAN_POINT ('', (-20., 4., -9.79717439317882E-16));
#136 = CARTESIAN_POINT ('', (-34.5833333333334, 4., -9.79717439317883E-16));
#137 = CARTESIAN_POINT ('', (-49.1666666666666, 4., -9.79717439317883E-16));
#138 = CARTESIAN_POINT ('', (-63.75, 4., -9.79717439317882E-16));
#139 = B_SPLINE_CURVE_WITH_KNOTS ('', 3, (#135, #136, #137, #138), .UNSPECIFIED., .F., .U., (4, 4), (0., 1.), .UNSPECIFIED.);
#140 = EDGE_CURVE ('', #86, #134, #139, .T.);
#141 = ORIENTED_EDGE ('', *, *, #140, .F.);
#142 = ORIENTED_EDGE ('', *, *, #103, .T.);
#143 = ORIENTED_EDGE ('', *, *, #140, .T.);
#144 = CARTESIAN_POINT ('', (-63.75, 4., -9.79717439317882E-16));
#145 = CARTESIAN_POINT ('', (-63.75, 3.99999999999999, 16.));
#146 = CARTESIAN_POINT ('', (-63.75, -12., 7.99999999999999));
#147 = CARTESIAN_POINT ('', (-63.75, -12., -8.00000000000001));
#148 = CARTESIAN_POINT ('', (-63.75, 4.00000000000002, -16.));
#149 = CARTESIAN_POINT ('', (-63.75, 4., -9.79717439317882E-16));
#150 = (
   BOUNDED_CURVE ()
   B_SPLINE_CURVE (5, (#144, #145, #146, #147, #148, #149), .UNSPECIFIED., .T., .U.)
   B_SPLINE_CURVE_WITH_KNOTS ((6, 6), (0., 1.), .UNSPECIFIED.)
   CURVE ()
   GEOMETRIC_REPRESENTATION_ITEM ()
   RATIONAL_B_SPLINE_CURVE ((5., 1., 1., 1., 1., 5.))
   REPRESENTATION_ITEM ('')
);
#151 = EDGE_CURVE ('', #134, #134, #150, .T.);
#152 = ORIENTED_EDGE ('', *, *, #151, .F.);
#153 = EDGE_LOOP ('', (#141, #142, #143, #152));
#154 = FACE_OUTER_BOUND ('', #153, .F.);
#155 = CARTESIAN_POINT ('', (-20., 4., -9.79717439317882E-16));
#156 = CARTESIAN_POINT ('', (-34.5833333333334, 4., -9.79717439317883E-16));
#157 = CARTESIAN_POINT ('', (-49.1666666666666, 4., -9.79717439317883E-16));
#158 = CARTESIAN_POINT ('', (-63.75, 4., -9.79717439317882E-16));
#159 = CARTESIAN_POINT ('', (-20., 4., 16.));
#160 = CARTESIAN_POINT ('', (-34.5833333333334, 4., 16.));
#161 = CARTESIAN_POINT ('', (-49.1666666666666, 4., 16.));
#162 = CARTESIAN_POINT ('', (-63.75, 3.99999999999999, 16.));
#163 = CARTESIAN_POINT ('', (-20., -12., 8.));
#164 = CARTESIAN_POINT ('', (-34.5833333333334, -12., 8.));
#165 = CARTESIAN_POINT ('', (-49.1666666666666, -12., 7.99999999999999));
#166 = CARTESIAN_POINT ('', (-63.75, -12., 7.99999999999999));
#167 = CARTESIAN_POINT ('', (-20., -12., -8.));
#168 = CARTESIAN_POINT ('', (-34.5833333333334, -12., -8.00000000000001));
#169 = CARTESIAN_POINT ('', (-49.1666666666666, -12., -8.00000000000001));
#170 = CARTESIAN_POINT ('', (-63.75, -12., -8.00000000000001));
#171 = CARTESIAN_POINT ('', (-20., 4., -16.));
#172 = CARTESIAN_POINT ('', (-34.5833333333334, 4.00000000000001, -16.));
#173 = CARTESIAN_POINT ('', (-49.1666666666666, 4.00000000000001, -16.));
#174 = CARTESIAN_POINT ('', (-63.75, 4.00000000000002, -16.));
#175 = CARTESIAN_POINT ('', (-20., 4., -9.79717439317882E-16));
#176 = CARTESIAN_POINT ('', (-34.5833333333334, 4., -9.79717439317883E-16));
#177 = CARTESIAN_POINT ('', (-49.1666666666666, 4., -9.79717439317883E-16));
#178 = CARTESIAN_POINT ('', (-63.75, 4., -9.79717439317882E-16));
#179 = (
   BOUNDED_SURFACE ()
   B_SPLINE_SURFACE (5, 3, ((#155, #156, #157, #158), (#159, #160, #161, #162), (#163, #164, #165, #166), (#167, #168, #169, #170), (#171, #172, #173, #174), (#175, #176, #177, #178)), .UNSPECIFIED., .T., .F., .U.)
   B_SPLINE_SURFACE_WITH_KNOTS ((6, 6), (4, 4), (0., 1.), (0., 1.), .UNSPECIFIED.)
   SURFACE ()
   GEOMETRIC_REPRESENTATION_ITEM ()
   RATIONAL_B_SPLINE_SURFACE (((5., 5., 5., 5.), (1., 1., 1., 1.), (1., 1., 1., 1.), (1., 1., 1., 1.), (1., 1., 1., 1.), (5., 5., 5., 5.)))
   REPRESENTATION_ITEM ('')
);
#180 = ADVANCED_FACE ('', (#154), #179, .F.);
#181 = CARTESIAN_POINT ('', (-64., 3.75, -9.18485099360515E-16));
#182 = VERTEX_POINT ('', #181);
#183 = CARTESIAN_POINT ('', (-64., 3.91886975727153E-15, -3.91886975727153E-15));
#184 = VERTEX_POINT ('', #183);
#185 = CARTESIAN_POINT ('', (-64., 3.75, -9.18485099360515E-16));
#186 = CARTESIAN_POINT ('', (-64., 3.91886975727153E-15, -3.91886975727153E-15));
#187 = B_SPLINE_CURVE_WITH_KNOTS ('', 1, (#185, #186), .UNSPECIFIED., .F., .U., (2, 2), (0., 1.), .UNSPECIFIED.);
#188 = EDGE_CURVE ('', #182, #184, #187, .T.);
#189 = ORIENTED_EDGE ('', *, *, #188, .F.);
#190 = CARTESIAN_POINT ('', (-64., 3.75, -9.18485099360515E-16));
#191 = CARTESIAN_POINT ('', (-64., 3.74999999999999, 15.));
#192 = CARTESIAN_POINT ('', (-64., -11.25, 7.49999999999999));
#193 = CARTESIAN_POINT ('', (-64., -11.25, -7.50000000000001));
#194 = CARTESIAN_POINT ('', (-64., 3.75000000000002, -15.));
#195 = CARTESIAN_POINT ('', (-64., 3.75, -9.18485099360515E-16));
#196 = (
   BOUNDED_CURVE ()
   B_SPLINE_CURVE (5, (#190, #191, #192, #193, #194, #195), .UNSPECIFIED., .T., .U.)
   B_SPLINE_CURVE_WITH_KNOTS ((6, 6), (0., 1.), .UNSPECIFIED.)
   CURVE ()
   GEOMETRIC_REPRESENTATION_ITEM ()
   RATIONAL_B_SPLINE_CURVE ((5., 1., 1., 1., 1., 5.))
   REPRESENTATION_ITEM ('')
);
#197 = EDGE_CURVE ('', #182, #182, #196, .T.);
#198 = ORIENTED_EDGE ('', *, *, #197, .T.);
#199 = ORIENTED_EDGE ('', *, *, #188, .T.);
#200 = EDGE_LOOP ('', (#189, #198, #199));
#201 = FACE_OUTER_BOUND ('', #200, .F.);
#202 = CARTESIAN_POINT ('', (-64., 3.75, -9.18485099360515E-16));
#203 = CARTESIAN_POINT ('', (-64., 3.91886975727153E-15, -3.91886975727153E-15));
#204 = CARTESIAN_POINT ('', (-64., 3.74999999999999, 15.));
#205 = CARTESIAN_POINT ('', (-64., 3.91886975727153E-15, -3.91886975727153E-15));
#206 = CARTESIAN_POINT ('', (-64., -11.25, 7.49999999999999));
#207 = CARTESIAN_POINT ('', (-64., 3.91886975727153E-15, -3.91886975727153E-15));
#208 = CARTESIAN_POINT ('', (-64., -11.25, -7.50000000000001));
#209 = CARTESIAN_POINT ('', (-64., 3.91886975727153E-15, -3.91886975727153E-15));
#210 = CARTESIAN_POINT ('', (-64., 3.75000000000002, -15.));
#211 = CARTESIAN_POINT ('', (-64., 3.91886975727153E-15, -3.91886975727153E-15));
#212 = CARTESIAN_POINT ('', (-64., 3.75, -9.18485099360515E-16));
#213 = CARTESIAN_POINT ('', (-64., 3.91886975727153E-15, -3.91886975727153E-15));
#214 = (
   BOUNDED_SURFACE ()
   B_SPLINE_SURFACE (5, 1, ((#202, #203), (#204, #205), (#206, #207), (#208, #209), (#210, #211), (#212, #213)), .UNSPECIFIED., .T., .F., .U.)
   B_SPLINE_SURFACE_WITH_KNOTS ((6, 6), (2, 2), (0., 1.), (0., 1.), .UNSPECIFIED.)
   SURFACE ()
   GEOMETRIC_REPRESENTATION_ITEM ()
   RATIONAL_B_SPLINE_SURFACE (((5., 5.), (1., 1.), (1., 1.), (1., 1.), (1., 1.), (5., 5.)))
   REPRESENTATION_ITEM ('')
);
#215 = ADVANCED_FACE ('', (#201), #214, .F.);
#216 = CARTESIAN_POINT ('', (-63.75, 4., -9.79717439317882E-16));
#217 = CARTESIAN_POINT ('', (-63.8333333333332, 3.91666666666667, -9.59306659332094E-16));
#218 = CARTESIAN_POINT ('', (-63.9166666666667, 3.83333333333333, -9.38895879346304E-16));
#219 = CARTESIAN_POINT ('', (-64., 3.75, -9.18485099360515E-16));
#220 = B_SPLINE_CURVE_WITH_KNOTS ('', 3, (#216, #217, #218, #219), .UNSPECIFIED., .F., .U., (4, 4), (0., 1.), .UNSPECIFIED.);
#221 = EDGE_CURVE ('', #134, #182, #220, .T.);
#222 = ORIENTED_EDGE ('', *, *, #221, .F.);
#223 = ORIENTED_EDGE ('', *, *, #151, .T.);
#224 = ORIENTED_EDGE ('', *, *, #221, .T.);
#225 = ORIENTED_EDGE ('', *, *, #197, .F.);
#226 = EDGE_LOOP ('', (#222, #223, #224, #225));
#227 = FACE_OUTER_BOUND ('', #226, .F.);
#228 = CARTESIAN_POINT ('', (-63.75, 4., -9.79717439317882E-16));
#229 = CARTESIAN_POINT ('', (-63.8333333333332, 3.91666666666667, -9.59306659332094E-16));
#230 = CARTESIAN_POINT ('', (-63.9166666666667, 3.83333333333333, -9.38895879346304E-16));
#231 = CARTESIAN_POINT ('', (-64., 3.75, -9.18485099360515E-16));
#232 = CARTESIAN_POINT ('', (-63.75, 3.99999999999999, 16.));
#233 = CARTESIAN_POINT ('', (-63.8333333333332, 3.91666666666666, 15.6666666666667));
#234 = CARTESIAN_POINT ('', (-63.9166666666667, 3.83333333333332, 15.3333333333333));
#235 = CARTESIAN_POINT ('', (-64., 3.74999999999999, 15.));
#236 = CARTESIAN_POINT ('', (-63.75, -12., 7.99999999999999));
#237 = CARTESIAN_POINT ('', (-63.8333333333332, -11.75, 7.83333333333333));
#238 = CARTESIAN_POINT ('', (-63.9166666666667, -11.5, 7.66666666666665));
#239 = CARTESIAN_POINT ('', (-64., -11.25, 7.49999999999999));
#240 = CARTESIAN_POINT ('', (-63.75, -12., -8.00000000000001));
#241 = CARTESIAN_POINT ('', (-63.8333333333332, -11.75, -7.83333333333335));
#242 = CARTESIAN_POINT ('', (-63.9166666666667, -11.5, -7.66666666666667));
#243 = CARTESIAN_POINT ('', (-64., -11.25, -7.50000000000001));
#244 = CARTESIAN_POINT ('', (-63.75, 4.00000000000002, -16.));
#245 = CARTESIAN_POINT ('', (-63.8333333333332, 3.91666666666668, -15.6666666666667));
#246 = CARTESIAN_POINT ('', (-63.9166666666667, 3.83333333333335, -15.3333333333333));
#247 = CARTESIAN_POINT ('', (-64., 3.75000000000002, -15.));
#248 = CARTESIAN_POINT ('', (-63.75, 4., -9.79717439317882E-16));
#249 = CARTESIAN_POINT ('', (-63.8333333333332, 3.91666666666667, -9.59306659332094E-16));
#250 = CARTESIAN_POINT ('', (-63.9166666666667, 3.83333333333333, -9.38895879346304E-16));
#251 = CARTESIAN_POINT ('', (-64., 3.75, -9.18485099360515E-16));
#252 = (
   BOUNDED_SURFACE ()
   B_SPLINE_SURFACE (5, 3, ((#228, #229, #230, #231), (#232, #233, #234, #235), (#236, #237, #238, #239), (#240, #241, #242, #243), (#244, #245, #246, #247), (#248, #249, #250, #251)), .UNSPECIFIED., .T., .F., .U.)
   B_SPLINE_SURFACE_WITH_KNOTS ((6, 6), (4, 4), (0., 1.), (0., 1.), .UNSPECIFIED.)
   SURFACE ()
   GEOMETRIC_REPRESENTATION_ITEM ()
   RATIONAL_B_SPLINE_SURFACE (((5., 5., 5., 5.), (1., 1., 1., 1.), (1., 1., 1., 1.), (1., 1., 1., 1.), (1., 1., 1., 1.), (5., 5., 5., 5.)))
   REPRESENTATION_ITEM ('')
);
#253 = ADVANCED_FACE ('', (#227), #252, .F.);
#254 = CLOSED_SHELL ('', (#84, #132, #180, #215, #253));
#255 = MANIFOLD_SOLID_BREP ('', #254);
#256 = (
   LENGTH_UNIT ()
   NAMED_UNIT (*)
   SI_UNIT (.MILLI., .METRE.)
);
#257 = (
   NAMED_UNIT (*)
   SI_UNIT ($, .STERADIAN.)
   SOLID_ANGLE_UNIT ()
);
#258 = (
   NAMED_UNIT (*)
   SI_UNIT ($, .RADIAN.)
   PLANE_ANGLE_UNIT ()
);
#259 = UNCERTAINTY_MEASURE_WITH_UNIT (LENGTH_MEASURE(0.001), #256, 'DISTANCE_ACCURACY_VALUE', '');
#260 = (
   GEOMETRIC_REPRESENTATION_CONTEXT (3)
   GLOBAL_UNCERTAINTY_ASSIGNED_CONTEXT ((#259))
   GLOBAL_UNIT_ASSIGNED_CONTEXT ((#256, #257, #258))
   REPRESENTATION_CONTEXT ('', '3D')
);
#261 = SHAPE_REPRESENTATION ('', (), #260);
#262 = APPLICATION_CONTEXT ('configuration controlled 3D designs of mechanical parts and assemblies');
#263 = APPLICATION_PROTOCOL_DEFINITION ('International Standard', 'config_control_design', 1997, #262);
#264 = MECHANICAL_CONTEXT ('', #262, 'mechanical');
#265 = PRODUCT ('', '', '', (#264));
#266 = PERSON_AND_ORGANIZATION_ROLE ('design_owner');
#267 = PERSON ('', '', $, $, $, $);
#268 = ORGANIZATION ($, '', '');
#269 = PERSON_AND_ORGANIZATION (#267, #268);
#270 = CC_DESIGN_PERSON_AND_ORGANIZATION_ASSIGNMENT (#269, #266, (#265));
#271 = PRODUCT_RELATED_PRODUCT_CATEGORY ('detail', $, (#265));
#272 = PRODUCT_DEFINITION_FORMATION_WITH_SPECIFIED_SOURCE ('', '', #265, .NOT_KNOWN.);
#273 = APPROVAL_STATUS ('approved');
#274 = APPROVAL (#273, '');
#275 = CALENDAR_DATE (2020, 19, 4);
#276 = COORDINATED_UNIVERSAL_TIME_OFFSET (0, $, .AHEAD.);
#277 = LOCAL_TIME (8, 39, 34., #276);
#278 = DATE_AND_TIME (#275, #277);
#279 = APPROVAL_DATE_TIME (#278, #274);
#280 = APPROVAL_ROLE ('');
#281 = PERSON ('', '', $, $, $, $);
#282 = ORGANIZATION ($, '', '');
#283 = PERSON_AND_ORGANIZATION (#281, #282);
#284 = APPROVAL_PERSON_ORGANIZATION (#283, #274, #280);
#285 = CC_DESIGN_APPROVAL (#274, (#272));
#286 = PERSON_AND_ORGANIZATION_ROLE ('creator');
#287 = PERSON ('', '', $, $, $, $);
#288 = ORGANIZATION ($, '', '');
#289 = PERSON_AND_ORGANIZATION (#287, #288);
#290 = CC_DESIGN_PERSON_AND_ORGANIZATION_ASSIGNMENT (#289, #286, (#272));
#291 = PERSON_AND_ORGANIZATION_ROLE ('part_supplier');
#292 = PERSON ('', '', $, $, $, $);
#293 = ORGANIZATION ($, '', '');
#294 = PERSON_AND_ORGANIZATION (#292, #293);
#295 = CC_DESIGN_PERSON_AND_ORGANIZATION_ASSIGNMENT (#294, #291, (#272));
#296 = SECURITY_CLASSIFICATION_LEVEL ('unclassified');
#297 = SECURITY_CLASSIFICATION ('', '', #296);
#298 = APPROVAL_STATUS ('approved');
#299 = APPROVAL (#298, '');
#300 = CALENDAR_DATE (2020, 19, 4);
#301 = COORDINATED_UNIVERSAL_TIME_OFFSET (0, $, .AHEAD.);
#302 = LOCAL_TIME (8, 39, 34., #301);
#303 = DATE_AND_TIME (#300, #302);
#304 = APPROVAL_DATE_TIME (#303, #299);
#305 = APPROVAL_ROLE ('');
#306 = PERSON ('', '', $, $, $, $);
#307 = ORGANIZATION ($, '', '');
#308 = PERSON_AND_ORGANIZATION (#306, #307);
#309 = APPROVAL_PERSON_ORGANIZATION (#308, #299, #305);
#310 = CC_DESIGN_APPROVAL (#299, (#297));
#311 = DATE_TIME_ROLE ('classification_date');
#312 = CALENDAR_DATE (2020, 19, 4);
#313 = COORDINATED_UNIVERSAL_TIME_OFFSET (0, $, .AHEAD.);
#314 = LOCAL_TIME (8, 39, 34., #313);
#315 = DATE_AND_TIME (#312, #314);
#316 = CC_DESIGN_DATE_AND_TIME_ASSIGNMENT (#315, #311, (#297));
#317 = PERSON_AND_ORGANIZATION_ROLE ('classification_officer');
#318 = PERSON ('', '', $, $, $, $);
#319 = ORGANIZATION ($, '', '');
#320 = PERSON_AND_ORGANIZATION (#318, #319);
#321 = CC_DESIGN_PERSON_AND_ORGANIZATION_ASSIGNMENT (#320, #317, (#297));
#322 = CC_DESIGN_SECURITY_CLASSIFICATION (#297, (#272));
#323 = DESIGN_CONTEXT ('', #262, 'design');
#324 = PRODUCT_DEFINITION ('', '', #272, #323);
#325 = APPROVAL_STATUS ('approved');
#326 = APPROVAL (#325, '');
#327 = CALENDAR_DATE (2020, 19, 4);
#328 = COORDINATED_UNIVERSAL_TIME_OFFSET (0, $, .AHEAD.);
#329 = LOCAL_TIME (8, 39, 34., #328);
#330 = DATE_AND_TIME (#327, #329);
#331 = APPROVAL_DATE_TIME (#330, #326);
#332 = APPROVAL_ROLE ('');
#333 = PERSON ('', '', $, $, $, $);
#334 = ORGANIZATION ($, '', '');
#335 = PERSON_AND_ORGANIZATION (#333, #334);
#336 = APPROVAL_PERSON_ORGANIZATION (#335, #326, #332);
#337 = CC_DESIGN_APPROVAL (#326, (#324));
#338 = DATE_TIME_ROLE ('creation_date');
#339 = CALENDAR_DATE (2020, 19, 4);
#340 = COORDINATED_UNIVERSAL_TIME_OFFSET (0, $, .AHEAD.);
#341 = LOCAL_TIME (8, 39, 34., #340);
#342 = DATE_AND_TIME (#339, #341);
#343 = CC_DESIGN_DATE_AND_TIME_ASSIGNMENT (#342, #338, (#324));
#344 = PERSON_AND_ORGANIZATION_ROLE ('creator');
#345 = PERSON ('', '', $, $, $, $);
#346 = ORGANIZATION ($, '', '');
#347 = PERSON_AND_ORGANIZATION (#345, #346);
#348 = CC_DESIGN_PERSON_AND_ORGANIZATION_ASSIGNMENT (#347, #344, (#324));
#349 = PRODUCT_DEFINITION_SHAPE ('', '', #324);
#350 = SHAPE_DEFINITION_REPRESENTATION (#349, #261);
#351 = SHAPE_REPRESENTATION_RELATIONSHIP ('', '', #261, #352);
#352 = ADVANCED_BREP_SHAPE_REPRESENTATION ('', (#255), #260);
ENDSEC;
END-ISO-10303-21;
