ISO-10303-21;
HEADER;
FILE_DESCRIPTION ((), '1');
FILE_NAME ('C:\\Users\\kevin\\279 Range\\279 0600B.STP', '2020-04-16T10:56:49', ('Unknown'), ('mafordeurope'), 'OneCNC-XR7 Mill 3D Expert', 'OneCNC-XR7 Mill 3D Expert', '');
FILE_SCHEMA (('CONFIG_CONTROL_DESIGN'));
ENDSEC;

DATA;
#1 = CARTESIAN_POINT ('', (0., 0., 0.));
#2 = VERTEX_POINT ('', #1);
#3 = CARTESIAN_POINT ('', (-3., 3., -7.34788079488412E-16));
#4 = VERTEX_POINT ('', #3);
#5 = CARTESIAN_POINT ('', (0., 0., 0.));
#6 = CARTESIAN_POINT ('', (3.08148791101958E-33, 0.32776613333918, -8.02795492125462E-17));
#7 = CARTESIAN_POINT ('', (-0.0875129073392732, 0.855684764045561, -2.09582321473511E-16));
#8 = CARTESIAN_POINT ('', (-0.436645053847223, 1.62116904246166, -3.97071895745491E-16));
#9 = CARTESIAN_POINT ('', (-1.02090020810345, 2.33983709939422, -5.73094802859872E-16));
#10 = CARTESIAN_POINT ('', (-1.93877419916663, 2.87841461887293, -7.05008249924337E-16));
#11 = CARTESIAN_POINT ('', (-2.67223386666082, 3., -7.34788079488411E-16));
#12 = CARTESIAN_POINT ('', (-3., 3., -7.34788079488412E-16));
#13 = B_SPLINE_CURVE_WITH_KNOTS ('', 3, (#5, #6, #7, #8, #9, #10, #11, #12), .UNSPECIFIED., .F., .U., (4, 1, 1, 1, 1, 4), (0., 0.208662401196191, 0.33617370428258, 0.532939663384363, 0.791337598803809, 1.), .UNSPECIFIED.);
#14 = EDGE_CURVE ('', #2, #4, #13, .T.);
#15 = ORIENTED_EDGE ('', *, *, #14, .F.);
#16 = ORIENTED_EDGE ('', *, *, #14, .T.);
#17 = CARTESIAN_POINT ('', (-3., 3., -7.34788079488412E-16));
#18 = CARTESIAN_POINT ('', (-3., 3., 12.));
#19 = CARTESIAN_POINT ('', (-3., -9., 6.));
#20 = CARTESIAN_POINT ('', (-3., -9., -6.));
#21 = CARTESIAN_POINT ('', (-3., 3., -12.));
#22 = CARTESIAN_POINT ('', (-3., 3., -7.34788079488412E-16));
#23 = (
   BOUNDED_CURVE ()
   B_SPLINE_CURVE (5, (#17, #18, #19, #20, #21, #22), .UNSPECIFIED., .T., .U.)
   B_SPLINE_CURVE_WITH_KNOTS ((6, 6), (0., 1.), .UNSPECIFIED.)
   CURVE ()
   GEOMETRIC_REPRESENTATION_ITEM ()
   RATIONAL_B_SPLINE_CURVE ((5., 1., 1., 1., 1., 5.))
   REPRESENTATION_ITEM ('')
);
#24 = EDGE_CURVE ('', #4, #4, #23, .T.);
#25 = ORIENTED_EDGE ('', *, *, #24, .F.);
#26 = EDGE_LOOP ('', (#15, #16, #25));
#27 = FACE_OUTER_BOUND ('', #26, .F.);
#28 = CARTESIAN_POINT ('', (0., 0., 0.));
#29 = CARTESIAN_POINT ('', (3.08148791101958E-33, 0.32776613333918, -8.02795492125462E-17));
#30 = CARTESIAN_POINT ('', (-0.0875129073392732, 0.855684764045561, -2.09582321473511E-16));
#31 = CARTESIAN_POINT ('', (-0.436645053847223, 1.62116904246166, -3.97071895745491E-16));
#32 = CARTESIAN_POINT ('', (-1.02090020810345, 2.33983709939422, -5.73094802859872E-16));
#33 = CARTESIAN_POINT ('', (-1.93877419916663, 2.87841461887293, -7.05008249924337E-16));
#34 = CARTESIAN_POINT ('', (-2.67223386666082, 3., -7.34788079488411E-16));
#35 = CARTESIAN_POINT ('', (-3., 3., -7.34788079488412E-16));
#36 = CARTESIAN_POINT ('', (0., 0., 0.));
#37 = CARTESIAN_POINT ('', (-8.02795492125462E-17, 0.32776613333918, 1.31106453335672));
#38 = CARTESIAN_POINT ('', (-0.0875129073392734, 0.855684764045562, 3.42273905618225));
#39 = CARTESIAN_POINT ('', (-0.436645053847223, 1.62116904246166, 6.48467616984665));
#40 = CARTESIAN_POINT ('', (-1.02090020810345, 2.33983709939422, 9.35934839757688));
#41 = CARTESIAN_POINT ('', (-1.93877419916663, 2.87841461887293, 11.5136584754917));
#42 = CARTESIAN_POINT ('', (-2.67223386666082, 3., 12.));
#43 = CARTESIAN_POINT ('', (-3., 3., 12.));
#44 = CARTESIAN_POINT ('', (0., 0., 0.));
#45 = CARTESIAN_POINT ('', (-1.20419323818819E-16, -0.98329840001754, 0.65553226667836));
#46 = CARTESIAN_POINT ('', (-0.0875129073392736, -2.56705429213668, 1.71136952809112));
#47 = CARTESIAN_POINT ('', (-0.436645053847223, -4.86350712738499, 3.24233808492333));
#48 = CARTESIAN_POINT ('', (-1.02090020810345, -7.01951129818266, 4.67967419878844));
#49 = CARTESIAN_POINT ('', (-1.93877419916663, -8.6352438566188, 5.75682923774587));
#50 = CARTESIAN_POINT ('', (-2.67223386666082, -8.99999999999999, 6.));
#51 = CARTESIAN_POINT ('', (-3., -9., 6.));
#52 = CARTESIAN_POINT ('', (0., 0., 0.));
#53 = CARTESIAN_POINT ('', (-4.01397746062732E-17, -0.98329840001754, -0.65553226667836));
#54 = CARTESIAN_POINT ('', (-0.0875129073392733, -2.56705429213669, -1.71136952809112));
#55 = CARTESIAN_POINT ('', (-0.436645053847223, -4.86350712738499, -3.24233808492332));
#56 = CARTESIAN_POINT ('', (-1.02090020810345, -7.01951129818266, -4.67967419878844));
#57 = CARTESIAN_POINT ('', (-1.93877419916663, -8.6352438566188, -5.75682923774586));
#58 = CARTESIAN_POINT ('', (-2.67223386666082, -9., -5.99999999999999));
#59 = CARTESIAN_POINT ('', (-3., -9., -6.));
#60 = CARTESIAN_POINT ('', (0., 0., 0.));
#61 = CARTESIAN_POINT ('', (8.02795492125462E-17, 0.32776613333918, -1.31106453335672));
#62 = CARTESIAN_POINT ('', (-0.087512907339273, 0.855684764045561, -3.42273905618225));
#63 = CARTESIAN_POINT ('', (-0.436645053847222, 1.62116904246166, -6.48467616984665));
#64 = CARTESIAN_POINT ('', (-1.02090020810345, 2.33983709939422, -9.35934839757688));
#65 = CARTESIAN_POINT ('', (-1.93877419916663, 2.87841461887293, -11.5136584754917));
#66 = CARTESIAN_POINT ('', (-2.67223386666082, 3., -12.));
#67 = CARTESIAN_POINT ('', (-3., 3., -12.));
#68 = CARTESIAN_POINT ('', (0., 0., 0.));
#69 = CARTESIAN_POINT ('', (3.08148791101958E-33, 0.32776613333918, -8.02795492125462E-17));
#70 = CARTESIAN_POINT ('', (-0.0875129073392732, 0.855684764045561, -2.09582321473511E-16));
#71 = CARTESIAN_POINT ('', (-0.436645053847223, 1.62116904246166, -3.97071895745491E-16));
#72 = CARTESIAN_POINT ('', (-1.02090020810345, 2.33983709939422, -5.73094802859872E-16));
#73 = CARTESIAN_POINT ('', (-1.93877419916663, 2.87841461887293, -7.05008249924337E-16));
#74 = CARTESIAN_POINT ('', (-2.67223386666082, 3., -7.34788079488411E-16));
#75 = CARTESIAN_POINT ('', (-3., 3., -7.34788079488412E-16));
#76 = (
   BOUNDED_SURFACE ()
   B_SPLINE_SURFACE (5, 3, ((#28, #29, #30, #31, #32, #33, #34, #35), (#36, #37, #38, #39, #40, #41, #42, #43), (#44, #45, #46, #47, #48, #49, #50, #51), (#52, #53, #54, #55, #56, #57, #58, #59), (#60, #61, #62, #63, #64, #65, #66, #67), (#68, #69, #70, #71, #72, #73, #74, #75)), .UNSPECIFIED., .T., .F., .U.)
   B_SPLINE_SURFACE_WITH_KNOTS ((6, 6), (4, 1, 1, 1, 1, 4), (0., 1.), (0., 0.208662401196191, 0.33617370428258, 0.532939663384363, 0.791337598803809, 1.), .UNSPECIFIED.)
   SURFACE ()
   GEOMETRIC_REPRESENTATION_ITEM ()
   RATIONAL_B_SPLINE_SURFACE (((5., 5., 5., 5., 5., 5., 5., 5.), (1., 1., 1., 1., 1., 1., 1., 1.), (1., 1., 1., 1., 1., 1., 1., 1.), (1., 1., 1., 1., 1., 1., 1., 1.), (1., 1., 1., 1., 1., 1., 1., 1.), (5., 5., 5., 5., 5., 5., 5., 5.)))
   REPRESENTATION_ITEM ('')
);
#77 = ADVANCED_FACE ('', (#27), #76, .F.);
#78 = CARTESIAN_POINT ('', (-56.75, 3., -7.34788079488411E-16));
#79 = VERTEX_POINT ('', #78);
#80 = CARTESIAN_POINT ('', (-3., 3., -7.34788079488412E-16));
#81 = CARTESIAN_POINT ('', (-20.9166666666667, 3., -7.34788079488412E-16));
#82 = CARTESIAN_POINT ('', (-38.8333333333332, 3., -7.34788079488411E-16));
#83 = CARTESIAN_POINT ('', (-56.75, 3., -7.34788079488411E-16));
#84 = B_SPLINE_CURVE_WITH_KNOTS ('', 3, (#80, #81, #82, #83), .UNSPECIFIED., .F., .U., (4, 4), (0., 1.), .UNSPECIFIED.);
#85 = EDGE_CURVE ('', #4, #79, #84, .T.);
#86 = ORIENTED_EDGE ('', *, *, #85, .F.);
#87 = ORIENTED_EDGE ('', *, *, #24, .T.);
#88 = ORIENTED_EDGE ('', *, *, #85, .T.);
#89 = CARTESIAN_POINT ('', (-56.75, 3., -7.34788079488411E-16));
#90 = CARTESIAN_POINT ('', (-56.75, 2.99999999999999, 12.));
#91 = CARTESIAN_POINT ('', (-56.75, -8.99999999999999, 5.99999999999998));
#92 = CARTESIAN_POINT ('', (-56.75, -8.99999999999998, -6.));
#93 = CARTESIAN_POINT ('', (-56.75, 3.00000000000001, -12.));
#94 = CARTESIAN_POINT ('', (-56.75, 3., -7.34788079488411E-16));
#95 = (
   BOUNDED_CURVE ()
   B_SPLINE_CURVE (5, (#89, #90, #91, #92, #93, #94), .UNSPECIFIED., .T., .U.)
   B_SPLINE_CURVE_WITH_KNOTS ((6, 6), (0., 1.), .UNSPECIFIED.)
   CURVE ()
   GEOMETRIC_REPRESENTATION_ITEM ()
   RATIONAL_B_SPLINE_CURVE ((5., 1., 1., 1., 1., 5.))
   REPRESENTATION_ITEM ('')
);
#96 = EDGE_CURVE ('', #79, #79, #95, .T.);
#97 = ORIENTED_EDGE ('', *, *, #96, .F.);
#98 = EDGE_LOOP ('', (#86, #87, #88, #97));
#99 = FACE_OUTER_BOUND ('', #98, .F.);
#100 = CARTESIAN_POINT ('', (-3., 3., -7.34788079488412E-16));
#101 = CARTESIAN_POINT ('', (-20.9166666666667, 3., -7.34788079488412E-16));
#102 = CARTESIAN_POINT ('', (-38.8333333333332, 3., -7.34788079488411E-16));
#103 = CARTESIAN_POINT ('', (-56.75, 3., -7.34788079488411E-16));
#104 = CARTESIAN_POINT ('', (-3., 3., 12.));
#105 = CARTESIAN_POINT ('', (-20.9166666666667, 3., 12.));
#106 = CARTESIAN_POINT ('', (-38.8333333333332, 2.99999999999999, 12.));
#107 = CARTESIAN_POINT ('', (-56.75, 2.99999999999999, 12.));
#108 = CARTESIAN_POINT ('', (-3., -9., 6.));
#109 = CARTESIAN_POINT ('', (-20.9166666666667, -9., 6.));
#110 = CARTESIAN_POINT ('', (-38.8333333333332, -8.99999999999999, 5.99999999999999));
#111 = CARTESIAN_POINT ('', (-56.75, -8.99999999999999, 5.99999999999998));
#112 = CARTESIAN_POINT ('', (-3., -9., -6.));
#113 = CARTESIAN_POINT ('', (-20.9166666666667, -8.99999999999999, -6.));
#114 = CARTESIAN_POINT ('', (-38.8333333333332, -8.99999999999999, -6.));
#115 = CARTESIAN_POINT ('', (-56.75, -8.99999999999998, -6.));
#116 = CARTESIAN_POINT ('', (-3., 3., -12.));
#117 = CARTESIAN_POINT ('', (-20.9166666666667, 3., -12.));
#118 = CARTESIAN_POINT ('', (-38.8333333333332, 3.00000000000001, -12.));
#119 = CARTESIAN_POINT ('', (-56.75, 3.00000000000001, -12.));
#120 = CARTESIAN_POINT ('', (-3., 3., -7.34788079488412E-16));
#121 = CARTESIAN_POINT ('', (-20.9166666666667, 3., -7.34788079488412E-16));
#122 = CARTESIAN_POINT ('', (-38.8333333333332, 3., -7.34788079488411E-16));
#123 = CARTESIAN_POINT ('', (-56.75, 3., -7.34788079488411E-16));
#124 = (
   BOUNDED_SURFACE ()
   B_SPLINE_SURFACE (5, 3, ((#100, #101, #102, #103), (#104, #105, #106, #107), (#108, #109, #110, #111), (#112, #113, #114, #115), (#116, #117, #118, #119), (#120, #121, #122, #123)), .UNSPECIFIED., .T., .F., .U.)
   B_SPLINE_SURFACE_WITH_KNOTS ((6, 6), (4, 4), (0., 1.), (0., 1.), .UNSPECIFIED.)
   SURFACE ()
   GEOMETRIC_REPRESENTATION_ITEM ()
   RATIONAL_B_SPLINE_SURFACE (((5., 5., 5., 5.), (1., 1., 1., 1.), (1., 1., 1., 1.), (1., 1., 1., 1.), (1., 1., 1., 1.), (5., 5., 5., 5.)))
   REPRESENTATION_ITEM ('')
);
#125 = ADVANCED_FACE ('', (#99), #124, .F.);
#126 = CARTESIAN_POINT ('', (-57., 2.75, -6.73555739531043E-16));
#127 = VERTEX_POINT ('', #126);
#128 = CARTESIAN_POINT ('', (-57., 3.49024337756996E-15, -3.49024337756996E-15));
#129 = VERTEX_POINT ('', #128);
#130 = CARTESIAN_POINT ('', (-57., 2.75, -6.73555739531043E-16));
#131 = CARTESIAN_POINT ('', (-57., 3.49024337756996E-15, -3.49024337756996E-15));
#132 = B_SPLINE_CURVE_WITH_KNOTS ('', 1, (#130, #131), .UNSPECIFIED., .F., .U., (2, 2), (0., 1.), .UNSPECIFIED.);
#133 = EDGE_CURVE ('', #127, #129, #132, .T.);
#134 = ORIENTED_EDGE ('', *, *, #133, .F.);
#135 = CARTESIAN_POINT ('', (-57., 2.75, -6.73555739531043E-16));
#136 = CARTESIAN_POINT ('', (-57., 2.74999999999999, 11.));
#137 = CARTESIAN_POINT ('', (-57., -8.24999999999999, 5.49999999999998));
#138 = CARTESIAN_POINT ('', (-57., -8.24999999999998, -5.50000000000001));
#139 = CARTESIAN_POINT ('', (-57., 2.75000000000001, -11.));
#140 = CARTESIAN_POINT ('', (-57., 2.75, -6.73555739531043E-16));
#141 = (
   BOUNDED_CURVE ()
   B_SPLINE_CURVE (5, (#135, #136, #137, #138, #139, #140), .UNSPECIFIED., .T., .U.)
   B_SPLINE_CURVE_WITH_KNOTS ((6, 6), (0., 1.), .UNSPECIFIED.)
   CURVE ()
   GEOMETRIC_REPRESENTATION_ITEM ()
   RATIONAL_B_SPLINE_CURVE ((5., 1., 1., 1., 1., 5.))
   REPRESENTATION_ITEM ('')
);
#142 = EDGE_CURVE ('', #127, #127, #141, .T.);
#143 = ORIENTED_EDGE ('', *, *, #142, .T.);
#144 = ORIENTED_EDGE ('', *, *, #133, .T.);
#145 = EDGE_LOOP ('', (#134, #143, #144));
#146 = FACE_OUTER_BOUND ('', #145, .F.);
#147 = CARTESIAN_POINT ('', (-57., 2.75, -6.73555739531043E-16));
#148 = CARTESIAN_POINT ('', (-57., 3.49024337756996E-15, -3.49024337756996E-15));
#149 = CARTESIAN_POINT ('', (-57., 2.74999999999999, 11.));
#150 = CARTESIAN_POINT ('', (-57., 3.49024337756996E-15, -3.49024337756996E-15));
#151 = CARTESIAN_POINT ('', (-57., -8.24999999999999, 5.49999999999998));
#152 = CARTESIAN_POINT ('', (-57., 3.49024337756996E-15, -3.49024337756996E-15));
#153 = CARTESIAN_POINT ('', (-57., -8.24999999999998, -5.50000000000001));
#154 = CARTESIAN_POINT ('', (-57., 3.49024337756996E-15, -3.49024337756996E-15));
#155 = CARTESIAN_POINT ('', (-57., 2.75000000000001, -11.));
#156 = CARTESIAN_POINT ('', (-57., 3.49024337756996E-15, -3.49024337756996E-15));
#157 = CARTESIAN_POINT ('', (-57., 2.75, -6.73555739531043E-16));
#158 = CARTESIAN_POINT ('', (-57., 3.49024337756996E-15, -3.49024337756996E-15));
#159 = (
   BOUNDED_SURFACE ()
   B_SPLINE_SURFACE (5, 1, ((#147, #148), (#149, #150), (#151, #152), (#153, #154), (#155, #156), (#157, #158)), .UNSPECIFIED., .T., .F., .U.)
   B_SPLINE_SURFACE_WITH_KNOTS ((6, 6), (2, 2), (0., 1.), (0., 1.), .UNSPECIFIED.)
   SURFACE ()
   GEOMETRIC_REPRESENTATION_ITEM ()
   RATIONAL_B_SPLINE_SURFACE (((5., 5.), (1., 1.), (1., 1.), (1., 1.), (1., 1.), (5., 5.)))
   REPRESENTATION_ITEM ('')
);
#160 = ADVANCED_FACE ('', (#146), #159, .F.);
#161 = CARTESIAN_POINT ('', (-56.75, 3., -7.34788079488411E-16));
#162 = CARTESIAN_POINT ('', (-56.8333333333332, 2.91666666666668, -7.14377299502624E-16));
#163 = CARTESIAN_POINT ('', (-56.9166666666667, 2.83333333333332, -6.9396651951683E-16));
#164 = CARTESIAN_POINT ('', (-57., 2.75, -6.73555739531043E-16));
#165 = B_SPLINE_CURVE_WITH_KNOTS ('', 3, (#161, #162, #163, #164), .UNSPECIFIED., .F., .U., (4, 4), (0., 1.), .UNSPECIFIED.);
#166 = EDGE_CURVE ('', #79, #127, #165, .T.);
#167 = ORIENTED_EDGE ('', *, *, #166, .F.);
#168 = ORIENTED_EDGE ('', *, *, #96, .T.);
#169 = ORIENTED_EDGE ('', *, *, #166, .T.);
#170 = ORIENTED_EDGE ('', *, *, #142, .F.);
#171 = EDGE_LOOP ('', (#167, #168, #169, #170));
#172 = FACE_OUTER_BOUND ('', #171, .F.);
#173 = CARTESIAN_POINT ('', (-56.75, 3., -7.34788079488411E-16));
#174 = CARTESIAN_POINT ('', (-56.8333333333332, 2.91666666666668, -7.14377299502624E-16));
#175 = CARTESIAN_POINT ('', (-56.9166666666667, 2.83333333333332, -6.9396651951683E-16));
#176 = CARTESIAN_POINT ('', (-57., 2.75, -6.73555739531043E-16));
#177 = CARTESIAN_POINT ('', (-56.75, 2.99999999999999, 12.));
#178 = CARTESIAN_POINT ('', (-56.8333333333332, 2.91666666666666, 11.6666666666667));
#179 = CARTESIAN_POINT ('', (-56.9166666666667, 2.83333333333331, 11.3333333333333));
#180 = CARTESIAN_POINT ('', (-57., 2.74999999999999, 11.));
#181 = CARTESIAN_POINT ('', (-56.75, -8.99999999999999, 5.99999999999998));
#182 = CARTESIAN_POINT ('', (-56.8333333333332, -8.75000000000002, 5.83333333333333));
#183 = CARTESIAN_POINT ('', (-56.9166666666667, -8.49999999999996, 5.66666666666662));
#184 = CARTESIAN_POINT ('', (-57., -8.24999999999999, 5.49999999999998));
#185 = CARTESIAN_POINT ('', (-56.75, -8.99999999999998, -6.));
#186 = CARTESIAN_POINT ('', (-56.8333333333332, -8.75000000000001, -5.83333333333336));
#187 = CARTESIAN_POINT ('', (-56.9166666666667, -8.49999999999994, -5.66666666666665));
#188 = CARTESIAN_POINT ('', (-57., -8.24999999999998, -5.50000000000001));
#189 = CARTESIAN_POINT ('', (-56.75, 3.00000000000001, -12.));
#190 = CARTESIAN_POINT ('', (-56.8333333333332, 2.91666666666669, -11.6666666666667));
#191 = CARTESIAN_POINT ('', (-56.9166666666667, 2.83333333333333, -11.3333333333333));
#192 = CARTESIAN_POINT ('', (-57., 2.75000000000001, -11.));
#193 = CARTESIAN_POINT ('', (-56.75, 3., -7.34788079488411E-16));
#194 = CARTESIAN_POINT ('', (-56.8333333333332, 2.91666666666668, -7.14377299502624E-16));
#195 = CARTESIAN_POINT ('', (-56.9166666666667, 2.83333333333332, -6.9396651951683E-16));
#196 = CARTESIAN_POINT ('', (-57., 2.75, -6.73555739531043E-16));
#197 = (
   BOUNDED_SURFACE ()
   B_SPLINE_SURFACE (5, 3, ((#173, #174, #175, #176), (#177, #178, #179, #180), (#181, #182, #183, #184), (#185, #186, #187, #188), (#189, #190, #191, #192), (#193, #194, #195, #196)), .UNSPECIFIED., .T., .F., .U.)
   B_SPLINE_SURFACE_WITH_KNOTS ((6, 6), (4, 4), (0., 1.), (0., 1.), .UNSPECIFIED.)
   SURFACE ()
   GEOMETRIC_REPRESENTATION_ITEM ()
   RATIONAL_B_SPLINE_SURFACE (((5., 5., 5., 5.), (1., 1., 1., 1.), (1., 1., 1., 1.), (1., 1., 1., 1.), (1., 1., 1., 1.), (5., 5., 5., 5.)))
   REPRESENTATION_ITEM ('')
);
#198 = ADVANCED_FACE ('', (#172), #197, .F.);
#199 = CLOSED_SHELL ('', (#77, #125, #160, #198));
#200 = MANIFOLD_SOLID_BREP ('', #199);
#201 = (
   LENGTH_UNIT ()
   NAMED_UNIT (*)
   SI_UNIT (.MILLI., .METRE.)
);
#202 = (
   NAMED_UNIT (*)
   SI_UNIT ($, .STERADIAN.)
   SOLID_ANGLE_UNIT ()
);
#203 = (
   NAMED_UNIT (*)
   SI_UNIT ($, .RADIAN.)
   PLANE_ANGLE_UNIT ()
);
#204 = UNCERTAINTY_MEASURE_WITH_UNIT (LENGTH_MEASURE(0.001), #201, 'DISTANCE_ACCURACY_VALUE', '');
#205 = (
   GEOMETRIC_REPRESENTATION_CONTEXT (3)
   GLOBAL_UNCERTAINTY_ASSIGNED_CONTEXT ((#204))
   GLOBAL_UNIT_ASSIGNED_CONTEXT ((#201, #202, #203))
   REPRESENTATION_CONTEXT ('', '3D')
);
#206 = SHAPE_REPRESENTATION ('', (), #205);
#207 = APPLICATION_CONTEXT ('configuration controlled 3D designs of mechanical parts and assemblies');
#208 = APPLICATION_PROTOCOL_DEFINITION ('International Standard', 'config_control_design', 1997, #207);
#209 = MECHANICAL_CONTEXT ('', #207, 'mechanical');
#210 = PRODUCT ('', '', '', (#209));
#211 = PERSON_AND_ORGANIZATION_ROLE ('design_owner');
#212 = PERSON ('', '', $, $, $, $);
#213 = ORGANIZATION ($, '', '');
#214 = PERSON_AND_ORGANIZATION (#212, #213);
#215 = CC_DESIGN_PERSON_AND_ORGANIZATION_ASSIGNMENT (#214, #211, (#210));
#216 = PRODUCT_RELATED_PRODUCT_CATEGORY ('detail', $, (#210));
#217 = PRODUCT_DEFINITION_FORMATION_WITH_SPECIFIED_SOURCE ('', '', #210, .NOT_KNOWN.);
#218 = APPROVAL_STATUS ('approved');
#219 = APPROVAL (#218, '');
#220 = CALENDAR_DATE (2020, 16, 4);
#221 = COORDINATED_UNIVERSAL_TIME_OFFSET (0, $, .AHEAD.);
#222 = LOCAL_TIME (10, 56, 49., #221);
#223 = DATE_AND_TIME (#220, #222);
#224 = APPROVAL_DATE_TIME (#223, #219);
#225 = APPROVAL_ROLE ('');
#226 = PERSON ('', '', $, $, $, $);
#227 = ORGANIZATION ($, '', '');
#228 = PERSON_AND_ORGANIZATION (#226, #227);
#229 = APPROVAL_PERSON_ORGANIZATION (#228, #219, #225);
#230 = CC_DESIGN_APPROVAL (#219, (#217));
#231 = PERSON_AND_ORGANIZATION_ROLE ('creator');
#232 = PERSON ('', '', $, $, $, $);
#233 = ORGANIZATION ($, '', '');
#234 = PERSON_AND_ORGANIZATION (#232, #233);
#235 = CC_DESIGN_PERSON_AND_ORGANIZATION_ASSIGNMENT (#234, #231, (#217));
#236 = PERSON_AND_ORGANIZATION_ROLE ('part_supplier');
#237 = PERSON ('', '', $, $, $, $);
#238 = ORGANIZATION ($, '', '');
#239 = PERSON_AND_ORGANIZATION (#237, #238);
#240 = CC_DESIGN_PERSON_AND_ORGANIZATION_ASSIGNMENT (#239, #236, (#217));
#241 = SECURITY_CLASSIFICATION_LEVEL ('unclassified');
#242 = SECURITY_CLASSIFICATION ('', '', #241);
#243 = APPROVAL_STATUS ('approved');
#244 = APPROVAL (#243, '');
#245 = CALENDAR_DATE (2020, 16, 4);
#246 = COORDINATED_UNIVERSAL_TIME_OFFSET (0, $, .AHEAD.);
#247 = LOCAL_TIME (10, 56, 49., #246);
#248 = DATE_AND_TIME (#245, #247);
#249 = APPROVAL_DATE_TIME (#248, #244);
#250 = APPROVAL_ROLE ('');
#251 = PERSON ('', '', $, $, $, $);
#252 = ORGANIZATION ($, '', '');
#253 = PERSON_AND_ORGANIZATION (#251, #252);
#254 = APPROVAL_PERSON_ORGANIZATION (#253, #244, #250);
#255 = CC_DESIGN_APPROVAL (#244, (#242));
#256 = DATE_TIME_ROLE ('classification_date');
#257 = CALENDAR_DATE (2020, 16, 4);
#258 = COORDINATED_UNIVERSAL_TIME_OFFSET (0, $, .AHEAD.);
#259 = LOCAL_TIME (10, 56, 49., #258);
#260 = DATE_AND_TIME (#257, #259);
#261 = CC_DESIGN_DATE_AND_TIME_ASSIGNMENT (#260, #256, (#242));
#262 = PERSON_AND_ORGANIZATION_ROLE ('classification_officer');
#263 = PERSON ('', '', $, $, $, $);
#264 = ORGANIZATION ($, '', '');
#265 = PERSON_AND_ORGANIZATION (#263, #264);
#266 = CC_DESIGN_PERSON_AND_ORGANIZATION_ASSIGNMENT (#265, #262, (#242));
#267 = CC_DESIGN_SECURITY_CLASSIFICATION (#242, (#217));
#268 = DESIGN_CONTEXT ('', #207, 'design');
#269 = PRODUCT_DEFINITION ('', '', #217, #268);
#270 = APPROVAL_STATUS ('approved');
#271 = APPROVAL (#270, '');
#272 = CALENDAR_DATE (2020, 16, 4);
#273 = COORDINATED_UNIVERSAL_TIME_OFFSET (0, $, .AHEAD.);
#274 = LOCAL_TIME (10, 56, 49., #273);
#275 = DATE_AND_TIME (#272, #274);
#276 = APPROVAL_DATE_TIME (#275, #271);
#277 = APPROVAL_ROLE ('');
#278 = PERSON ('', '', $, $, $, $);
#279 = ORGANIZATION ($, '', '');
#280 = PERSON_AND_ORGANIZATION (#278, #279);
#281 = APPROVAL_PERSON_ORGANIZATION (#280, #271, #277);
#282 = CC_DESIGN_APPROVAL (#271, (#269));
#283 = DATE_TIME_ROLE ('creation_date');
#284 = CALENDAR_DATE (2020, 16, 4);
#285 = COORDINATED_UNIVERSAL_TIME_OFFSET (0, $, .AHEAD.);
#286 = LOCAL_TIME (10, 56, 49., #285);
#287 = DATE_AND_TIME (#284, #286);
#288 = CC_DESIGN_DATE_AND_TIME_ASSIGNMENT (#287, #283, (#269));
#289 = PERSON_AND_ORGANIZATION_ROLE ('creator');
#290 = PERSON ('', '', $, $, $, $);
#291 = ORGANIZATION ($, '', '');
#292 = PERSON_AND_ORGANIZATION (#290, #291);
#293 = CC_DESIGN_PERSON_AND_ORGANIZATION_ASSIGNMENT (#292, #289, (#269));
#294 = PRODUCT_DEFINITION_SHAPE ('', '', #269);
#295 = SHAPE_DEFINITION_REPRESENTATION (#294, #206);
#296 = SHAPE_REPRESENTATION_RELATIONSHIP ('', '', #206, #297);
#297 = ADVANCED_BREP_SHAPE_REPRESENTATION ('', (#200), #205);
ENDSEC;
END-ISO-10303-21;
