ISO-10303-21;
HEADER;
FILE_DESCRIPTION ((), '1');
FILE_NAME ('C:\\Users\\kevin\\380 Range\\380M 1000-1_0RAX.STP', '2020-04-16T14:29:13', ('Unknown'), ('mafordeurope'), 'OneCNC-XR7 Mill 3D Expert', 'OneCNC-XR7 Mill 3D Expert', '');
FILE_SCHEMA (('CONFIG_CONTROL_DESIGN'));
ENDSEC;

DATA;
#1 = CARTESIAN_POINT ('', (-2.44929359829471E-16, 1.49975978266186E-32, -1.49975978266186E-32));
#2 = VERTEX_POINT ('', #1);
#3 = CARTESIAN_POINT ('', (4.93038065763132E-32, 4., -9.79717439317883E-16));
#4 = VERTEX_POINT ('', #3);
#5 = CARTESIAN_POINT ('', (-2.44929359829471E-16, 1.49975978266186E-32, -1.49975978266186E-32));
#6 = CARTESIAN_POINT ('', (4.93038065763132E-32, 4., -9.79717439317883E-16));
#7 = B_SPLINE_CURVE_WITH_KNOTS ('', 1, (#5, #6), .UNSPECIFIED., .F., .U., (2, 2), (0., 1.), .UNSPECIFIED.);
#8 = EDGE_CURVE ('', #2, #4, #7, .T.);
#9 = ORIENTED_EDGE ('', *, *, #8, .F.);
#10 = ORIENTED_EDGE ('', *, *, #8, .T.);
#11 = CARTESIAN_POINT ('', (4.93038065763132E-32, 4., -9.79717439317883E-16));
#12 = CARTESIAN_POINT ('', (-9.79717439317882E-16, 4., 16.));
#13 = CARTESIAN_POINT ('', (-1.46957615897682E-15, -12., 8.));
#14 = CARTESIAN_POINT ('', (-4.89858719658942E-16, -12., -8.));
#15 = CARTESIAN_POINT ('', (9.79717439317882E-16, 4., -16.));
#16 = CARTESIAN_POINT ('', (4.93038065763132E-32, 4., -9.79717439317883E-16));
#17 = (
   BOUNDED_CURVE ()
   B_SPLINE_CURVE (5, (#11, #12, #13, #14, #15, #16), .UNSPECIFIED., .T., .U.)
   B_SPLINE_CURVE_WITH_KNOTS ((6, 6), (0., 1.), .UNSPECIFIED.)
   CURVE ()
   GEOMETRIC_REPRESENTATION_ITEM ()
   RATIONAL_B_SPLINE_CURVE ((5., 1., 1., 1., 1., 5.))
   REPRESENTATION_ITEM ('')
);
#18 = EDGE_CURVE ('', #4, #4, #17, .T.);
#19 = ORIENTED_EDGE ('', *, *, #18, .F.);
#20 = EDGE_LOOP ('', (#9, #10, #19));
#21 = FACE_OUTER_BOUND ('', #20, .F.);
#22 = CARTESIAN_POINT ('', (-2.44929359829471E-16, 1.49975978266186E-32, -1.49975978266186E-32));
#23 = CARTESIAN_POINT ('', (4.93038065763132E-32, 4., -9.79717439317883E-16));
#24 = CARTESIAN_POINT ('', (-2.44929359829471E-16, 1.49975978266186E-32, -1.49975978266186E-32));
#25 = CARTESIAN_POINT ('', (-9.79717439317882E-16, 4., 16.));
#26 = CARTESIAN_POINT ('', (-2.44929359829471E-16, 1.49975978266186E-32, -1.49975978266186E-32));
#27 = CARTESIAN_POINT ('', (-1.46957615897682E-15, -12., 8.));
#28 = CARTESIAN_POINT ('', (-2.44929359829471E-16, 1.49975978266186E-32, -1.49975978266186E-32));
#29 = CARTESIAN_POINT ('', (-4.89858719658942E-16, -12., -8.));
#30 = CARTESIAN_POINT ('', (-2.44929359829471E-16, 1.49975978266186E-32, -1.49975978266186E-32));
#31 = CARTESIAN_POINT ('', (9.79717439317882E-16, 4., -16.));
#32 = CARTESIAN_POINT ('', (-2.44929359829471E-16, 1.49975978266186E-32, -1.49975978266186E-32));
#33 = CARTESIAN_POINT ('', (4.93038065763132E-32, 4., -9.79717439317883E-16));
#34 = (
   BOUNDED_SURFACE ()
   B_SPLINE_SURFACE (5, 1, ((#22, #23), (#24, #25), (#26, #27), (#28, #29), (#30, #31), (#32, #33)), .UNSPECIFIED., .T., .F., .U.)
   B_SPLINE_SURFACE_WITH_KNOTS ((6, 6), (2, 2), (0., 1.), (0., 1.), .UNSPECIFIED.)
   SURFACE ()
   GEOMETRIC_REPRESENTATION_ITEM ()
   RATIONAL_B_SPLINE_SURFACE (((5., 5.), (1., 1.), (1., 1.), (1., 1.), (1., 1.), (5., 5.)))
   REPRESENTATION_ITEM ('')
);
#35 = ADVANCED_FACE ('', (#21), #34, .F.);
#36 = CARTESIAN_POINT ('', (-1., 5., -1.22464679914735E-15));
#37 = VERTEX_POINT ('', #36);
#38 = CARTESIAN_POINT ('', (4.93038065763132E-32, 4., -9.79717439317883E-16));
#39 = CARTESIAN_POINT ('', (4.93038065763132E-32, 4.10925537777972, -1.0064772890554E-15));
#40 = CARTESIAN_POINT ('', (-0.0405284603756879, 4.35374193361113, -1.0663592246621E-15));
#41 = CARTESIAN_POINT ('', (-0.220054300201926, 4.65969993063218, -1.14129732100717E-15));
#42 = CARTESIAN_POINT ('', (-0.545397966132821, 4.92419438240462, -1.20607977775824E-15));
#43 = CARTESIAN_POINT ('', (-0.823979860049297, 5.00000000000001, -1.22464679914735E-15));
#44 = CARTESIAN_POINT ('', (-1., 5., -1.22464679914735E-15));
#45 = B_SPLINE_CURVE_WITH_KNOTS ('', 3, (#38, #39, #40, #41, #42, #43, #44), .UNSPECIFIED., .F., .U., (4, 1, 1, 1, 4), (0., 0.208662401196191, 0.467060336615637, 0.66382629571742, 1.), .UNSPECIFIED.);
#46 = EDGE_CURVE ('', #4, #37, #45, .T.);
#47 = ORIENTED_EDGE ('', *, *, #46, .F.);
#48 = ORIENTED_EDGE ('', *, *, #18, .T.);
#49 = ORIENTED_EDGE ('', *, *, #46, .T.);
#50 = CARTESIAN_POINT ('', (-1., 5., -1.22464679914735E-15));
#51 = CARTESIAN_POINT ('', (-1., 5., 20.));
#52 = CARTESIAN_POINT ('', (-1., -15., 10.));
#53 = CARTESIAN_POINT ('', (-1., -15., -10.));
#54 = CARTESIAN_POINT ('', (-0.999999999999999, 5., -20.));
#55 = CARTESIAN_POINT ('', (-1., 5., -1.22464679914735E-15));
#56 = (
   BOUNDED_CURVE ()
   B_SPLINE_CURVE (5, (#50, #51, #52, #53, #54, #55), .UNSPECIFIED., .T., .U.)
   B_SPLINE_CURVE_WITH_KNOTS ((6, 6), (0., 1.), .UNSPECIFIED.)
   CURVE ()
   GEOMETRIC_REPRESENTATION_ITEM ()
   RATIONAL_B_SPLINE_CURVE ((5., 1., 1., 1., 1., 5.))
   REPRESENTATION_ITEM ('')
);
#57 = EDGE_CURVE ('', #37, #37, #56, .T.);
#58 = ORIENTED_EDGE ('', *, *, #57, .F.);
#59 = EDGE_LOOP ('', (#47, #48, #49, #58));
#60 = FACE_OUTER_BOUND ('', #59, .F.);
#61 = CARTESIAN_POINT ('', (4.93038065763132E-32, 4., -9.79717439317883E-16));
#62 = CARTESIAN_POINT ('', (4.93038065763132E-32, 4.10925537777972, -1.0064772890554E-15));
#63 = CARTESIAN_POINT ('', (-0.0405284603756879, 4.35374193361113, -1.0663592246621E-15));
#64 = CARTESIAN_POINT ('', (-0.220054300201926, 4.65969993063218, -1.14129732100717E-15));
#65 = CARTESIAN_POINT ('', (-0.545397966132821, 4.92419438240462, -1.20607977775824E-15));
#66 = CARTESIAN_POINT ('', (-0.823979860049297, 5.00000000000001, -1.22464679914735E-15));
#67 = CARTESIAN_POINT ('', (-1., 5., -1.22464679914735E-15));
#68 = CARTESIAN_POINT ('', (-9.79717439317882E-16, 4., 16.));
#69 = CARTESIAN_POINT ('', (-1.0064772890554E-15, 4.10925537777973, 16.4370215111189));
#70 = CARTESIAN_POINT ('', (-0.040528460375689, 4.35374193361114, 17.4149677344445));
#71 = CARTESIAN_POINT ('', (-0.220054300201927, 4.65969993063219, 18.6387997225287));
#72 = CARTESIAN_POINT ('', (-0.545397966132822, 4.92419438240463, 19.6967775296185));
#73 = CARTESIAN_POINT ('', (-0.823979860049299, 5.00000000000001, 20.));
#74 = CARTESIAN_POINT ('', (-1., 5., 20.));
#75 = CARTESIAN_POINT ('', (-1.46957615897682E-15, -12., 8.));
#76 = CARTESIAN_POINT ('', (-1.5097159335831E-15, -12.3277661333392, 8.21851075555945));
#77 = CARTESIAN_POINT ('', (-0.0405284603756895, -13.0612258008334, 8.70748386722227));
#78 = CARTESIAN_POINT ('', (-0.220054300201928, -13.9790997918966, 9.31939986126437));
#79 = CARTESIAN_POINT ('', (-0.545397966132823, -14.7725831472139, 9.84838876480925));
#80 = CARTESIAN_POINT ('', (-0.823979860049299, -15., 10.));
#81 = CARTESIAN_POINT ('', (-1., -15., 10.));
#82 = CARTESIAN_POINT ('', (-4.89858719658942E-16, -12., -8.));
#83 = CARTESIAN_POINT ('', (-5.03238644527699E-16, -12.3277661333392, -8.21851075555945));
#84 = CARTESIAN_POINT ('', (-0.0405284603756885, -13.0612258008334, -8.70748386722226));
#85 = CARTESIAN_POINT ('', (-0.220054300201927, -13.9790997918966, -9.31939986126437));
#86 = CARTESIAN_POINT ('', (-0.545397966132822, -14.7725831472139, -9.84838876480924));
#87 = CARTESIAN_POINT ('', (-0.823979860049298, -15., -10.));
#88 = CARTESIAN_POINT ('', (-1., -15., -10.));
#89 = CARTESIAN_POINT ('', (9.79717439317882E-16, 4., -16.));
#90 = CARTESIAN_POINT ('', (1.0064772890554E-15, 4.10925537777972, -16.4370215111189));
#91 = CARTESIAN_POINT ('', (-0.0405284603756869, 4.35374193361113, -17.4149677344445));
#92 = CARTESIAN_POINT ('', (-0.220054300201925, 4.65969993063218, -18.6387997225287));
#93 = CARTESIAN_POINT ('', (-0.54539796613282, 4.92419438240462, -19.6967775296185));
#94 = CARTESIAN_POINT ('', (-0.823979860049296, 5., -20.));
#95 = CARTESIAN_POINT ('', (-0.999999999999999, 5., -20.));
#96 = CARTESIAN_POINT ('', (4.93038065763132E-32, 4., -9.79717439317883E-16));
#97 = CARTESIAN_POINT ('', (4.93038065763132E-32, 4.10925537777972, -1.0064772890554E-15));
#98 = CARTESIAN_POINT ('', (-0.0405284603756879, 4.35374193361113, -1.0663592246621E-15));
#99 = CARTESIAN_POINT ('', (-0.220054300201926, 4.65969993063218, -1.14129732100717E-15));
#100 = CARTESIAN_POINT ('', (-0.545397966132821, 4.92419438240462, -1.20607977775824E-15));
#101 = CARTESIAN_POINT ('', (-0.823979860049297, 5.00000000000001, -1.22464679914735E-15));
#102 = CARTESIAN_POINT ('', (-1., 5., -1.22464679914735E-15));
#103 = (
   BOUNDED_SURFACE ()
   B_SPLINE_SURFACE (5, 3, ((#61, #62, #63, #64, #65, #66, #67), (#68, #69, #70, #71, #72, #73, #74), (#75, #76, #77, #78, #79, #80, #81), (#82, #83, #84, #85, #86, #87, #88), (#89, #90, #91, #92, #93, #94, #95), (#96, #97, #98, #99, #100, #101, #102)), .UNSPECIFIED., .T., .F., .U.)
   B_SPLINE_SURFACE_WITH_KNOTS ((6, 6), (4, 1, 1, 1, 4), (0., 1.), (0., 0.208662401196191, 0.467060336615637, 0.66382629571742, 1.), .UNSPECIFIED.)
   SURFACE ()
   GEOMETRIC_REPRESENTATION_ITEM ()
   RATIONAL_B_SPLINE_SURFACE (((5., 5., 5., 5., 5., 5., 5.), (1., 1., 1., 1., 1., 1., 1.), (1., 1., 1., 1., 1., 1., 1.), (1., 1., 1., 1., 1., 1., 1.), (1., 1., 1., 1., 1., 1., 1.), (5., 5., 5., 5., 5., 5., 5.)))
   REPRESENTATION_ITEM ('')
);
#104 = ADVANCED_FACE ('', (#60), #103, .F.);
#105 = CARTESIAN_POINT ('', (-71.75, 5., -1.22464679914735E-15));
#106 = VERTEX_POINT ('', #105);
#107 = CARTESIAN_POINT ('', (-1., 5., -1.22464679914735E-15));
#108 = CARTESIAN_POINT ('', (-24.5833333333333, 5., -1.22464679914735E-15));
#109 = CARTESIAN_POINT ('', (-48.1666666666665, 5., -1.22464679914735E-15));
#110 = CARTESIAN_POINT ('', (-71.75, 5., -1.22464679914735E-15));
#111 = B_SPLINE_CURVE_WITH_KNOTS ('', 3, (#107, #108, #109, #110), .UNSPECIFIED., .F., .U., (4, 4), (0., 1.), .UNSPECIFIED.);
#112 = EDGE_CURVE ('', #37, #106, #111, .T.);
#113 = ORIENTED_EDGE ('', *, *, #112, .F.);
#114 = ORIENTED_EDGE ('', *, *, #57, .T.);
#115 = ORIENTED_EDGE ('', *, *, #112, .T.);
#116 = CARTESIAN_POINT ('', (-71.75, 5., -1.22464679914735E-15));
#117 = CARTESIAN_POINT ('', (-71.75, 4.99999999999999, 20.));
#118 = CARTESIAN_POINT ('', (-71.75, -15., 9.99999999999998));
#119 = CARTESIAN_POINT ('', (-71.75, -15., -10.));
#120 = CARTESIAN_POINT ('', (-71.75, 5.00000000000001, -20.));
#121 = CARTESIAN_POINT ('', (-71.75, 5., -1.22464679914735E-15));
#122 = (
   BOUNDED_CURVE ()
   B_SPLINE_CURVE (5, (#116, #117, #118, #119, #120, #121), .UNSPECIFIED., .T., .U.)
   B_SPLINE_CURVE_WITH_KNOTS ((6, 6), (0., 1.), .UNSPECIFIED.)
   CURVE ()
   GEOMETRIC_REPRESENTATION_ITEM ()
   RATIONAL_B_SPLINE_CURVE ((5., 1., 1., 1., 1., 5.))
   REPRESENTATION_ITEM ('')
);
#123 = EDGE_CURVE ('', #106, #106, #122, .T.);
#124 = ORIENTED_EDGE ('', *, *, #123, .F.);
#125 = EDGE_LOOP ('', (#113, #114, #115, #124));
#126 = FACE_OUTER_BOUND ('', #125, .F.);
#127 = CARTESIAN_POINT ('', (-1., 5., -1.22464679914735E-15));
#128 = CARTESIAN_POINT ('', (-24.5833333333333, 5., -1.22464679914735E-15));
#129 = CARTESIAN_POINT ('', (-48.1666666666665, 5., -1.22464679914735E-15));
#130 = CARTESIAN_POINT ('', (-71.75, 5., -1.22464679914735E-15));
#131 = CARTESIAN_POINT ('', (-1., 5., 20.));
#132 = CARTESIAN_POINT ('', (-24.5833333333333, 5., 20.));
#133 = CARTESIAN_POINT ('', (-48.1666666666665, 4.99999999999999, 20.));
#134 = CARTESIAN_POINT ('', (-71.75, 4.99999999999999, 20.));
#135 = CARTESIAN_POINT ('', (-1., -15., 10.));
#136 = CARTESIAN_POINT ('', (-24.5833333333333, -15., 9.99999999999999));
#137 = CARTESIAN_POINT ('', (-48.1666666666665, -15., 9.99999999999999));
#138 = CARTESIAN_POINT ('', (-71.75, -15., 9.99999999999998));
#139 = CARTESIAN_POINT ('', (-1., -15., -10.));
#140 = CARTESIAN_POINT ('', (-24.5833333333333, -15., -10.));
#141 = CARTESIAN_POINT ('', (-48.1666666666665, -15., -10.));
#142 = CARTESIAN_POINT ('', (-71.75, -15., -10.));
#143 = CARTESIAN_POINT ('', (-0.999999999999999, 5., -20.));
#144 = CARTESIAN_POINT ('', (-24.5833333333333, 5., -20.));
#145 = CARTESIAN_POINT ('', (-48.1666666666665, 5.00000000000001, -20.));
#146 = CARTESIAN_POINT ('', (-71.75, 5.00000000000001, -20.));
#147 = CARTESIAN_POINT ('', (-1., 5., -1.22464679914735E-15));
#148 = CARTESIAN_POINT ('', (-24.5833333333333, 5., -1.22464679914735E-15));
#149 = CARTESIAN_POINT ('', (-48.1666666666665, 5., -1.22464679914735E-15));
#150 = CARTESIAN_POINT ('', (-71.75, 5., -1.22464679914735E-15));
#151 = (
   BOUNDED_SURFACE ()
   B_SPLINE_SURFACE (5, 3, ((#127, #128, #129, #130), (#131, #132, #133, #134), (#135, #136, #137, #138), (#139, #140, #141, #142), (#143, #144, #145, #146), (#147, #148, #149, #150)), .UNSPECIFIED., .T., .F., .U.)
   B_SPLINE_SURFACE_WITH_KNOTS ((6, 6), (4, 4), (0., 1.), (0., 1.), .UNSPECIFIED.)
   SURFACE ()
   GEOMETRIC_REPRESENTATION_ITEM ()
   RATIONAL_B_SPLINE_SURFACE (((5., 5., 5., 5.), (1., 1., 1., 1.), (1., 1., 1., 1.), (1., 1., 1., 1.), (1., 1., 1., 1.), (5., 5., 5., 5.)))
   REPRESENTATION_ITEM ('')
);
#152 = ADVANCED_FACE ('', (#126), #151, .F.);
#153 = CARTESIAN_POINT ('', (-72., 4.75, -1.16341445918998E-15));
#154 = VERTEX_POINT ('', #153);
#155 = CARTESIAN_POINT ('', (-72., 4.40872847693047E-15, -4.40872847693047E-15));
#156 = VERTEX_POINT ('', #155);
#157 = CARTESIAN_POINT ('', (-72., 4.75, -1.16341445918998E-15));
#158 = CARTESIAN_POINT ('', (-72., 4.40872847693047E-15, -4.40872847693047E-15));
#159 = B_SPLINE_CURVE_WITH_KNOTS ('', 1, (#157, #158), .UNSPECIFIED., .F., .U., (2, 2), (0., 1.), .UNSPECIFIED.);
#160 = EDGE_CURVE ('', #154, #156, #159, .T.);
#161 = ORIENTED_EDGE ('', *, *, #160, .F.);
#162 = CARTESIAN_POINT ('', (-72., 4.75, -1.16341445918998E-15));
#163 = CARTESIAN_POINT ('', (-72., 4.74999999999999, 19.));
#164 = CARTESIAN_POINT ('', (-72., -14.25, 9.49999999999998));
#165 = CARTESIAN_POINT ('', (-72., -14.25, -9.5));
#166 = CARTESIAN_POINT ('', (-72., 4.75000000000001, -19.));
#167 = CARTESIAN_POINT ('', (-72., 4.75, -1.16341445918998E-15));
#168 = (
   BOUNDED_CURVE ()
   B_SPLINE_CURVE (5, (#162, #163, #164, #165, #166, #167), .UNSPECIFIED., .T., .U.)
   B_SPLINE_CURVE_WITH_KNOTS ((6, 6), (0., 1.), .UNSPECIFIED.)
   CURVE ()
   GEOMETRIC_REPRESENTATION_ITEM ()
   RATIONAL_B_SPLINE_CURVE ((5., 1., 1., 1., 1., 5.))
   REPRESENTATION_ITEM ('')
);
#169 = EDGE_CURVE ('', #154, #154, #168, .T.);
#170 = ORIENTED_EDGE ('', *, *, #169, .T.);
#171 = ORIENTED_EDGE ('', *, *, #160, .T.);
#172 = EDGE_LOOP ('', (#161, #170, #171));
#173 = FACE_OUTER_BOUND ('', #172, .F.);
#174 = CARTESIAN_POINT ('', (-72., 4.75, -1.16341445918998E-15));
#175 = CARTESIAN_POINT ('', (-72., 4.40872847693047E-15, -4.40872847693047E-15));
#176 = CARTESIAN_POINT ('', (-72., 4.74999999999999, 19.));
#177 = CARTESIAN_POINT ('', (-72., 4.40872847693047E-15, -4.40872847693047E-15));
#178 = CARTESIAN_POINT ('', (-72., -14.25, 9.49999999999998));
#179 = CARTESIAN_POINT ('', (-72., 4.40872847693047E-15, -4.40872847693047E-15));
#180 = CARTESIAN_POINT ('', (-72., -14.25, -9.5));
#181 = CARTESIAN_POINT ('', (-72., 4.40872847693047E-15, -4.40872847693047E-15));
#182 = CARTESIAN_POINT ('', (-72., 4.75000000000001, -19.));
#183 = CARTESIAN_POINT ('', (-72., 4.40872847693047E-15, -4.40872847693047E-15));
#184 = CARTESIAN_POINT ('', (-72., 4.75, -1.16341445918998E-15));
#185 = CARTESIAN_POINT ('', (-72., 4.40872847693047E-15, -4.40872847693047E-15));
#186 = (
   BOUNDED_SURFACE ()
   B_SPLINE_SURFACE (5, 1, ((#174, #175), (#176, #177), (#178, #179), (#180, #181), (#182, #183), (#184, #185)), .UNSPECIFIED., .T., .F., .U.)
   B_SPLINE_SURFACE_WITH_KNOTS ((6, 6), (2, 2), (0., 1.), (0., 1.), .UNSPECIFIED.)
   SURFACE ()
   GEOMETRIC_REPRESENTATION_ITEM ()
   RATIONAL_B_SPLINE_SURFACE (((5., 5.), (1., 1.), (1., 1.), (1., 1.), (1., 1.), (5., 5.)))
   REPRESENTATION_ITEM ('')
);
#187 = ADVANCED_FACE ('', (#173), #186, .F.);
#188 = CARTESIAN_POINT ('', (-71.75, 5., -1.22464679914735E-15));
#189 = CARTESIAN_POINT ('', (-71.8333333333336, 4.91666666666665, -1.20423601916156E-15));
#190 = CARTESIAN_POINT ('', (-71.9166666666666, 4.83333333333332, -1.18382523917577E-15));
#191 = CARTESIAN_POINT ('', (-72., 4.75, -1.16341445918998E-15));
#192 = B_SPLINE_CURVE_WITH_KNOTS ('', 3, (#188, #189, #190, #191), .UNSPECIFIED., .F., .U., (4, 4), (0., 1.), .UNSPECIFIED.);
#193 = EDGE_CURVE ('', #106, #154, #192, .T.);
#194 = ORIENTED_EDGE ('', *, *, #193, .F.);
#195 = ORIENTED_EDGE ('', *, *, #123, .T.);
#196 = ORIENTED_EDGE ('', *, *, #193, .T.);
#197 = ORIENTED_EDGE ('', *, *, #169, .F.);
#198 = EDGE_LOOP ('', (#194, #195, #196, #197));
#199 = FACE_OUTER_BOUND ('', #198, .F.);
#200 = CARTESIAN_POINT ('', (-71.75, 5., -1.22464679914735E-15));
#201 = CARTESIAN_POINT ('', (-71.8333333333336, 4.91666666666665, -1.20423601916156E-15));
#202 = CARTESIAN_POINT ('', (-71.9166666666666, 4.83333333333332, -1.18382523917577E-15));
#203 = CARTESIAN_POINT ('', (-72., 4.75, -1.16341445918998E-15));
#204 = CARTESIAN_POINT ('', (-71.75, 4.99999999999999, 20.));
#205 = CARTESIAN_POINT ('', (-71.8333333333336, 4.91666666666664, 19.6666666666666));
#206 = CARTESIAN_POINT ('', (-71.9166666666666, 4.83333333333331, 19.3333333333333));
#207 = CARTESIAN_POINT ('', (-72., 4.74999999999999, 19.));
#208 = CARTESIAN_POINT ('', (-71.75, -15., 9.99999999999998));
#209 = CARTESIAN_POINT ('', (-71.8333333333336, -14.7499999999999, 9.83333333333328));
#210 = CARTESIAN_POINT ('', (-71.9166666666666, -14.5, 9.66666666666662));
#211 = CARTESIAN_POINT ('', (-72., -14.25, 9.49999999999998));
#212 = CARTESIAN_POINT ('', (-71.75, -15., -10.));
#213 = CARTESIAN_POINT ('', (-71.8333333333336, -14.7499999999999, -9.8333333333333));
#214 = CARTESIAN_POINT ('', (-71.9166666666666, -14.4999999999999, -9.66666666666665));
#215 = CARTESIAN_POINT ('', (-72., -14.25, -9.5));
#216 = CARTESIAN_POINT ('', (-71.75, 5.00000000000001, -20.));
#217 = CARTESIAN_POINT ('', (-71.8333333333336, 4.91666666666666, -19.6666666666666));
#218 = CARTESIAN_POINT ('', (-71.9166666666666, 4.83333333333334, -19.3333333333333));
#219 = CARTESIAN_POINT ('', (-72., 4.75000000000001, -19.));
#220 = CARTESIAN_POINT ('', (-71.75, 5., -1.22464679914735E-15));
#221 = CARTESIAN_POINT ('', (-71.8333333333336, 4.91666666666665, -1.20423601916156E-15));
#222 = CARTESIAN_POINT ('', (-71.9166666666666, 4.83333333333332, -1.18382523917577E-15));
#223 = CARTESIAN_POINT ('', (-72., 4.75, -1.16341445918998E-15));
#224 = (
   BOUNDED_SURFACE ()
   B_SPLINE_SURFACE (5, 3, ((#200, #201, #202, #203), (#204, #205, #206, #207), (#208, #209, #210, #211), (#212, #213, #214, #215), (#216, #217, #218, #219), (#220, #221, #222, #223)), .UNSPECIFIED., .T., .F., .U.)
   B_SPLINE_SURFACE_WITH_KNOTS ((6, 6), (4, 4), (0., 1.), (0., 1.), .UNSPECIFIED.)
   SURFACE ()
   GEOMETRIC_REPRESENTATION_ITEM ()
   RATIONAL_B_SPLINE_SURFACE (((5., 5., 5., 5.), (1., 1., 1., 1.), (1., 1., 1., 1.), (1., 1., 1., 1.), (1., 1., 1., 1.), (5., 5., 5., 5.)))
   REPRESENTATION_ITEM ('')
);
#225 = ADVANCED_FACE ('', (#199), #224, .F.);
#226 = CLOSED_SHELL ('', (#35, #104, #152, #187, #225));
#227 = MANIFOLD_SOLID_BREP ('', #226);
#228 = (
   LENGTH_UNIT ()
   NAMED_UNIT (*)
   SI_UNIT (.MILLI., .METRE.)
);
#229 = (
   NAMED_UNIT (*)
   SI_UNIT ($, .STERADIAN.)
   SOLID_ANGLE_UNIT ()
);
#230 = (
   NAMED_UNIT (*)
   SI_UNIT ($, .RADIAN.)
   PLANE_ANGLE_UNIT ()
);
#231 = UNCERTAINTY_MEASURE_WITH_UNIT (LENGTH_MEASURE(0.001), #228, 'DISTANCE_ACCURACY_VALUE', '');
#232 = (
   GEOMETRIC_REPRESENTATION_CONTEXT (3)
   GLOBAL_UNCERTAINTY_ASSIGNED_CONTEXT ((#231))
   GLOBAL_UNIT_ASSIGNED_CONTEXT ((#228, #229, #230))
   REPRESENTATION_CONTEXT ('', '3D')
);
#233 = SHAPE_REPRESENTATION ('', (), #232);
#234 = APPLICATION_CONTEXT ('configuration controlled 3D designs of mechanical parts and assemblies');
#235 = APPLICATION_PROTOCOL_DEFINITION ('International Standard', 'config_control_design', 1997, #234);
#236 = MECHANICAL_CONTEXT ('', #234, 'mechanical');
#237 = PRODUCT ('', '', '', (#236));
#238 = PERSON_AND_ORGANIZATION_ROLE ('design_owner');
#239 = PERSON ('', '', $, $, $, $);
#240 = ORGANIZATION ($, '', '');
#241 = PERSON_AND_ORGANIZATION (#239, #240);
#242 = CC_DESIGN_PERSON_AND_ORGANIZATION_ASSIGNMENT (#241, #238, (#237));
#243 = PRODUCT_RELATED_PRODUCT_CATEGORY ('detail', $, (#237));
#244 = PRODUCT_DEFINITION_FORMATION_WITH_SPECIFIED_SOURCE ('', '', #237, .NOT_KNOWN.);
#245 = APPROVAL_STATUS ('approved');
#246 = APPROVAL (#245, '');
#247 = CALENDAR_DATE (2020, 16, 4);
#248 = COORDINATED_UNIVERSAL_TIME_OFFSET (0, $, .AHEAD.);
#249 = LOCAL_TIME (14, 29, 13., #248);
#250 = DATE_AND_TIME (#247, #249);
#251 = APPROVAL_DATE_TIME (#250, #246);
#252 = APPROVAL_ROLE ('');
#253 = PERSON ('', '', $, $, $, $);
#254 = ORGANIZATION ($, '', '');
#255 = PERSON_AND_ORGANIZATION (#253, #254);
#256 = APPROVAL_PERSON_ORGANIZATION (#255, #246, #252);
#257 = CC_DESIGN_APPROVAL (#246, (#244));
#258 = PERSON_AND_ORGANIZATION_ROLE ('creator');
#259 = PERSON ('', '', $, $, $, $);
#260 = ORGANIZATION ($, '', '');
#261 = PERSON_AND_ORGANIZATION (#259, #260);
#262 = CC_DESIGN_PERSON_AND_ORGANIZATION_ASSIGNMENT (#261, #258, (#244));
#263 = PERSON_AND_ORGANIZATION_ROLE ('part_supplier');
#264 = PERSON ('', '', $, $, $, $);
#265 = ORGANIZATION ($, '', '');
#266 = PERSON_AND_ORGANIZATION (#264, #265);
#267 = CC_DESIGN_PERSON_AND_ORGANIZATION_ASSIGNMENT (#266, #263, (#244));
#268 = SECURITY_CLASSIFICATION_LEVEL ('unclassified');
#269 = SECURITY_CLASSIFICATION ('', '', #268);
#270 = APPROVAL_STATUS ('approved');
#271 = APPROVAL (#270, '');
#272 = CALENDAR_DATE (2020, 16, 4);
#273 = COORDINATED_UNIVERSAL_TIME_OFFSET (0, $, .AHEAD.);
#274 = LOCAL_TIME (14, 29, 13., #273);
#275 = DATE_AND_TIME (#272, #274);
#276 = APPROVAL_DATE_TIME (#275, #271);
#277 = APPROVAL_ROLE ('');
#278 = PERSON ('', '', $, $, $, $);
#279 = ORGANIZATION ($, '', '');
#280 = PERSON_AND_ORGANIZATION (#278, #279);
#281 = APPROVAL_PERSON_ORGANIZATION (#280, #271, #277);
#282 = CC_DESIGN_APPROVAL (#271, (#269));
#283 = DATE_TIME_ROLE ('classification_date');
#284 = CALENDAR_DATE (2020, 16, 4);
#285 = COORDINATED_UNIVERSAL_TIME_OFFSET (0, $, .AHEAD.);
#286 = LOCAL_TIME (14, 29, 13., #285);
#287 = DATE_AND_TIME (#284, #286);
#288 = CC_DESIGN_DATE_AND_TIME_ASSIGNMENT (#287, #283, (#269));
#289 = PERSON_AND_ORGANIZATION_ROLE ('classification_officer');
#290 = PERSON ('', '', $, $, $, $);
#291 = ORGANIZATION ($, '', '');
#292 = PERSON_AND_ORGANIZATION (#290, #291);
#293 = CC_DESIGN_PERSON_AND_ORGANIZATION_ASSIGNMENT (#292, #289, (#269));
#294 = CC_DESIGN_SECURITY_CLASSIFICATION (#269, (#244));
#295 = DESIGN_CONTEXT ('', #234, 'design');
#296 = PRODUCT_DEFINITION ('', '', #244, #295);
#297 = APPROVAL_STATUS ('approved');
#298 = APPROVAL (#297, '');
#299 = CALENDAR_DATE (2020, 16, 4);
#300 = COORDINATED_UNIVERSAL_TIME_OFFSET (0, $, .AHEAD.);
#301 = LOCAL_TIME (14, 29, 13., #300);
#302 = DATE_AND_TIME (#299, #301);
#303 = APPROVAL_DATE_TIME (#302, #298);
#304 = APPROVAL_ROLE ('');
#305 = PERSON ('', '', $, $, $, $);
#306 = ORGANIZATION ($, '', '');
#307 = PERSON_AND_ORGANIZATION (#305, #306);
#308 = APPROVAL_PERSON_ORGANIZATION (#307, #298, #304);
#309 = CC_DESIGN_APPROVAL (#298, (#296));
#310 = DATE_TIME_ROLE ('creation_date');
#311 = CALENDAR_DATE (2020, 16, 4);
#312 = COORDINATED_UNIVERSAL_TIME_OFFSET (0, $, .AHEAD.);
#313 = LOCAL_TIME (14, 29, 13., #312);
#314 = DATE_AND_TIME (#311, #313);
#315 = CC_DESIGN_DATE_AND_TIME_ASSIGNMENT (#314, #310, (#296));
#316 = PERSON_AND_ORGANIZATION_ROLE ('creator');
#317 = PERSON ('', '', $, $, $, $);
#318 = ORGANIZATION ($, '', '');
#319 = PERSON_AND_ORGANIZATION (#317, #318);
#320 = CC_DESIGN_PERSON_AND_ORGANIZATION_ASSIGNMENT (#319, #316, (#296));
#321 = PRODUCT_DEFINITION_SHAPE ('', '', #296);
#322 = SHAPE_DEFINITION_REPRESENTATION (#321, #233);
#323 = SHAPE_REPRESENTATION_RELATIONSHIP ('', '', #233, #324);
#324 = ADVANCED_BREP_SHAPE_REPRESENTATION ('', (#227), #232);
ENDSEC;
END-ISO-10303-21;
