ISO-10303-21;
HEADER;
FILE_DESCRIPTION ((), '1');
FILE_NAME ('D:\\Documents\\Mark Dainty\\V5LCB Range\\V5LCB 0803-0_5RBW-CT.STP', '2020-04-16T16:05:12', ('Unknown'), ('M A Ford Europe'), 'OneCNC-XR7 Mill 3D Expert', 'OneCNC-XR7 Mill 3D Expert', '');
FILE_SCHEMA (('CONFIG_CONTROL_DESIGN'));
ENDSEC;

DATA;
#1 = CARTESIAN_POINT ('', (-0.5, 4., -9.79717439317883E-16));
#2 = VERTEX_POINT ('', #1);
#3 = CARTESIAN_POINT ('', (2.46519032881566E-32, 3.5, -8.57252759403147E-16));
#4 = VERTEX_POINT ('', #3);
#5 = CARTESIAN_POINT ('', (-0.5, 4., -9.79717439317883E-16));
#6 = CARTESIAN_POINT ('', (-0.411989930024649, 4., -9.79717439317882E-16));
#7 = CARTESIAN_POINT ('', (-0.272698983066411, 3.96209719120232, -9.70433928623327E-16));
#8 = CARTESIAN_POINT ('', (-0.0671333266242759, 3.79497859847257, -9.29501678690429E-16));
#9 = CARTESIAN_POINT ('', (2.46519032881566E-32, 3.62227611019124, -8.87201768794726E-16));
#10 = CARTESIAN_POINT ('', (2.46519032881566E-32, 3.5, -8.57252759403147E-16));
#11 = B_SPLINE_CURVE_WITH_KNOTS ('', 3, (#5, #6, #7, #8, #9, #10), .UNSPECIFIED., .F., .U., (4, 1, 1, 4), (0., 0.33617370428258, 0.532939663384363, 1.), .UNSPECIFIED.);
#12 = EDGE_CURVE ('', #2, #4, #11, .T.);
#13 = ORIENTED_EDGE ('', *, *, #12, .F.);
#14 = CARTESIAN_POINT ('', (-0.5, 4., -9.79717439317883E-16));
#15 = CARTESIAN_POINT ('', (-0.500000000000001, 4., 16.));
#16 = CARTESIAN_POINT ('', (-0.500000000000001, -12., 8.));
#17 = CARTESIAN_POINT ('', (-0.5, -12., -8.));
#18 = CARTESIAN_POINT ('', (-0.499999999999999, 4., -16.));
#19 = CARTESIAN_POINT ('', (-0.5, 4., -9.79717439317883E-16));
#20 = (
   BOUNDED_CURVE ()
   B_SPLINE_CURVE (5, (#14, #15, #16, #17, #18, #19), .UNSPECIFIED., .T., .U.)
   B_SPLINE_CURVE_WITH_KNOTS ((6, 6), (0., 1.), .UNSPECIFIED.)
   CURVE ()
   GEOMETRIC_REPRESENTATION_ITEM ()
   RATIONAL_B_SPLINE_CURVE ((5., 1., 1., 1., 1., 5.))
   REPRESENTATION_ITEM ('')
);
#21 = EDGE_CURVE ('', #2, #2, #20, .T.);
#22 = ORIENTED_EDGE ('', *, *, #21, .T.);
#23 = ORIENTED_EDGE ('', *, *, #12, .T.);
#24 = CARTESIAN_POINT ('', (2.46519032881566E-32, 3.5, -8.57252759403147E-16));
#25 = CARTESIAN_POINT ('', (-8.57252759403147E-16, 3.5, 14.));
#26 = CARTESIAN_POINT ('', (-1.28587913910472E-15, -10.5, 7.));
#27 = CARTESIAN_POINT ('', (-4.28626379701574E-16, -10.5, -7.));
#28 = CARTESIAN_POINT ('', (8.57252759403147E-16, 3.5, -14.));
#29 = CARTESIAN_POINT ('', (2.46519032881566E-32, 3.5, -8.57252759403147E-16));
#30 = (
   BOUNDED_CURVE ()
   B_SPLINE_CURVE (5, (#24, #25, #26, #27, #28, #29), .UNSPECIFIED., .T., .U.)
   B_SPLINE_CURVE_WITH_KNOTS ((6, 6), (0., 1.), .UNSPECIFIED.)
   CURVE ()
   GEOMETRIC_REPRESENTATION_ITEM ()
   RATIONAL_B_SPLINE_CURVE ((5., 1., 1., 1., 1., 5.))
   REPRESENTATION_ITEM ('')
);
#31 = EDGE_CURVE ('', #4, #4, #30, .T.);
#32 = ORIENTED_EDGE ('', *, *, #31, .F.);
#33 = EDGE_LOOP ('', (#13, #22, #23, #32));
#34 = FACE_OUTER_BOUND ('', #33, .T.);
#35 = CARTESIAN_POINT ('', (-0.5, 4., -9.79717439317883E-16));
#36 = CARTESIAN_POINT ('', (-0.411989930024649, 4., -9.79717439317882E-16));
#37 = CARTESIAN_POINT ('', (-0.272698983066411, 3.96209719120232, -9.70433928623327E-16));
#38 = CARTESIAN_POINT ('', (-0.0671333266242759, 3.79497859847257, -9.29501678690429E-16));
#39 = CARTESIAN_POINT ('', (2.46519032881566E-32, 3.62227611019124, -8.87201768794726E-16));
#40 = CARTESIAN_POINT ('', (2.46519032881566E-32, 3.5, -8.57252759403147E-16));
#41 = CARTESIAN_POINT ('', (-0.500000000000001, 4., 16.));
#42 = CARTESIAN_POINT ('', (-0.41198993002465, 4., 16.));
#43 = CARTESIAN_POINT ('', (-0.272698983066412, 3.96209719120232, 15.8483887648093));
#44 = CARTESIAN_POINT ('', (-0.0671333266242768, 3.79497859847258, 15.1799143938903));
#45 = CARTESIAN_POINT ('', (-8.87201768794726E-16, 3.62227611019125, 14.489104440765));
#46 = CARTESIAN_POINT ('', (-8.57252759403147E-16, 3.5, 14.));
#47 = CARTESIAN_POINT ('', (-0.500000000000001, -12., 8.));
#48 = CARTESIAN_POINT ('', (-0.41198993002465, -12., 8.));
#49 = CARTESIAN_POINT ('', (-0.272698983066412, -11.886291573607, 7.92419438240464));
#50 = CARTESIAN_POINT ('', (-0.0671333266242773, -11.3849357954177, 7.58995719694515));
#51 = CARTESIAN_POINT ('', (-1.33080265319209E-15, -10.8668283305737, 7.24455222038249));
#52 = CARTESIAN_POINT ('', (-1.28587913910472E-15, -10.5, 7.));
#53 = CARTESIAN_POINT ('', (-0.5, -12., -8.));
#54 = CARTESIAN_POINT ('', (-0.411989930024649, -12., -8.));
#55 = CARTESIAN_POINT ('', (-0.272698983066411, -11.886291573607, -7.92419438240463));
#56 = CARTESIAN_POINT ('', (-0.0671333266242764, -11.3849357954177, -7.58995719694514));
#57 = CARTESIAN_POINT ('', (-4.43600884397363E-16, -10.8668283305737, -7.24455222038248));
#58 = CARTESIAN_POINT ('', (-4.28626379701574E-16, -10.5, -7.));
#59 = CARTESIAN_POINT ('', (-0.499999999999999, 4., -16.));
#60 = CARTESIAN_POINT ('', (-0.411989930024648, 4., -16.));
#61 = CARTESIAN_POINT ('', (-0.27269898306641, 3.96209719120231, -15.8483887648093));
#62 = CARTESIAN_POINT ('', (-0.067133326624275, 3.79497859847257, -15.1799143938903));
#63 = CARTESIAN_POINT ('', (8.87201768794726E-16, 3.62227611019124, -14.489104440765));
#64 = CARTESIAN_POINT ('', (8.57252759403147E-16, 3.5, -14.));
#65 = CARTESIAN_POINT ('', (-0.5, 4., -9.79717439317883E-16));
#66 = CARTESIAN_POINT ('', (-0.411989930024649, 4., -9.79717439317882E-16));
#67 = CARTESIAN_POINT ('', (-0.272698983066411, 3.96209719120232, -9.70433928623327E-16));
#68 = CARTESIAN_POINT ('', (-0.0671333266242759, 3.79497859847257, -9.29501678690429E-16));
#69 = CARTESIAN_POINT ('', (2.46519032881566E-32, 3.62227611019124, -8.87201768794726E-16));
#70 = CARTESIAN_POINT ('', (2.46519032881566E-32, 3.5, -8.57252759403147E-16));
#71 = (
   BOUNDED_SURFACE ()
   B_SPLINE_SURFACE (5, 3, ((#35, #36, #37, #38, #39, #40), (#41, #42, #43, #44, #45, #46), (#47, #48, #49, #50, #51, #52), (#53, #54, #55, #56, #57, #58), (#59, #60, #61, #62, #63, #64), (#65, #66, #67, #68, #69, #70)), .UNSPECIFIED., .T., .F., .U.)
   B_SPLINE_SURFACE_WITH_KNOTS ((6, 6), (4, 1, 1, 4), (0., 1.), (0., 0.33617370428258, 0.532939663384363, 1.), .UNSPECIFIED.)
   SURFACE ()
   GEOMETRIC_REPRESENTATION_ITEM ()
   RATIONAL_B_SPLINE_SURFACE (((5., 5., 5., 5., 5., 5.), (1., 1., 1., 1., 1., 1.), (1., 1., 1., 1., 1., 1.), (1., 1., 1., 1., 1., 1.), (1., 1., 1., 1., 1., 1.), (5., 5., 5., 5., 5., 5.)))
   REPRESENTATION_ITEM ('')
);
#72 = ADVANCED_FACE ('', (#34), #71, .T.);
#73 = CARTESIAN_POINT ('', (-69.75, 4., -9.79717439317881E-16));
#74 = VERTEX_POINT ('', #73);
#75 = CARTESIAN_POINT ('', (-69.75, 4., -9.79717439317881E-16));
#76 = CARTESIAN_POINT ('', (-46.6666666666665, 4., -9.79717439317882E-16));
#77 = CARTESIAN_POINT ('', (-23.5833333333333, 4., -9.79717439317882E-16));
#78 = CARTESIAN_POINT ('', (-0.5, 4., -9.79717439317883E-16));
#79 = B_SPLINE_CURVE_WITH_KNOTS ('', 3, (#75, #76, #77, #78), .UNSPECIFIED., .F., .U., (4, 4), (0., 1.), .UNSPECIFIED.);
#80 = EDGE_CURVE ('', #74, #2, #79, .T.);
#81 = ORIENTED_EDGE ('', *, *, #80, .F.);
#82 = CARTESIAN_POINT ('', (-69.75, 4., -9.79717439317881E-16));
#83 = CARTESIAN_POINT ('', (-69.75, 3.99999999999999, 16.));
#84 = CARTESIAN_POINT ('', (-69.75, -12., 7.99999999999998));
#85 = CARTESIAN_POINT ('', (-69.75, -12., -8.00000000000001));
#86 = CARTESIAN_POINT ('', (-69.75, 4.00000000000001, -16.));
#87 = CARTESIAN_POINT ('', (-69.75, 4., -9.79717439317881E-16));
#88 = (
   BOUNDED_CURVE ()
   B_SPLINE_CURVE (5, (#82, #83, #84, #85, #86, #87), .UNSPECIFIED., .T., .U.)
   B_SPLINE_CURVE_WITH_KNOTS ((6, 6), (0., 1.), .UNSPECIFIED.)
   CURVE ()
   GEOMETRIC_REPRESENTATION_ITEM ()
   RATIONAL_B_SPLINE_CURVE ((5., 1., 1., 1., 1., 5.))
   REPRESENTATION_ITEM ('')
);
#89 = EDGE_CURVE ('', #74, #74, #88, .T.);
#90 = ORIENTED_EDGE ('', *, *, #89, .T.);
#91 = ORIENTED_EDGE ('', *, *, #80, .T.);
#92 = ORIENTED_EDGE ('', *, *, #21, .F.);
#93 = EDGE_LOOP ('', (#81, #90, #91, #92));
#94 = FACE_OUTER_BOUND ('', #93, .T.);
#95 = CARTESIAN_POINT ('', (-69.75, 4., -9.79717439317881E-16));
#96 = CARTESIAN_POINT ('', (-46.6666666666665, 4., -9.79717439317882E-16));
#97 = CARTESIAN_POINT ('', (-23.5833333333333, 4., -9.79717439317882E-16));
#98 = CARTESIAN_POINT ('', (-0.5, 4., -9.79717439317883E-16));
#99 = CARTESIAN_POINT ('', (-69.75, 3.99999999999999, 16.));
#100 = CARTESIAN_POINT ('', (-46.6666666666665, 3.99999999999999, 16.));
#101 = CARTESIAN_POINT ('', (-23.5833333333333, 4., 16.));
#102 = CARTESIAN_POINT ('', (-0.500000000000001, 4., 16.));
#103 = CARTESIAN_POINT ('', (-69.75, -12., 7.99999999999998));
#104 = CARTESIAN_POINT ('', (-46.6666666666665, -12., 7.99999999999999));
#105 = CARTESIAN_POINT ('', (-23.5833333333333, -12., 7.99999999999999));
#106 = CARTESIAN_POINT ('', (-0.500000000000001, -12., 8.));
#107 = CARTESIAN_POINT ('', (-69.75, -12., -8.00000000000001));
#108 = CARTESIAN_POINT ('', (-46.6666666666665, -12., -8.));
#109 = CARTESIAN_POINT ('', (-23.5833333333333, -12., -8.));
#110 = CARTESIAN_POINT ('', (-0.5, -12., -8.));
#111 = CARTESIAN_POINT ('', (-69.75, 4.00000000000001, -16.));
#112 = CARTESIAN_POINT ('', (-46.6666666666665, 4.00000000000001, -16.));
#113 = CARTESIAN_POINT ('', (-23.5833333333333, 4., -16.));
#114 = CARTESIAN_POINT ('', (-0.499999999999999, 4., -16.));
#115 = CARTESIAN_POINT ('', (-69.75, 4., -9.79717439317881E-16));
#116 = CARTESIAN_POINT ('', (-46.6666666666665, 4., -9.79717439317882E-16));
#117 = CARTESIAN_POINT ('', (-23.5833333333333, 4., -9.79717439317882E-16));
#118 = CARTESIAN_POINT ('', (-0.5, 4., -9.79717439317883E-16));
#119 = (
   BOUNDED_SURFACE ()
   B_SPLINE_SURFACE (5, 3, ((#95, #96, #97, #98), (#99, #100, #101, #102), (#103, #104, #105, #106), (#107, #108, #109, #110), (#111, #112, #113, #114), (#115, #116, #117, #118)), .UNSPECIFIED., .T., .F., .U.)
   B_SPLINE_SURFACE_WITH_KNOTS ((6, 6), (4, 4), (0., 1.), (0., 1.), .UNSPECIFIED.)
   SURFACE ()
   GEOMETRIC_REPRESENTATION_ITEM ()
   RATIONAL_B_SPLINE_SURFACE (((5., 5., 5., 5.), (1., 1., 1., 1.), (1., 1., 1., 1.), (1., 1., 1., 1.), (1., 1., 1., 1.), (5., 5., 5., 5.)))
   REPRESENTATION_ITEM ('')
);
#120 = ADVANCED_FACE ('', (#94), #119, .T.);
#121 = CARTESIAN_POINT ('', (-70., 3.75, -9.18485099360513E-16));
#122 = VERTEX_POINT ('', #121);
#123 = CARTESIAN_POINT ('', (-70., 3.75, -9.18485099360513E-16));
#124 = CARTESIAN_POINT ('', (-69.9166666666665, 3.83333333333333, -9.388958793463E-16));
#125 = CARTESIAN_POINT ('', (-69.8333333333332, 3.91666666666667, -9.59306659332093E-16));
#126 = CARTESIAN_POINT ('', (-69.75, 4., -9.79717439317881E-16));
#127 = B_SPLINE_CURVE_WITH_KNOTS ('', 3, (#123, #124, #125, #126), .UNSPECIFIED., .F., .U., (4, 4), (0., 1.), .UNSPECIFIED.);
#128 = EDGE_CURVE ('', #122, #74, #127, .T.);
#129 = ORIENTED_EDGE ('', *, *, #128, .F.);
#130 = CARTESIAN_POINT ('', (-70., 3.75, -9.18485099360513E-16));
#131 = CARTESIAN_POINT ('', (-70., 3.74999999999999, 15.));
#132 = CARTESIAN_POINT ('', (-70., -11.25, 7.49999999999998));
#133 = CARTESIAN_POINT ('', (-70., -11.25, -7.50000000000001));
#134 = CARTESIAN_POINT ('', (-70., 3.75000000000001, -15.));
#135 = CARTESIAN_POINT ('', (-70., 3.75, -9.18485099360513E-16));
#136 = (
   BOUNDED_CURVE ()
   B_SPLINE_CURVE (5, (#130, #131, #132, #133, #134, #135), .UNSPECIFIED., .T., .U.)
   B_SPLINE_CURVE_WITH_KNOTS ((6, 6), (0., 1.), .UNSPECIFIED.)
   CURVE ()
   GEOMETRIC_REPRESENTATION_ITEM ()
   RATIONAL_B_SPLINE_CURVE ((5., 1., 1., 1., 1., 5.))
   REPRESENTATION_ITEM ('')
);
#137 = EDGE_CURVE ('', #122, #122, #136, .T.);
#138 = ORIENTED_EDGE ('', *, *, #137, .T.);
#139 = ORIENTED_EDGE ('', *, *, #128, .T.);
#140 = ORIENTED_EDGE ('', *, *, #89, .F.);
#141 = EDGE_LOOP ('', (#129, #138, #139, #140));
#142 = FACE_OUTER_BOUND ('', #141, .T.);
#143 = CARTESIAN_POINT ('', (-70., 3.75, -9.18485099360513E-16));
#144 = CARTESIAN_POINT ('', (-69.9166666666665, 3.83333333333333, -9.388958793463E-16));
#145 = CARTESIAN_POINT ('', (-69.8333333333332, 3.91666666666667, -9.59306659332093E-16));
#146 = CARTESIAN_POINT ('', (-69.75, 4., -9.79717439317881E-16));
#147 = CARTESIAN_POINT ('', (-70., 3.74999999999999, 15.));
#148 = CARTESIAN_POINT ('', (-69.9166666666665, 3.83333333333331, 15.3333333333333));
#149 = CARTESIAN_POINT ('', (-69.8333333333332, 3.91666666666666, 15.6666666666667));
#150 = CARTESIAN_POINT ('', (-69.75, 3.99999999999999, 16.));
#151 = CARTESIAN_POINT ('', (-70., -11.25, 7.49999999999998));
#152 = CARTESIAN_POINT ('', (-69.9166666666665, -11.5, 7.66666666666663));
#153 = CARTESIAN_POINT ('', (-69.8333333333332, -11.75, 7.83333333333332));
#154 = CARTESIAN_POINT ('', (-69.75, -12., 7.99999999999998));
#155 = CARTESIAN_POINT ('', (-70., -11.25, -7.50000000000001));
#156 = CARTESIAN_POINT ('', (-69.9166666666665, -11.5, -7.66666666666666));
#157 = CARTESIAN_POINT ('', (-69.8333333333332, -11.75, -7.83333333333335));
#158 = CARTESIAN_POINT ('', (-69.75, -12., -8.00000000000001));
#159 = CARTESIAN_POINT ('', (-70., 3.75000000000001, -15.));
#160 = CARTESIAN_POINT ('', (-69.9166666666665, 3.83333333333334, -15.3333333333333));
#161 = CARTESIAN_POINT ('', (-69.8333333333332, 3.91666666666669, -15.6666666666667));
#162 = CARTESIAN_POINT ('', (-69.75, 4.00000000000001, -16.));
#163 = CARTESIAN_POINT ('', (-70., 3.75, -9.18485099360513E-16));
#164 = CARTESIAN_POINT ('', (-69.9166666666665, 3.83333333333333, -9.388958793463E-16));
#165 = CARTESIAN_POINT ('', (-69.8333333333332, 3.91666666666667, -9.59306659332093E-16));
#166 = CARTESIAN_POINT ('', (-69.75, 4., -9.79717439317881E-16));
#167 = (
   BOUNDED_SURFACE ()
   B_SPLINE_SURFACE (5, 3, ((#143, #144, #145, #146), (#147, #148, #149, #150), (#151, #152, #153, #154), (#155, #156, #157, #158), (#159, #160, #161, #162), (#163, #164, #165, #166)), .UNSPECIFIED., .T., .F., .U.)
   B_SPLINE_SURFACE_WITH_KNOTS ((6, 6), (4, 4), (0., 1.), (0., 1.), .UNSPECIFIED.)
   SURFACE ()
   GEOMETRIC_REPRESENTATION_ITEM ()
   RATIONAL_B_SPLINE_SURFACE (((5., 5., 5., 5.), (1., 1., 1., 1.), (1., 1., 1., 1.), (1., 1., 1., 1.), (1., 1., 1., 1.), (5., 5., 5., 5.)))
   REPRESENTATION_ITEM ('')
);
#168 = ADVANCED_FACE ('', (#142), #167, .T.);
#169 = CARTESIAN_POINT ('', (-70., 4.28626379701574E-15, -4.28626379701574E-15));
#170 = VERTEX_POINT ('', #169);
#171 = CARTESIAN_POINT ('', (-70., 4.28626379701574E-15, -4.28626379701574E-15));
#172 = CARTESIAN_POINT ('', (-70., 3.75, -9.18485099360513E-16));
#173 = B_SPLINE_CURVE_WITH_KNOTS ('', 1, (#171, #172), .UNSPECIFIED., .F., .U., (2, 2), (0., 1.), .UNSPECIFIED.);
#174 = EDGE_CURVE ('', #170, #122, #173, .T.);
#175 = ORIENTED_EDGE ('', *, *, #174, .F.);
#176 = ORIENTED_EDGE ('', *, *, #174, .T.);
#177 = ORIENTED_EDGE ('', *, *, #137, .F.);
#178 = EDGE_LOOP ('', (#175, #176, #177));
#179 = FACE_OUTER_BOUND ('', #178, .T.);
#180 = CARTESIAN_POINT ('', (-70., 4.28626379701574E-15, -4.28626379701574E-15));
#181 = CARTESIAN_POINT ('', (-70., 3.75, -9.18485099360513E-16));
#182 = CARTESIAN_POINT ('', (-70., 4.28626379701574E-15, -4.28626379701574E-15));
#183 = CARTESIAN_POINT ('', (-70., 3.74999999999999, 15.));
#184 = CARTESIAN_POINT ('', (-70., 4.28626379701574E-15, -4.28626379701574E-15));
#185 = CARTESIAN_POINT ('', (-70., -11.25, 7.49999999999998));
#186 = CARTESIAN_POINT ('', (-70., 4.28626379701574E-15, -4.28626379701574E-15));
#187 = CARTESIAN_POINT ('', (-70., -11.25, -7.50000000000001));
#188 = CARTESIAN_POINT ('', (-70., 4.28626379701574E-15, -4.28626379701574E-15));
#189 = CARTESIAN_POINT ('', (-70., 3.75000000000001, -15.));
#190 = CARTESIAN_POINT ('', (-70., 4.28626379701574E-15, -4.28626379701574E-15));
#191 = CARTESIAN_POINT ('', (-70., 3.75, -9.18485099360513E-16));
#192 = (
   BOUNDED_SURFACE ()
   B_SPLINE_SURFACE (5, 1, ((#180, #181), (#182, #183), (#184, #185), (#186, #187), (#188, #189), (#190, #191)), .UNSPECIFIED., .T., .F., .U.)
   B_SPLINE_SURFACE_WITH_KNOTS ((6, 6), (2, 2), (0., 1.), (0., 1.), .UNSPECIFIED.)
   SURFACE ()
   GEOMETRIC_REPRESENTATION_ITEM ()
   RATIONAL_B_SPLINE_SURFACE (((5., 5.), (1., 1.), (1., 1.), (1., 1.), (1., 1.), (5., 5.)))
   REPRESENTATION_ITEM ('')
);
#193 = ADVANCED_FACE ('', (#179), #192, .T.);
#194 = CARTESIAN_POINT ('', (-2.14313189850787E-16, 1.31228980982913E-32, -1.31228980982913E-32));
#195 = VERTEX_POINT ('', #194);
#196 = CARTESIAN_POINT ('', (2.46519032881566E-32, 3.5, -8.57252759403147E-16));
#197 = CARTESIAN_POINT ('', (-2.14313189850787E-16, 1.31228980982913E-32, -1.31228980982913E-32));
#198 = B_SPLINE_CURVE_WITH_KNOTS ('', 1, (#196, #197), .UNSPECIFIED., .F., .U., (2, 2), (0., 1.), .UNSPECIFIED.);
#199 = EDGE_CURVE ('', #4, #195, #198, .T.);
#200 = ORIENTED_EDGE ('', *, *, #199, .F.);
#201 = ORIENTED_EDGE ('', *, *, #31, .T.);
#202 = ORIENTED_EDGE ('', *, *, #199, .T.);
#203 = EDGE_LOOP ('', (#200, #201, #202));
#204 = FACE_OUTER_BOUND ('', #203, .T.);
#205 = CARTESIAN_POINT ('', (2.46519032881566E-32, 3.5, -8.57252759403147E-16));
#206 = CARTESIAN_POINT ('', (-2.14313189850787E-16, 1.31228980982913E-32, -1.31228980982913E-32));
#207 = CARTESIAN_POINT ('', (-8.57252759403147E-16, 3.5, 14.));
#208 = CARTESIAN_POINT ('', (-2.14313189850787E-16, 1.31228980982913E-32, -1.31228980982913E-32));
#209 = CARTESIAN_POINT ('', (-1.28587913910472E-15, -10.5, 7.));
#210 = CARTESIAN_POINT ('', (-2.14313189850787E-16, 1.31228980982913E-32, -1.31228980982913E-32));
#211 = CARTESIAN_POINT ('', (-4.28626379701574E-16, -10.5, -7.));
#212 = CARTESIAN_POINT ('', (-2.14313189850787E-16, 1.31228980982913E-32, -1.31228980982913E-32));
#213 = CARTESIAN_POINT ('', (8.57252759403147E-16, 3.5, -14.));
#214 = CARTESIAN_POINT ('', (-2.14313189850787E-16, 1.31228980982913E-32, -1.31228980982913E-32));
#215 = CARTESIAN_POINT ('', (2.46519032881566E-32, 3.5, -8.57252759403147E-16));
#216 = CARTESIAN_POINT ('', (-2.14313189850787E-16, 1.31228980982913E-32, -1.31228980982913E-32));
#217 = (
   BOUNDED_SURFACE ()
   B_SPLINE_SURFACE (5, 1, ((#205, #206), (#207, #208), (#209, #210), (#211, #212), (#213, #214), (#215, #216)), .UNSPECIFIED., .T., .F., .U.)
   B_SPLINE_SURFACE_WITH_KNOTS ((6, 6), (2, 2), (0., 1.), (0., 1.), .UNSPECIFIED.)
   SURFACE ()
   GEOMETRIC_REPRESENTATION_ITEM ()
   RATIONAL_B_SPLINE_SURFACE (((5., 5.), (1., 1.), (1., 1.), (1., 1.), (1., 1.), (5., 5.)))
   REPRESENTATION_ITEM ('')
);
#218 = ADVANCED_FACE ('', (#204), #217, .T.);
#219 = CLOSED_SHELL ('', (#72, #120, #168, #193, #218));
#220 = MANIFOLD_SOLID_BREP ('', #219);
#221 = (
   LENGTH_UNIT ()
   NAMED_UNIT (*)
   SI_UNIT (.MILLI., .METRE.)
);
#222 = (
   NAMED_UNIT (*)
   SI_UNIT ($, .STERADIAN.)
   SOLID_ANGLE_UNIT ()
);
#223 = (
   NAMED_UNIT (*)
   SI_UNIT ($, .RADIAN.)
   PLANE_ANGLE_UNIT ()
);
#224 = UNCERTAINTY_MEASURE_WITH_UNIT (LENGTH_MEASURE(0.001), #221, 'DISTANCE_ACCURACY_VALUE', '');
#225 = (
   GEOMETRIC_REPRESENTATION_CONTEXT (3)
   GLOBAL_UNCERTAINTY_ASSIGNED_CONTEXT ((#224))
   GLOBAL_UNIT_ASSIGNED_CONTEXT ((#221, #222, #223))
   REPRESENTATION_CONTEXT ('', '3D')
);
#226 = SHAPE_REPRESENTATION ('', (), #225);
#227 = APPLICATION_CONTEXT ('configuration controlled 3D designs of mechanical parts and assemblies');
#228 = APPLICATION_PROTOCOL_DEFINITION ('International Standard', 'config_control_design', 1997, #227);
#229 = MECHANICAL_CONTEXT ('', #227, 'mechanical');
#230 = PRODUCT ('', '', '', (#229));
#231 = PERSON_AND_ORGANIZATION_ROLE ('design_owner');
#232 = PERSON ('', '', $, $, $, $);
#233 = ORGANIZATION ($, '', '');
#234 = PERSON_AND_ORGANIZATION (#232, #233);
#235 = CC_DESIGN_PERSON_AND_ORGANIZATION_ASSIGNMENT (#234, #231, (#230));
#236 = PRODUCT_RELATED_PRODUCT_CATEGORY ('detail', $, (#230));
#237 = PRODUCT_DEFINITION_FORMATION_WITH_SPECIFIED_SOURCE ('', '', #230, .NOT_KNOWN.);
#238 = APPROVAL_STATUS ('approved');
#239 = APPROVAL (#238, '');
#240 = CALENDAR_DATE (2020, 16, 4);
#241 = COORDINATED_UNIVERSAL_TIME_OFFSET (0, $, .AHEAD.);
#242 = LOCAL_TIME (16, 5, 12., #241);
#243 = DATE_AND_TIME (#240, #242);
#244 = APPROVAL_DATE_TIME (#243, #239);
#245 = APPROVAL_ROLE ('');
#246 = PERSON ('', '', $, $, $, $);
#247 = ORGANIZATION ($, '', '');
#248 = PERSON_AND_ORGANIZATION (#246, #247);
#249 = APPROVAL_PERSON_ORGANIZATION (#248, #239, #245);
#250 = CC_DESIGN_APPROVAL (#239, (#237));
#251 = PERSON_AND_ORGANIZATION_ROLE ('creator');
#252 = PERSON ('', '', $, $, $, $);
#253 = ORGANIZATION ($, '', '');
#254 = PERSON_AND_ORGANIZATION (#252, #253);
#255 = CC_DESIGN_PERSON_AND_ORGANIZATION_ASSIGNMENT (#254, #251, (#237));
#256 = PERSON_AND_ORGANIZATION_ROLE ('part_supplier');
#257 = PERSON ('', '', $, $, $, $);
#258 = ORGANIZATION ($, '', '');
#259 = PERSON_AND_ORGANIZATION (#257, #258);
#260 = CC_DESIGN_PERSON_AND_ORGANIZATION_ASSIGNMENT (#259, #256, (#237));
#261 = SECURITY_CLASSIFICATION_LEVEL ('unclassified');
#262 = SECURITY_CLASSIFICATION ('', '', #261);
#263 = APPROVAL_STATUS ('approved');
#264 = APPROVAL (#263, '');
#265 = CALENDAR_DATE (2020, 16, 4);
#266 = COORDINATED_UNIVERSAL_TIME_OFFSET (0, $, .AHEAD.);
#267 = LOCAL_TIME (16, 5, 12., #266);
#268 = DATE_AND_TIME (#265, #267);
#269 = APPROVAL_DATE_TIME (#268, #264);
#270 = APPROVAL_ROLE ('');
#271 = PERSON ('', '', $, $, $, $);
#272 = ORGANIZATION ($, '', '');
#273 = PERSON_AND_ORGANIZATION (#271, #272);
#274 = APPROVAL_PERSON_ORGANIZATION (#273, #264, #270);
#275 = CC_DESIGN_APPROVAL (#264, (#262));
#276 = DATE_TIME_ROLE ('classification_date');
#277 = CALENDAR_DATE (2020, 16, 4);
#278 = COORDINATED_UNIVERSAL_TIME_OFFSET (0, $, .AHEAD.);
#279 = LOCAL_TIME (16, 5, 12., #278);
#280 = DATE_AND_TIME (#277, #279);
#281 = CC_DESIGN_DATE_AND_TIME_ASSIGNMENT (#280, #276, (#262));
#282 = PERSON_AND_ORGANIZATION_ROLE ('classification_officer');
#283 = PERSON ('', '', $, $, $, $);
#284 = ORGANIZATION ($, '', '');
#285 = PERSON_AND_ORGANIZATION (#283, #284);
#286 = CC_DESIGN_PERSON_AND_ORGANIZATION_ASSIGNMENT (#285, #282, (#262));
#287 = CC_DESIGN_SECURITY_CLASSIFICATION (#262, (#237));
#288 = DESIGN_CONTEXT ('', #227, 'design');
#289 = PRODUCT_DEFINITION ('', '', #237, #288);
#290 = APPROVAL_STATUS ('approved');
#291 = APPROVAL (#290, '');
#292 = CALENDAR_DATE (2020, 16, 4);
#293 = COORDINATED_UNIVERSAL_TIME_OFFSET (0, $, .AHEAD.);
#294 = LOCAL_TIME (16, 5, 12., #293);
#295 = DATE_AND_TIME (#292, #294);
#296 = APPROVAL_DATE_TIME (#295, #291);
#297 = APPROVAL_ROLE ('');
#298 = PERSON ('', '', $, $, $, $);
#299 = ORGANIZATION ($, '', '');
#300 = PERSON_AND_ORGANIZATION (#298, #299);
#301 = APPROVAL_PERSON_ORGANIZATION (#300, #291, #297);
#302 = CC_DESIGN_APPROVAL (#291, (#289));
#303 = DATE_TIME_ROLE ('creation_date');
#304 = CALENDAR_DATE (2020, 16, 4);
#305 = COORDINATED_UNIVERSAL_TIME_OFFSET (0, $, .AHEAD.);
#306 = LOCAL_TIME (16, 5, 12., #305);
#307 = DATE_AND_TIME (#304, #306);
#308 = CC_DESIGN_DATE_AND_TIME_ASSIGNMENT (#307, #303, (#289));
#309 = PERSON_AND_ORGANIZATION_ROLE ('creator');
#310 = PERSON ('', '', $, $, $, $);
#311 = ORGANIZATION ($, '', '');
#312 = PERSON_AND_ORGANIZATION (#310, #311);
#313 = CC_DESIGN_PERSON_AND_ORGANIZATION_ASSIGNMENT (#312, #309, (#289));
#314 = PRODUCT_DEFINITION_SHAPE ('', '', #289);
#315 = SHAPE_DEFINITION_REPRESENTATION (#314, #226);
#316 = SHAPE_REPRESENTATION_RELATIONSHIP ('', '', #226, #317);
#317 = ADVANCED_BREP_SHAPE_REPRESENTATION ('', (#220), #225);
ENDSEC;
END-ISO-10303-21;
