ISO-10303-21;
HEADER;
FILE_DESCRIPTION (('STEP'), '1');
FILE_NAME ('C:\\Users\\JHayes\\OneDrive - MAFord Europe\\Files\\M\\M.A.FORD\\STEP FILES\\380\\380M1000-0.5RAXW.STP', '2024-09-19T12:56:09', ('Unknown'), ('M.A.FORD'), 'OneCNC-XR9 Mill 3D Expert', 'OneCNC-XR9 Mill 3D Expert', '');
FILE_SCHEMA (('CONFIG_CONTROL_DESIGN'));
ENDSEC;

DATA;
#1 = CARTESIAN_POINT ('', (-0.5, 5., 0.));
#2 = VERTEX_POINT ('', #1);
#3 = CARTESIAN_POINT ('', (0., 4.5, 0.));
#4 = VERTEX_POINT ('', #3);
#5 = CARTESIAN_POINT ('', (-0.5, 5., 0.));
#6 = CARTESIAN_POINT ('', (-0.377723889808762, 4.99999999999999, 0.));
#7 = CARTESIAN_POINT ('', (-0.205021401527423, 4.93286667337573, 0.));
#8 = CARTESIAN_POINT ('', (-0.0379028087976889, 4.72730101693359, 0.));
#9 = CARTESIAN_POINT ('', (0., 4.58801006997535, 0.));
#10 = CARTESIAN_POINT ('', (0., 4.5, 0.));
#11 = B_SPLINE_CURVE_WITH_KNOTS ('', 3, (#5, #6, #7, #8, #9, #10), .UNSPECIFIED., .F., .U., (4, 1, 1, 4), (0., 0.467060336615637, 0.66382629571742, 1.), .UNSPECIFIED.);
#12 = EDGE_CURVE ('', #2, #4, #11, .T.);
#13 = ORIENTED_EDGE ('', *, *, #12, .F.);
#14 = CARTESIAN_POINT ('', (-0.5, 5., 0.));
#15 = CARTESIAN_POINT ('', (-0.5, 5., 5.));
#16 = CARTESIAN_POINT ('', (-0.5, 3.06161699786838E-16, 5.));
#17 = CARTESIAN_POINT ('', (-0.5, -5., 5.));
#18 = CARTESIAN_POINT ('', (-0.5, -5., 6.12323399573677E-16));
#19 = CARTESIAN_POINT ('', (-0.5, -5., -5.));
#20 = CARTESIAN_POINT ('', (-0.5, -9.18485099360515E-16, -5.));
#21 = CARTESIAN_POINT ('', (-0.5, 5., -5.));
#22 = CARTESIAN_POINT ('', (-0.5, 5., 0.));
#23 = (
   BOUNDED_CURVE ()
   B_SPLINE_CURVE (2, (#14, #15, #16, #17, #18, #19, #20, #21, #22), .UNSPECIFIED., .T., .U.)
   B_SPLINE_CURVE_WITH_KNOTS ((3, 2, 2, 2, 3), (0., 0.25, 0.5, 0.75, 1.), .UNSPECIFIED.)
   CURVE ()
   GEOMETRIC_REPRESENTATION_ITEM ()
   RATIONAL_B_SPLINE_CURVE ((1., 0.707106781186548, 1., 0.707106781186548, 1., 0.707106781186548, 1., 0.707106781186548, 1.))
   REPRESENTATION_ITEM ('')
);
#24 = EDGE_CURVE ('', #2, #2, #23, .T.);
#25 = ORIENTED_EDGE ('', *, *, #24, .T.);
#26 = ORIENTED_EDGE ('', *, *, #12, .T.);
#27 = CARTESIAN_POINT ('', (0., 4.5, 0.));
#28 = CARTESIAN_POINT ('', (0., 4.5, 4.5));
#29 = CARTESIAN_POINT ('', (0., 2.75545529808154E-16, 4.5));
#30 = CARTESIAN_POINT ('', (0., -4.5, 4.5));
#31 = CARTESIAN_POINT ('', (0., -4.5, 5.51091059616309E-16));
#32 = CARTESIAN_POINT ('', (0., -4.5, -4.5));
#33 = CARTESIAN_POINT ('', (0., -8.26636589424463E-16, -4.5));
#34 = CARTESIAN_POINT ('', (0., 4.5, -4.5));
#35 = CARTESIAN_POINT ('', (0., 4.5, 0.));
#36 = (
   BOUNDED_CURVE ()
   B_SPLINE_CURVE (2, (#27, #28, #29, #30, #31, #32, #33, #34, #35), .UNSPECIFIED., .T., .U.)
   B_SPLINE_CURVE_WITH_KNOTS ((3, 2, 2, 2, 3), (0., 0.25, 0.5, 0.75, 1.), .UNSPECIFIED.)
   CURVE ()
   GEOMETRIC_REPRESENTATION_ITEM ()
   RATIONAL_B_SPLINE_CURVE ((1., 0.707106781186548, 1., 0.707106781186548, 1., 0.707106781186548, 1., 0.707106781186548, 1.))
   REPRESENTATION_ITEM ('')
);
#37 = EDGE_CURVE ('', #4, #4, #36, .T.);
#38 = ORIENTED_EDGE ('', *, *, #37, .F.);
#39 = EDGE_LOOP ('', (#13, #25, #26, #38));
#40 = FACE_OUTER_BOUND ('', #39, .T.);
#41 = CARTESIAN_POINT ('', (-0.5, 5., 0.));
#42 = CARTESIAN_POINT ('', (-0.377723889808762, 4.99999999999999, 0.));
#43 = CARTESIAN_POINT ('', (-0.205021401527423, 4.93286667337573, 0.));
#44 = CARTESIAN_POINT ('', (-0.0379028087976889, 4.72730101693359, 0.));
#45 = CARTESIAN_POINT ('', (0., 4.58801006997535, 0.));
#46 = CARTESIAN_POINT ('', (0., 4.5, 0.));
#47 = CARTESIAN_POINT ('', (-0.5, 5., 5.));
#48 = CARTESIAN_POINT ('', (-0.377723889808762, 4.99999999999999, 4.99999999999999));
#49 = CARTESIAN_POINT ('', (-0.205021401527423, 4.93286667337573, 4.93286667337573));
#50 = CARTESIAN_POINT ('', (-0.0379028087976889, 4.72730101693359, 4.72730101693359));
#51 = CARTESIAN_POINT ('', (0., 4.58801006997535, 4.58801006997535));
#52 = CARTESIAN_POINT ('', (0., 4.5, 4.5));
#53 = CARTESIAN_POINT ('', (-0.5, 3.06161699786838E-16, 5.));
#54 = CARTESIAN_POINT ('', (-0.377723889808762, 3.06161699786838E-16, 4.99999999999999));
#55 = CARTESIAN_POINT ('', (-0.205021401527423, 3.02050969108512E-16, 4.93286667337573));
#56 = CARTESIAN_POINT ('', (-0.0379028087976889, 2.89463702949687E-16, 4.72730101693359));
#57 = CARTESIAN_POINT ('', (0., 2.80934592332557E-16, 4.58801006997535));
#58 = CARTESIAN_POINT ('', (0., 2.75545529808154E-16, 4.5));
#59 = CARTESIAN_POINT ('', (-0.5, -5., 5.));
#60 = CARTESIAN_POINT ('', (-0.377723889808762, -4.99999999999999, 4.99999999999999));
#61 = CARTESIAN_POINT ('', (-0.205021401527423, -4.93286667337573, 4.93286667337573));
#62 = CARTESIAN_POINT ('', (-0.0379028087976889, -4.72730101693359, 4.72730101693359));
#63 = CARTESIAN_POINT ('', (0., -4.58801006997535, 4.58801006997535));
#64 = CARTESIAN_POINT ('', (0., -4.5, 4.5));
#65 = CARTESIAN_POINT ('', (-0.5, -5., 6.12323399573677E-16));
#66 = CARTESIAN_POINT ('', (-0.377723889808762, -4.99999999999999, 6.12323399573675E-16));
#67 = CARTESIAN_POINT ('', (-0.205021401527423, -4.93286667337573, 6.04101938217024E-16));
#68 = CARTESIAN_POINT ('', (-0.0379028087976889, -4.72730101693359, 5.78927405899375E-16));
#69 = CARTESIAN_POINT ('', (0., -4.58801006997535, 5.61869184665113E-16));
#70 = CARTESIAN_POINT ('', (0., -4.5, 5.51091059616309E-16));
#71 = CARTESIAN_POINT ('', (-0.5, -5., -5.));
#72 = CARTESIAN_POINT ('', (-0.377723889808762, -4.99999999999999, -4.99999999999999));
#73 = CARTESIAN_POINT ('', (-0.205021401527423, -4.93286667337573, -4.93286667337573));
#74 = CARTESIAN_POINT ('', (-0.0379028087976889, -4.72730101693359, -4.72730101693359));
#75 = CARTESIAN_POINT ('', (0., -4.58801006997535, -4.58801006997535));
#76 = CARTESIAN_POINT ('', (0., -4.5, -4.5));
#77 = CARTESIAN_POINT ('', (-0.5, -9.18485099360515E-16, -5.));
#78 = CARTESIAN_POINT ('', (-0.377723889808762, -9.18485099360513E-16, -4.99999999999999));
#79 = CARTESIAN_POINT ('', (-0.205021401527423, -9.06152907325536E-16, -4.93286667337573));
#80 = CARTESIAN_POINT ('', (-0.0379028087976889, -8.68391108849062E-16, -4.72730101693359));
#81 = CARTESIAN_POINT ('', (0., -8.4280377699767E-16, -4.58801006997535));
#82 = CARTESIAN_POINT ('', (0., -8.26636589424463E-16, -4.5));
#83 = CARTESIAN_POINT ('', (-0.5, 5., -5.));
#84 = CARTESIAN_POINT ('', (-0.377723889808762, 4.99999999999999, -4.99999999999999));
#85 = CARTESIAN_POINT ('', (-0.205021401527423, 4.93286667337573, -4.93286667337573));
#86 = CARTESIAN_POINT ('', (-0.0379028087976889, 4.72730101693359, -4.72730101693359));
#87 = CARTESIAN_POINT ('', (0., 4.58801006997535, -4.58801006997535));
#88 = CARTESIAN_POINT ('', (0., 4.5, -4.5));
#89 = CARTESIAN_POINT ('', (-0.5, 5., 0.));
#90 = CARTESIAN_POINT ('', (-0.377723889808762, 4.99999999999999, 0.));
#91 = CARTESIAN_POINT ('', (-0.205021401527423, 4.93286667337573, 0.));
#92 = CARTESIAN_POINT ('', (-0.0379028087976889, 4.72730101693359, 0.));
#93 = CARTESIAN_POINT ('', (0., 4.58801006997535, 0.));
#94 = CARTESIAN_POINT ('', (0., 4.5, 0.));
#95 = (
   BOUNDED_SURFACE ()
   B_SPLINE_SURFACE (2, 3, ((#41, #42, #43, #44, #45, #46), (#47, #48, #49, #50, #51, #52), (#53, #54, #55, #56, #57, #58), (#59, #60, #61, #62, #63, #64), (#65, #66, #67, #68, #69, #70), (#71, #72, #73, #74, #75, #76), (#77, #78, #79, #80, #81, #82), (#83, #84, #85, #86, #87, #88), (#89, #90, #91, #92, #93, #94)), .UNSPECIFIED., .T., .F., .U.)
   B_SPLINE_SURFACE_WITH_KNOTS ((3, 2, 2, 2, 3), (4, 1, 1, 4), (0., 0.25, 0.5, 0.75, 1.), (0., 0.467060336615637, 0.66382629571742, 1.), .UNSPECIFIED.)
   GEOMETRIC_REPRESENTATION_ITEM ()
   RATIONAL_B_SPLINE_SURFACE (((1., 1., 1., 1., 1., 1.), (0.707106781186548, 0.707106781186548, 0.707106781186548, 0.707106781186548, 0.707106781186548, 0.707106781186548), (1., 1., 1., 1., 1., 1.), (0.707106781186548, 0.707106781186548, 0.707106781186548, 0.707106781186548, 0.707106781186548, 0.707106781186548), (1., 1., 1., 1., 1., 1.), (0.707106781186548, 0.707106781186548, 0.707106781186548, 0.707106781186548, 0.707106781186548, 0.707106781186548), (1., 1., 1., 1., 1., 1.), (0.707106781186548, 0.707106781186548, 0.707106781186548, 0.707106781186548, 0.707106781186548, 0.707106781186548), (1., 1., 1., 1., 1., 1.)))
   REPRESENTATION_ITEM ('')
   SURFACE ()
);
#96 = ADVANCED_FACE ('', (#40), #95, .T.);
#97 = CARTESIAN_POINT ('', (-72., 5., 0.));
#98 = VERTEX_POINT ('', #97);
#99 = CARTESIAN_POINT ('', (-72., 5., 0.));
#100 = CARTESIAN_POINT ('', (-48.1666666666665, 5., 0.));
#101 = CARTESIAN_POINT ('', (-24.3333333333333, 5., 0.));
#102 = CARTESIAN_POINT ('', (-0.5, 5., 0.));
#103 = B_SPLINE_CURVE_WITH_KNOTS ('', 3, (#99, #100, #101, #102), .UNSPECIFIED., .F., .U., (4, 4), (0., 1.), .UNSPECIFIED.);
#104 = EDGE_CURVE ('', #98, #2, #103, .T.);
#105 = ORIENTED_EDGE ('', *, *, #104, .F.);
#106 = CARTESIAN_POINT ('', (-72., 5., 0.));
#107 = CARTESIAN_POINT ('', (-72., 5., 5.));
#108 = CARTESIAN_POINT ('', (-72., 3.06161699786838E-16, 5.));
#109 = CARTESIAN_POINT ('', (-72., -5., 5.));
#110 = CARTESIAN_POINT ('', (-72., -5., 6.12323399573677E-16));
#111 = CARTESIAN_POINT ('', (-72., -5., -5.));
#112 = CARTESIAN_POINT ('', (-72., -9.18485099360515E-16, -5.));
#113 = CARTESIAN_POINT ('', (-72., 5., -5.));
#114 = CARTESIAN_POINT ('', (-72., 5., 0.));
#115 = (
   BOUNDED_CURVE ()
   B_SPLINE_CURVE (2, (#106, #107, #108, #109, #110, #111, #112, #113, #114), .UNSPECIFIED., .T., .U.)
   B_SPLINE_CURVE_WITH_KNOTS ((3, 2, 2, 2, 3), (0., 0.25, 0.5, 0.75, 1.), .UNSPECIFIED.)
   CURVE ()
   GEOMETRIC_REPRESENTATION_ITEM ()
   RATIONAL_B_SPLINE_CURVE ((1., 0.707106781186548, 1., 0.707106781186548, 1., 0.707106781186548, 1., 0.707106781186548, 1.))
   REPRESENTATION_ITEM ('')
);
#116 = EDGE_CURVE ('', #98, #98, #115, .T.);
#117 = ORIENTED_EDGE ('', *, *, #116, .T.);
#118 = ORIENTED_EDGE ('', *, *, #104, .T.);
#119 = ORIENTED_EDGE ('', *, *, #24, .F.);
#120 = EDGE_LOOP ('', (#105, #117, #118, #119));
#121 = FACE_OUTER_BOUND ('', #120, .T.);
#122 = CARTESIAN_POINT ('', (-72., 5., 0.));
#123 = CARTESIAN_POINT ('', (-48.1666666666665, 5., 0.));
#124 = CARTESIAN_POINT ('', (-24.3333333333333, 5., 0.));
#125 = CARTESIAN_POINT ('', (-0.5, 5., 0.));
#126 = CARTESIAN_POINT ('', (-72., 5., 5.));
#127 = CARTESIAN_POINT ('', (-48.1666666666665, 5., 5.));
#128 = CARTESIAN_POINT ('', (-24.3333333333333, 5., 5.));
#129 = CARTESIAN_POINT ('', (-0.5, 5., 5.));
#130 = CARTESIAN_POINT ('', (-72., 3.06161699786838E-16, 5.));
#131 = CARTESIAN_POINT ('', (-48.1666666666665, 3.06161699786838E-16, 5.));
#132 = CARTESIAN_POINT ('', (-24.3333333333333, 3.06161699786838E-16, 5.));
#133 = CARTESIAN_POINT ('', (-0.5, 3.06161699786838E-16, 5.));
#134 = CARTESIAN_POINT ('', (-72., -5., 5.));
#135 = CARTESIAN_POINT ('', (-48.1666666666665, -5., 5.));
#136 = CARTESIAN_POINT ('', (-24.3333333333333, -5., 5.));
#137 = CARTESIAN_POINT ('', (-0.5, -5., 5.));
#138 = CARTESIAN_POINT ('', (-72., -5., 6.12323399573677E-16));
#139 = CARTESIAN_POINT ('', (-48.1666666666665, -5., 6.12323399573677E-16));
#140 = CARTESIAN_POINT ('', (-24.3333333333333, -5., 6.12323399573677E-16));
#141 = CARTESIAN_POINT ('', (-0.5, -5., 6.12323399573677E-16));
#142 = CARTESIAN_POINT ('', (-72., -5., -5.));
#143 = CARTESIAN_POINT ('', (-48.1666666666665, -5., -5.));
#144 = CARTESIAN_POINT ('', (-24.3333333333333, -5., -5.));
#145 = CARTESIAN_POINT ('', (-0.5, -5., -5.));
#146 = CARTESIAN_POINT ('', (-72., -9.18485099360515E-16, -5.));
#147 = CARTESIAN_POINT ('', (-48.1666666666665, -9.18485099360515E-16, -5.));
#148 = CARTESIAN_POINT ('', (-24.3333333333333, -9.18485099360515E-16, -5.));
#149 = CARTESIAN_POINT ('', (-0.5, -9.18485099360515E-16, -5.));
#150 = CARTESIAN_POINT ('', (-72., 5., -5.));
#151 = CARTESIAN_POINT ('', (-48.1666666666665, 5., -5.));
#152 = CARTESIAN_POINT ('', (-24.3333333333333, 5., -5.));
#153 = CARTESIAN_POINT ('', (-0.5, 5., -5.));
#154 = CARTESIAN_POINT ('', (-72., 5., 0.));
#155 = CARTESIAN_POINT ('', (-48.1666666666665, 5., 0.));
#156 = CARTESIAN_POINT ('', (-24.3333333333333, 5., 0.));
#157 = CARTESIAN_POINT ('', (-0.5, 5., 0.));
#158 = (
   BOUNDED_SURFACE ()
   B_SPLINE_SURFACE (2, 3, ((#122, #123, #124, #125), (#126, #127, #128, #129), (#130, #131, #132, #133), (#134, #135, #136, #137), (#138, #139, #140, #141), (#142, #143, #144, #145), (#146, #147, #148, #149), (#150, #151, #152, #153), (#154, #155, #156, #157)), .UNSPECIFIED., .T., .F., .U.)
   B_SPLINE_SURFACE_WITH_KNOTS ((3, 2, 2, 2, 3), (4, 4), (0., 0.25, 0.5, 0.75, 1.), (0., 1.), .UNSPECIFIED.)
   GEOMETRIC_REPRESENTATION_ITEM ()
   RATIONAL_B_SPLINE_SURFACE (((1., 1., 1., 1.), (0.707106781186548, 0.707106781186548, 0.707106781186548, 0.707106781186548), (1., 1., 1., 1.), (0.707106781186548, 0.707106781186548, 0.707106781186548, 0.707106781186548), (1., 1., 1., 1.), (0.707106781186548, 0.707106781186548, 0.707106781186548, 0.707106781186548), (1., 1., 1., 1.), (0.707106781186548, 0.707106781186548, 0.707106781186548, 0.707106781186548), (1., 1., 1., 1.)))
   REPRESENTATION_ITEM ('')
   SURFACE ()
);
#159 = ADVANCED_FACE ('', (#121), #158, .T.);
#160 = ORIENTED_EDGE ('', *, *, #116, .F.);
#161 = EDGE_LOOP ('', (#160));
#162 = FACE_OUTER_BOUND ('', #161, .T.);
#163 = CARTESIAN_POINT ('', (-72., -5.5, -5.5));
#164 = CARTESIAN_POINT ('', (-72., 5.5, -5.5));
#165 = CARTESIAN_POINT ('', (-72., -5.5, 5.5));
#166 = CARTESIAN_POINT ('', (-72., 5.5, 5.5));
#167 = B_SPLINE_SURFACE_WITH_KNOTS ('', 1, 1, ((#163, #164), (#165, #166)), .UNSPECIFIED., .F., .F., .U., (2, 2), (2, 2), (0., 1.), (0., 1.), .UNSPECIFIED.);
#168 = ADVANCED_FACE ('', (#162), #167, .T.);
#169 = ORIENTED_EDGE ('', *, *, #37, .F.);
#170 = EDGE_LOOP ('', (#169));
#171 = FACE_OUTER_BOUND ('', #170, .F.);
#172 = CARTESIAN_POINT ('', (0., -4.95, -4.95));
#173 = CARTESIAN_POINT ('', (0., 4.95, -4.95));
#174 = CARTESIAN_POINT ('', (0., -4.95, 4.95));
#175 = CARTESIAN_POINT ('', (0., 4.95, 4.95));
#176 = B_SPLINE_SURFACE_WITH_KNOTS ('', 1, 1, ((#172, #173), (#174, #175)), .UNSPECIFIED., .F., .F., .U., (2, 2), (2, 2), (0., 1.), (0., 1.), .UNSPECIFIED.);
#177 = ADVANCED_FACE ('', (#171), #176, .F.);
#178 = CLOSED_SHELL ('', (#96, #159, #168, #177));
#179 = MANIFOLD_SOLID_BREP ('', #178);
#180 = COLOUR_RGB ('', 0.784313725490196, 0.784313725490196, 0.784313725490196);
#181 = FILL_AREA_STYLE_COLOUR ('', #180);
#182 = FILL_AREA_STYLE ('', (#181));
#183 = SURFACE_STYLE_FILL_AREA (#182);
#184 = SURFACE_SIDE_STYLE ('', (#183));
#185 = SURFACE_STYLE_USAGE (.POSITIVE., #184);
#186 = PRESENTATION_STYLE_ASSIGNMENT ((#185));
#187 = STYLED_ITEM ('', (#186), #179);
#188 = (
   LENGTH_UNIT ()
   NAMED_UNIT (*)
   SI_UNIT (.MILLI., .METRE.)
);
#189 = (
   NAMED_UNIT (*)
   SI_UNIT ($, .STERADIAN.)
   SOLID_ANGLE_UNIT ()
);
#190 = (
   NAMED_UNIT (*)
   PLANE_ANGLE_UNIT ()
   SI_UNIT ($, .RADIAN.)
);
#191 = UNCERTAINTY_MEASURE_WITH_UNIT (LENGTH_MEASURE(0.001), #188, 'DISTANCE_ACCURACY_VALUE', '');
#192 = (
   GEOMETRIC_REPRESENTATION_CONTEXT (3)
   GLOBAL_UNCERTAINTY_ASSIGNED_CONTEXT ((#191))
   GLOBAL_UNIT_ASSIGNED_CONTEXT ((#188, #189, #190))
   REPRESENTATION_CONTEXT ('', '3D')
);
#193 = SHAPE_REPRESENTATION ('', (), #192);
#194 = APPLICATION_CONTEXT ('configuration controlled 3D designs of mechanical parts and assemblies');
#195 = APPLICATION_PROTOCOL_DEFINITION ('International Standard', 'config_control_design', 1997, #194);
#196 = MECHANICAL_CONTEXT ('', #194, 'mechanical');
#197 = PRODUCT ('', '', '', (#196));
#198 = PERSON_AND_ORGANIZATION_ROLE ('design_owner');
#199 = PERSON ('#199', '', $, $, $, $);
#200 = ORGANIZATION ($, '', '');
#201 = PERSON_AND_ORGANIZATION (#199, #200);
#202 = CC_DESIGN_PERSON_AND_ORGANIZATION_ASSIGNMENT (#201, #198, (#197));
#203 = PRODUCT_RELATED_PRODUCT_CATEGORY ('detail', $, (#197));
#204 = PRODUCT_DEFINITION_FORMATION_WITH_SPECIFIED_SOURCE ('', '', #197, .NOT_KNOWN.);
#205 = APPROVAL_STATUS ('approved');
#206 = APPROVAL (#205, '');
#207 = CALENDAR_DATE (2024, 19, 9);
#208 = COORDINATED_UNIVERSAL_TIME_OFFSET (0, $, .AHEAD.);
#209 = LOCAL_TIME (12, 56, 9., #208);
#210 = DATE_AND_TIME (#207, #209);
#211 = APPROVAL_DATE_TIME (#210, #206);
#212 = APPROVAL_ROLE ('');
#213 = PERSON ('#213', '', $, $, $, $);
#214 = ORGANIZATION ($, '', '');
#215 = PERSON_AND_ORGANIZATION (#213, #214);
#216 = APPROVAL_PERSON_ORGANIZATION (#215, #206, #212);
#217 = CC_DESIGN_APPROVAL (#206, (#204));
#218 = PERSON_AND_ORGANIZATION_ROLE ('creator');
#219 = PERSON ('#219', '', $, $, $, $);
#220 = ORGANIZATION ($, '', '');
#221 = PERSON_AND_ORGANIZATION (#219, #220);
#222 = CC_DESIGN_PERSON_AND_ORGANIZATION_ASSIGNMENT (#221, #218, (#204));
#223 = PERSON_AND_ORGANIZATION_ROLE ('part_supplier');
#224 = PERSON ('#224', '', $, $, $, $);
#225 = ORGANIZATION ($, '', '');
#226 = PERSON_AND_ORGANIZATION (#224, #225);
#227 = CC_DESIGN_PERSON_AND_ORGANIZATION_ASSIGNMENT (#226, #223, (#204));
#228 = SECURITY_CLASSIFICATION_LEVEL ('unclassified');
#229 = SECURITY_CLASSIFICATION ('', '', #228);
#230 = APPROVAL_STATUS ('approved');
#231 = APPROVAL (#230, '');
#232 = CALENDAR_DATE (2024, 19, 9);
#233 = COORDINATED_UNIVERSAL_TIME_OFFSET (0, $, .AHEAD.);
#234 = LOCAL_TIME (12, 56, 9., #233);
#235 = DATE_AND_TIME (#232, #234);
#236 = APPROVAL_DATE_TIME (#235, #231);
#237 = APPROVAL_ROLE ('');
#238 = PERSON ('#238', '', $, $, $, $);
#239 = ORGANIZATION ($, '', '');
#240 = PERSON_AND_ORGANIZATION (#238, #239);
#241 = APPROVAL_PERSON_ORGANIZATION (#240, #231, #237);
#242 = CC_DESIGN_APPROVAL (#231, (#229));
#243 = DATE_TIME_ROLE ('classification_date');
#244 = CALENDAR_DATE (2024, 19, 9);
#245 = COORDINATED_UNIVERSAL_TIME_OFFSET (0, $, .AHEAD.);
#246 = LOCAL_TIME (12, 56, 9., #245);
#247 = DATE_AND_TIME (#244, #246);
#248 = CC_DESIGN_DATE_AND_TIME_ASSIGNMENT (#247, #243, (#229));
#249 = PERSON_AND_ORGANIZATION_ROLE ('classification_officer');
#250 = PERSON ('#250', '', $, $, $, $);
#251 = ORGANIZATION ($, '', '');
#252 = PERSON_AND_ORGANIZATION (#250, #251);
#253 = CC_DESIGN_PERSON_AND_ORGANIZATION_ASSIGNMENT (#252, #249, (#229));
#254 = CC_DESIGN_SECURITY_CLASSIFICATION (#229, (#204));
#255 = DESIGN_CONTEXT ('', #194, 'design');
#256 = APPROVAL_STATUS ('approved');
#257 = APPROVAL (#256, '');
#258 = CALENDAR_DATE (2024, 19, 9);
#259 = COORDINATED_UNIVERSAL_TIME_OFFSET (0, $, .AHEAD.);
#260 = LOCAL_TIME (12, 56, 9., #259);
#261 = DATE_AND_TIME (#258, #260);
#262 = APPROVAL_DATE_TIME (#261, #257);
#263 = APPROVAL_ROLE ('');
#264 = PERSON ('#264', '', $, $, $, $);
#265 = ORGANIZATION ($, '', '');
#266 = PERSON_AND_ORGANIZATION (#264, #265);
#267 = APPROVAL_PERSON_ORGANIZATION (#266, #257, #263);
#268 = CC_DESIGN_APPROVAL (#257, (*));
#269 = DATE_TIME_ROLE ('creation_date');
#270 = CALENDAR_DATE (2024, 19, 9);
#271 = COORDINATED_UNIVERSAL_TIME_OFFSET (0, $, .AHEAD.);
#272 = LOCAL_TIME (12, 56, 9., #271);
#273 = DATE_AND_TIME (#270, #272);
#274 = CC_DESIGN_DATE_AND_TIME_ASSIGNMENT (#273, #269, (*));
#275 = PERSON_AND_ORGANIZATION_ROLE ('creator');
#276 = PERSON ('#276', '', $, $, $, $);
#277 = ORGANIZATION ($, '', '');
#278 = PERSON_AND_ORGANIZATION (#276, #277);
#279 = CC_DESIGN_PERSON_AND_ORGANIZATION_ASSIGNMENT (#278, #275, (*));
#280 = PRODUCT_DEFINITION ('', '', #204, #255);
#281 = PRODUCT_DEFINITION_SHAPE ('', '', #280);
#282 = SHAPE_DEFINITION_REPRESENTATION (#281, #193);
#283 = SHAPE_REPRESENTATION_RELATIONSHIP ('', '', #193, #284);
#284 = ADVANCED_BREP_SHAPE_REPRESENTATION ('', (#179), #192);
ENDSEC;
END-ISO-10303-21;
