ISO-10303-21;
HEADER;
FILE_DESCRIPTION (('STEP'), '1');
FILE_NAME ('C:\\Users\\JHayes\\OneDrive - MAFord Europe\\Files\\M\\M.A.FORD\\STEP FILES\\XFO\\XF0-AL3M06R95F.STP', '2024-09-17T09:38:40', ('Unknown'), ('M.A.FORD'), 'OneCNC-XR9 Mill 3D Expert', 'OneCNC-XR9 Mill 3D Expert', '');
FILE_SCHEMA (('CONFIG_CONTROL_DESIGN'));
ENDSEC;

DATA;
#1 = CARTESIAN_POINT ('', (-0.794815941255468, 0.978723404255319, 0.));
#2 = VERTEX_POINT ('', #1);
#3 = CARTESIAN_POINT ('', (0., 0., 0.));
#4 = VERTEX_POINT ('', #3);
#5 = CARTESIAN_POINT ('', (-0.794815941255468, 0.978723404255319, 0.));
#6 = CARTESIAN_POINT ('', (-0.586761705892446, 0.935105961099093, 0.));
#7 = CARTESIAN_POINT ('', (-0.28740426674108, 0.760366744726681, 0.));
#8 = CARTESIAN_POINT ('', (-0.045947085469121, 0.366727487171881, 0.));
#9 = CARTESIAN_POINT ('', (1.70474439036425E-17, 0.124696893830401, 0.));
#10 = CARTESIAN_POINT ('', (0., 0., 0.));
#11 = B_SPLINE_CURVE_WITH_KNOTS ('', 3, (#5, #6, #7, #8, #9, #10), .UNSPECIFIED., .F., .U., (4, 1, 1, 4), (0., 0.467495511666839, 0.725769033885489, 1.), .UNSPECIFIED.);
#12 = EDGE_CURVE ('', #2, #4, #11, .T.);
#13 = ORIENTED_EDGE ('', *, *, #12, .F.);
#14 = CARTESIAN_POINT ('', (-0.794815941255468, 0.978723404255319, 0.));
#15 = CARTESIAN_POINT ('', (-0.794815941255468, 0.978723404255319, 0.978723404255319));
#16 = CARTESIAN_POINT ('', (-0.794815941255468, 5.99295242135939E-17, 0.978723404255319));
#17 = CARTESIAN_POINT ('', (-0.794815941255468, -0.978723404255319, 0.978723404255319));
#18 = CARTESIAN_POINT ('', (-0.794815941255468, -0.978723404255319, 1.19859048427188E-16));
#19 = CARTESIAN_POINT ('', (-0.794815941255468, -0.978723404255319, -0.978723404255319));
#20 = CARTESIAN_POINT ('', (-0.794815941255468, -1.79788572640782E-16, -0.978723404255319));
#21 = CARTESIAN_POINT ('', (-0.794815941255468, 0.978723404255319, -0.978723404255319));
#22 = CARTESIAN_POINT ('', (-0.794815941255468, 0.978723404255319, 0.));
#23 = (
   BOUNDED_CURVE ()
   B_SPLINE_CURVE (2, (#14, #15, #16, #17, #18, #19, #20, #21, #22), .UNSPECIFIED., .T., .U.)
   B_SPLINE_CURVE_WITH_KNOTS ((3, 2, 2, 2, 3), (0., 0.25, 0.5, 0.75, 1.), .UNSPECIFIED.)
   CURVE ()
   GEOMETRIC_REPRESENTATION_ITEM ()
   RATIONAL_B_SPLINE_CURVE ((1., 0.707106781186548, 1., 0.707106781186548, 1., 0.707106781186548, 1., 0.707106781186548, 1.))
   REPRESENTATION_ITEM ('')
);
#24 = EDGE_CURVE ('', #2, #2, #23, .T.);
#25 = ORIENTED_EDGE ('', *, *, #24, .T.);
#26 = ORIENTED_EDGE ('', *, *, #12, .T.);
#27 = EDGE_LOOP ('', (#13, #25, #26));
#28 = FACE_OUTER_BOUND ('', #27, .T.);
#29 = CARTESIAN_POINT ('', (-0.794815941255468, 0.978723404255319, 0.));
#30 = CARTESIAN_POINT ('', (-0.586761705892446, 0.935105961099093, 0.));
#31 = CARTESIAN_POINT ('', (-0.28740426674108, 0.760366744726681, 0.));
#32 = CARTESIAN_POINT ('', (-0.045947085469121, 0.366727487171881, 0.));
#33 = CARTESIAN_POINT ('', (1.70474439036425E-17, 0.124696893830401, 0.));
#34 = CARTESIAN_POINT ('', (0., 0., 0.));
#35 = CARTESIAN_POINT ('', (-0.794815941255468, 0.978723404255319, 0.978723404255319));
#36 = CARTESIAN_POINT ('', (-0.586761705892446, 0.935105961099093, 0.935105961099093));
#37 = CARTESIAN_POINT ('', (-0.28740426674108, 0.760366744726681, 0.760366744726681));
#38 = CARTESIAN_POINT ('', (-0.045947085469121, 0.366727487171881, 0.366727487171881));
#39 = CARTESIAN_POINT ('', (1.70474439036425E-17, 0.124696893830401, 0.124696893830401));
#40 = CARTESIAN_POINT ('', (0., 0., 0.));
#41 = CARTESIAN_POINT ('', (-0.794815941255468, 5.99295242135939E-17, 0.978723404255319));
#42 = CARTESIAN_POINT ('', (-0.586761705892446, 5.72587261061807E-17, 0.935105961099093));
#43 = CARTESIAN_POINT ('', (-0.28740426674108, 4.65590350053811E-17, 0.760366744726681));
#44 = CARTESIAN_POINT ('', (-0.045947085469121, 2.24555821662198E-17, 0.366727487171881));
#45 = CARTESIAN_POINT ('', (1.70474439036425E-17, 7.63548259465089E-18, 0.124696893830401));
#46 = CARTESIAN_POINT ('', (0., 0., 0.));
#47 = CARTESIAN_POINT ('', (-0.794815941255468, -0.978723404255319, 0.978723404255319));
#48 = CARTESIAN_POINT ('', (-0.586761705892446, -0.935105961099093, 0.935105961099093));
#49 = CARTESIAN_POINT ('', (-0.28740426674108, -0.760366744726681, 0.760366744726681));
#50 = CARTESIAN_POINT ('', (-0.045947085469121, -0.366727487171881, 0.366727487171881));
#51 = CARTESIAN_POINT ('', (1.70474439036425E-17, -0.124696893830401, 0.124696893830401));
#52 = CARTESIAN_POINT ('', (0., 0., 0.));
#53 = CARTESIAN_POINT ('', (-0.794815941255468, -0.978723404255319, 1.19859048427188E-16));
#54 = CARTESIAN_POINT ('', (-0.586761705892446, -0.935105961099093, 1.14517452212361E-16));
#55 = CARTESIAN_POINT ('', (-0.28740426674108, -0.760366744726681, 9.31180700107623E-17));
#56 = CARTESIAN_POINT ('', (-0.045947085469121, -0.366727487171881, 4.49111643324396E-17));
#57 = CARTESIAN_POINT ('', (1.70474439036425E-17, -0.124696893830401, 1.52709651893018E-17));
#58 = CARTESIAN_POINT ('', (0., 0., 0.));
#59 = CARTESIAN_POINT ('', (-0.794815941255468, -0.978723404255319, -0.978723404255319));
#60 = CARTESIAN_POINT ('', (-0.586761705892446, -0.935105961099093, -0.935105961099093));
#61 = CARTESIAN_POINT ('', (-0.28740426674108, -0.760366744726681, -0.760366744726681));
#62 = CARTESIAN_POINT ('', (-0.045947085469121, -0.366727487171881, -0.366727487171881));
#63 = CARTESIAN_POINT ('', (1.70474439036425E-17, -0.124696893830401, -0.124696893830401));
#64 = CARTESIAN_POINT ('', (0., 0., 0.));
#65 = CARTESIAN_POINT ('', (-0.794815941255468, -1.79788572640782E-16, -0.978723404255319));
#66 = CARTESIAN_POINT ('', (-0.586761705892446, -1.71776178318542E-16, -0.935105961099093));
#67 = CARTESIAN_POINT ('', (-0.28740426674108, -1.39677105016143E-16, -0.760366744726681));
#68 = CARTESIAN_POINT ('', (-0.045947085469121, -6.73667464986593E-17, -0.366727487171881));
#69 = CARTESIAN_POINT ('', (1.70474439036425E-17, -2.29064477839527E-17, -0.124696893830401));
#70 = CARTESIAN_POINT ('', (0., 0., 0.));
#71 = CARTESIAN_POINT ('', (-0.794815941255468, 0.978723404255319, -0.978723404255319));
#72 = CARTESIAN_POINT ('', (-0.586761705892446, 0.935105961099093, -0.935105961099093));
#73 = CARTESIAN_POINT ('', (-0.28740426674108, 0.760366744726681, -0.760366744726681));
#74 = CARTESIAN_POINT ('', (-0.045947085469121, 0.366727487171881, -0.366727487171881));
#75 = CARTESIAN_POINT ('', (1.70474439036425E-17, 0.124696893830401, -0.124696893830401));
#76 = CARTESIAN_POINT ('', (0., 0., 0.));
#77 = CARTESIAN_POINT ('', (-0.794815941255468, 0.978723404255319, 0.));
#78 = CARTESIAN_POINT ('', (-0.586761705892446, 0.935105961099093, 0.));
#79 = CARTESIAN_POINT ('', (-0.28740426674108, 0.760366744726681, 0.));
#80 = CARTESIAN_POINT ('', (-0.045947085469121, 0.366727487171881, 0.));
#81 = CARTESIAN_POINT ('', (1.70474439036425E-17, 0.124696893830401, 0.));
#82 = CARTESIAN_POINT ('', (0., 0., 0.));
#83 = (
   BOUNDED_SURFACE ()
   B_SPLINE_SURFACE (2, 3, ((#29, #30, #31, #32, #33, #34), (#35, #36, #37, #38, #39, #40), (#41, #42, #43, #44, #45, #46), (#47, #48, #49, #50, #51, #52), (#53, #54, #55, #56, #57, #58), (#59, #60, #61, #62, #63, #64), (#65, #66, #67, #68, #69, #70), (#71, #72, #73, #74, #75, #76), (#77, #78, #79, #80, #81, #82)), .UNSPECIFIED., .T., .F., .U.)
   B_SPLINE_SURFACE_WITH_KNOTS ((3, 2, 2, 2, 3), (4, 1, 1, 4), (0., 0.25, 0.5, 0.75, 1.), (0., 0.467495511666839, 0.725769033885489, 1.), .UNSPECIFIED.)
   GEOMETRIC_REPRESENTATION_ITEM ()
   RATIONAL_B_SPLINE_SURFACE (((1., 1., 1., 1., 1., 1.), (0.707106781186548, 0.707106781186548, 0.707106781186548, 0.707106781186548, 0.707106781186548, 0.707106781186548), (1., 1., 1., 1., 1., 1.), (0.707106781186548, 0.707106781186548, 0.707106781186548, 0.707106781186548, 0.707106781186548, 0.707106781186548), (1., 1., 1., 1., 1., 1.), (0.707106781186548, 0.707106781186548, 0.707106781186548, 0.707106781186548, 0.707106781186548, 0.707106781186548), (1., 1., 1., 1., 1., 1.), (0.707106781186548, 0.707106781186548, 0.707106781186548, 0.707106781186548, 0.707106781186548, 0.707106781186548), (1., 1., 1., 1., 1., 1.)))
   REPRESENTATION_ITEM ('')
   SURFACE ()
);
#84 = ADVANCED_FACE ('', (#28), #83, .T.);
#85 = CARTESIAN_POINT ('', (-20.2873015219859, 3., 0.));
#86 = VERTEX_POINT ('', #85);
#87 = CARTESIAN_POINT ('', (-20.2873015219859, 3., 0.));
#88 = CARTESIAN_POINT ('', (-13.7433290087261, 2.99999999999999, 0.));
#89 = CARTESIAN_POINT ('', (-7.19955499678641, 2.32144224483863, 0.));
#90 = CARTESIAN_POINT ('', (-0.794815941255465, 0.978723404255319, 0.));
#91 = B_SPLINE_CURVE_WITH_KNOTS ('', 3, (#87, #88, #89, #90), .UNSPECIFIED., .F., .U., (4, 4), (0., 1.), .UNSPECIFIED.);
#92 = EDGE_CURVE ('', #86, #2, #91, .T.);
#93 = ORIENTED_EDGE ('', *, *, #92, .F.);
#94 = CARTESIAN_POINT ('', (-20.2873015219859, 3., 0.));
#95 = CARTESIAN_POINT ('', (-20.2873015219859, 3., 3.));
#96 = CARTESIAN_POINT ('', (-20.2873015219859, 1.83697019872103E-16, 3.));
#97 = CARTESIAN_POINT ('', (-20.2873015219859, -3., 3.));
#98 = CARTESIAN_POINT ('', (-20.2873015219859, -3., 3.67394039744206E-16));
#99 = CARTESIAN_POINT ('', (-20.2873015219859, -3., -3.));
#100 = CARTESIAN_POINT ('', (-20.2873015219859, -5.51091059616309E-16, -3.));
#101 = CARTESIAN_POINT ('', (-20.2873015219859, 3., -3.));
#102 = CARTESIAN_POINT ('', (-20.2873015219859, 3., 0.));
#103 = (
   BOUNDED_CURVE ()
   B_SPLINE_CURVE (2, (#94, #95, #96, #97, #98, #99, #100, #101, #102), .UNSPECIFIED., .T., .U.)
   B_SPLINE_CURVE_WITH_KNOTS ((3, 2, 2, 2, 3), (0., 0.25, 0.5, 0.75, 1.), .UNSPECIFIED.)
   CURVE ()
   GEOMETRIC_REPRESENTATION_ITEM ()
   RATIONAL_B_SPLINE_CURVE ((1., 0.707106781186548, 1., 0.707106781186548, 1., 0.707106781186548, 1., 0.707106781186548, 1.))
   REPRESENTATION_ITEM ('')
);
#104 = EDGE_CURVE ('', #86, #86, #103, .T.);
#105 = ORIENTED_EDGE ('', *, *, #104, .T.);
#106 = ORIENTED_EDGE ('', *, *, #92, .T.);
#107 = ORIENTED_EDGE ('', *, *, #24, .F.);
#108 = EDGE_LOOP ('', (#93, #105, #106, #107));
#109 = FACE_OUTER_BOUND ('', #108, .T.);
#110 = CARTESIAN_POINT ('', (-20.2873015219859, 3., 0.));
#111 = CARTESIAN_POINT ('', (-13.7433290087261, 2.99999999999999, 0.));
#112 = CARTESIAN_POINT ('', (-7.19955499678641, 2.32144224483863, 0.));
#113 = CARTESIAN_POINT ('', (-0.794815941255465, 0.978723404255319, 0.));
#114 = CARTESIAN_POINT ('', (-20.2873015219859, 3., 3.));
#115 = CARTESIAN_POINT ('', (-13.7433290087261, 2.99999999999999, 2.99999999999999));
#116 = CARTESIAN_POINT ('', (-7.19955499678641, 2.32144224483863, 2.32144224483863));
#117 = CARTESIAN_POINT ('', (-0.794815941255465, 0.97872340425532, 0.978723404255319));
#118 = CARTESIAN_POINT ('', (-20.2873015219859, 1.83697019872103E-16, 3.));
#119 = CARTESIAN_POINT ('', (-13.7433290087261, 1.83697019872102E-16, 2.99999999999999));
#120 = CARTESIAN_POINT ('', (-7.19955499678641, 1.42147340727354E-16, 2.32144224483863));
#121 = CARTESIAN_POINT ('', (-0.794815941255465, 5.99295242135939E-17, 0.978723404255319));
#122 = CARTESIAN_POINT ('', (-20.2873015219859, -3., 3.));
#123 = CARTESIAN_POINT ('', (-13.7433290087261, -2.99999999999999, 2.99999999999999));
#124 = CARTESIAN_POINT ('', (-7.19955499678641, -2.32144224483863, 2.32144224483863));
#125 = CARTESIAN_POINT ('', (-0.794815941255465, -0.978723404255319, 0.97872340425532));
#126 = CARTESIAN_POINT ('', (-20.2873015219859, -3., 3.67394039744206E-16));
#127 = CARTESIAN_POINT ('', (-13.7433290087261, -2.99999999999999, 3.67394039744204E-16));
#128 = CARTESIAN_POINT ('', (-7.19955499678641, -2.32144224483863, 2.84294681454708E-16));
#129 = CARTESIAN_POINT ('', (-0.794815941255465, -0.978723404255319, 1.19859048427188E-16));
#130 = CARTESIAN_POINT ('', (-20.2873015219859, -3., -3.));
#131 = CARTESIAN_POINT ('', (-13.7433290087261, -2.99999999999999, -2.99999999999999));
#132 = CARTESIAN_POINT ('', (-7.19955499678641, -2.32144224483863, -2.32144224483863));
#133 = CARTESIAN_POINT ('', (-0.794815941255465, -0.97872340425532, -0.978723404255319));
#134 = CARTESIAN_POINT ('', (-20.2873015219859, -5.51091059616309E-16, -3.));
#135 = CARTESIAN_POINT ('', (-13.7433290087261, -5.51091059616307E-16, -2.99999999999999));
#136 = CARTESIAN_POINT ('', (-7.19955499678641, -4.26442022182062E-16, -2.32144224483863));
#137 = CARTESIAN_POINT ('', (-0.794815941255465, -1.79788572640782E-16, -0.978723404255319));
#138 = CARTESIAN_POINT ('', (-20.2873015219859, 3., -3.));
#139 = CARTESIAN_POINT ('', (-13.7433290087261, 2.99999999999999, -2.99999999999999));
#140 = CARTESIAN_POINT ('', (-7.19955499678641, 2.32144224483863, -2.32144224483863));
#141 = CARTESIAN_POINT ('', (-0.794815941255465, 0.978723404255319, -0.97872340425532));
#142 = CARTESIAN_POINT ('', (-20.2873015219859, 3., 0.));
#143 = CARTESIAN_POINT ('', (-13.7433290087261, 2.99999999999999, 0.));
#144 = CARTESIAN_POINT ('', (-7.19955499678641, 2.32144224483863, 0.));
#145 = CARTESIAN_POINT ('', (-0.794815941255465, 0.978723404255319, 0.));
#146 = (
   BOUNDED_SURFACE ()
   B_SPLINE_SURFACE (2, 3, ((#110, #111, #112, #113), (#114, #115, #116, #117), (#118, #119, #120, #121), (#122, #123, #124, #125), (#126, #127, #128, #129), (#130, #131, #132, #133), (#134, #135, #136, #137), (#138, #139, #140, #141), (#142, #143, #144, #145)), .UNSPECIFIED., .T., .F., .U.)
   B_SPLINE_SURFACE_WITH_KNOTS ((3, 2, 2, 2, 3), (4, 4), (0., 0.25, 0.5, 0.75, 1.), (0., 1.), .UNSPECIFIED.)
   GEOMETRIC_REPRESENTATION_ITEM ()
   RATIONAL_B_SPLINE_SURFACE (((1., 1., 1., 1.), (0.707106781186548, 0.707106781186548, 0.707106781186548, 0.707106781186548), (1., 1., 1., 1.), (0.707106781186548, 0.707106781186548, 0.707106781186548, 0.707106781186548), (1., 1., 1., 1.), (0.707106781186548, 0.707106781186548, 0.707106781186548, 0.707106781186548), (1., 1., 1., 1.), (0.707106781186548, 0.707106781186548, 0.707106781186548, 0.707106781186548), (1., 1., 1., 1.)))
   REPRESENTATION_ITEM ('')
   SURFACE ()
);
#147 = ADVANCED_FACE ('', (#109), #146, .T.);
#148 = CARTESIAN_POINT ('', (-64., 3., 0.));
#149 = VERTEX_POINT ('', #148);
#150 = CARTESIAN_POINT ('', (-64., 3., 0.));
#151 = CARTESIAN_POINT ('', (-49.4291005073286, 3., 0.));
#152 = CARTESIAN_POINT ('', (-34.8582010146573, 3., 0.));
#153 = CARTESIAN_POINT ('', (-20.2873015219859, 3., 0.));
#154 = B_SPLINE_CURVE_WITH_KNOTS ('', 3, (#150, #151, #152, #153), .UNSPECIFIED., .F., .U., (4, 4), (0., 1.), .UNSPECIFIED.);
#155 = EDGE_CURVE ('', #149, #86, #154, .T.);
#156 = ORIENTED_EDGE ('', *, *, #155, .F.);
#157 = CARTESIAN_POINT ('', (-64., 3., 0.));
#158 = CARTESIAN_POINT ('', (-64., 3., 3.));
#159 = CARTESIAN_POINT ('', (-64., 1.83697019872103E-16, 3.));
#160 = CARTESIAN_POINT ('', (-64., -3., 3.));
#161 = CARTESIAN_POINT ('', (-64., -3., 3.67394039744206E-16));
#162 = CARTESIAN_POINT ('', (-64., -3., -3.));
#163 = CARTESIAN_POINT ('', (-64., -5.51091059616309E-16, -3.));
#164 = CARTESIAN_POINT ('', (-64., 3., -3.));
#165 = CARTESIAN_POINT ('', (-64., 3., 0.));
#166 = (
   BOUNDED_CURVE ()
   B_SPLINE_CURVE (2, (#157, #158, #159, #160, #161, #162, #163, #164, #165), .UNSPECIFIED., .T., .U.)
   B_SPLINE_CURVE_WITH_KNOTS ((3, 2, 2, 2, 3), (0., 0.25, 0.5, 0.75, 1.), .UNSPECIFIED.)
   CURVE ()
   GEOMETRIC_REPRESENTATION_ITEM ()
   RATIONAL_B_SPLINE_CURVE ((1., 0.707106781186548, 1., 0.707106781186548, 1., 0.707106781186548, 1., 0.707106781186548, 1.))
   REPRESENTATION_ITEM ('')
);
#167 = EDGE_CURVE ('', #149, #149, #166, .T.);
#168 = ORIENTED_EDGE ('', *, *, #167, .T.);
#169 = ORIENTED_EDGE ('', *, *, #155, .T.);
#170 = ORIENTED_EDGE ('', *, *, #104, .F.);
#171 = EDGE_LOOP ('', (#156, #168, #169, #170));
#172 = FACE_OUTER_BOUND ('', #171, .T.);
#173 = CARTESIAN_POINT ('', (-64., 3., 0.));
#174 = CARTESIAN_POINT ('', (-49.4291005073286, 3., 0.));
#175 = CARTESIAN_POINT ('', (-34.8582010146573, 3., 0.));
#176 = CARTESIAN_POINT ('', (-20.2873015219859, 3., 0.));
#177 = CARTESIAN_POINT ('', (-64., 3., 3.));
#178 = CARTESIAN_POINT ('', (-49.4291005073286, 3., 3.));
#179 = CARTESIAN_POINT ('', (-34.8582010146573, 3., 3.));
#180 = CARTESIAN_POINT ('', (-20.2873015219859, 3., 3.));
#181 = CARTESIAN_POINT ('', (-64., 1.83697019872103E-16, 3.));
#182 = CARTESIAN_POINT ('', (-49.4291005073286, 1.83697019872103E-16, 3.));
#183 = CARTESIAN_POINT ('', (-34.8582010146573, 1.83697019872103E-16, 3.));
#184 = CARTESIAN_POINT ('', (-20.2873015219859, 1.83697019872103E-16, 3.));
#185 = CARTESIAN_POINT ('', (-64., -3., 3.));
#186 = CARTESIAN_POINT ('', (-49.4291005073286, -3., 3.));
#187 = CARTESIAN_POINT ('', (-34.8582010146573, -3., 3.));
#188 = CARTESIAN_POINT ('', (-20.2873015219859, -3., 3.));
#189 = CARTESIAN_POINT ('', (-64., -3., 3.67394039744206E-16));
#190 = CARTESIAN_POINT ('', (-49.4291005073286, -3., 3.67394039744206E-16));
#191 = CARTESIAN_POINT ('', (-34.8582010146573, -3., 3.67394039744206E-16));
#192 = CARTESIAN_POINT ('', (-20.2873015219859, -3., 3.67394039744206E-16));
#193 = CARTESIAN_POINT ('', (-64., -3., -3.));
#194 = CARTESIAN_POINT ('', (-49.4291005073286, -3., -3.));
#195 = CARTESIAN_POINT ('', (-34.8582010146573, -3., -3.));
#196 = CARTESIAN_POINT ('', (-20.2873015219859, -3., -3.));
#197 = CARTESIAN_POINT ('', (-64., -5.51091059616309E-16, -3.));
#198 = CARTESIAN_POINT ('', (-49.4291005073286, -5.51091059616309E-16, -3.));
#199 = CARTESIAN_POINT ('', (-34.8582010146573, -5.51091059616309E-16, -3.));
#200 = CARTESIAN_POINT ('', (-20.2873015219859, -5.51091059616309E-16, -3.));
#201 = CARTESIAN_POINT ('', (-64., 3., -3.));
#202 = CARTESIAN_POINT ('', (-49.4291005073286, 3., -3.));
#203 = CARTESIAN_POINT ('', (-34.8582010146573, 3., -3.));
#204 = CARTESIAN_POINT ('', (-20.2873015219859, 3., -3.));
#205 = CARTESIAN_POINT ('', (-64., 3., 0.));
#206 = CARTESIAN_POINT ('', (-49.4291005073286, 3., 0.));
#207 = CARTESIAN_POINT ('', (-34.8582010146573, 3., 0.));
#208 = CARTESIAN_POINT ('', (-20.2873015219859, 3., 0.));
#209 = (
   BOUNDED_SURFACE ()
   B_SPLINE_SURFACE (2, 3, ((#173, #174, #175, #176), (#177, #178, #179, #180), (#181, #182, #183, #184), (#185, #186, #187, #188), (#189, #190, #191, #192), (#193, #194, #195, #196), (#197, #198, #199, #200), (#201, #202, #203, #204), (#205, #206, #207, #208)), .UNSPECIFIED., .T., .F., .U.)
   B_SPLINE_SURFACE_WITH_KNOTS ((3, 2, 2, 2, 3), (4, 4), (0., 0.25, 0.5, 0.75, 1.), (0., 1.), .UNSPECIFIED.)
   GEOMETRIC_REPRESENTATION_ITEM ()
   RATIONAL_B_SPLINE_SURFACE (((1., 1., 1., 1.), (0.707106781186548, 0.707106781186548, 0.707106781186548, 0.707106781186548), (1., 1., 1., 1.), (0.707106781186548, 0.707106781186548, 0.707106781186548, 0.707106781186548), (1., 1., 1., 1.), (0.707106781186548, 0.707106781186548, 0.707106781186548, 0.707106781186548), (1., 1., 1., 1.), (0.707106781186548, 0.707106781186548, 0.707106781186548, 0.707106781186548), (1., 1., 1., 1.)))
   REPRESENTATION_ITEM ('')
   SURFACE ()
);
#210 = ADVANCED_FACE ('', (#172), #209, .T.);
#211 = ORIENTED_EDGE ('', *, *, #167, .F.);
#212 = EDGE_LOOP ('', (#211));
#213 = FACE_OUTER_BOUND ('', #212, .T.);
#214 = CARTESIAN_POINT ('', (-64., -3.3, -3.3));
#215 = CARTESIAN_POINT ('', (-64., 3.3, -3.3));
#216 = CARTESIAN_POINT ('', (-64., -3.3, 3.3));
#217 = CARTESIAN_POINT ('', (-64., 3.3, 3.3));
#218 = B_SPLINE_SURFACE_WITH_KNOTS ('', 1, 1, ((#214, #215), (#216, #217)), .UNSPECIFIED., .F., .F., .U., (2, 2), (2, 2), (0., 1.), (0., 1.), .UNSPECIFIED.);
#219 = ADVANCED_FACE ('', (#213), #218, .T.);
#220 = CLOSED_SHELL ('', (#84, #147, #210, #219));
#221 = MANIFOLD_SOLID_BREP ('', #220);
#222 = COLOUR_RGB ('', 0.780392156862745, 0.780392156862745, 0.780392156862745);
#223 = FILL_AREA_STYLE_COLOUR ('', #222);
#224 = FILL_AREA_STYLE ('', (#223));
#225 = SURFACE_STYLE_FILL_AREA (#224);
#226 = SURFACE_SIDE_STYLE ('', (#225));
#227 = SURFACE_STYLE_USAGE (.POSITIVE., #226);
#228 = PRESENTATION_STYLE_ASSIGNMENT ((#227));
#229 = STYLED_ITEM ('', (#228), #221);
#230 = (
   LENGTH_UNIT ()
   NAMED_UNIT (*)
   SI_UNIT (.MILLI., .METRE.)
);
#231 = (
   NAMED_UNIT (*)
   SI_UNIT ($, .STERADIAN.)
   SOLID_ANGLE_UNIT ()
);
#232 = (
   NAMED_UNIT (*)
   PLANE_ANGLE_UNIT ()
   SI_UNIT ($, .RADIAN.)
);
#233 = UNCERTAINTY_MEASURE_WITH_UNIT (LENGTH_MEASURE(0.001), #230, 'DISTANCE_ACCURACY_VALUE', '');
#234 = (
   GEOMETRIC_REPRESENTATION_CONTEXT (3)
   GLOBAL_UNCERTAINTY_ASSIGNED_CONTEXT ((#233))
   GLOBAL_UNIT_ASSIGNED_CONTEXT ((#230, #231, #232))
   REPRESENTATION_CONTEXT ('', '3D')
);
#235 = SHAPE_REPRESENTATION ('', (), #234);
#236 = APPLICATION_CONTEXT ('configuration controlled 3D designs of mechanical parts and assemblies');
#237 = APPLICATION_PROTOCOL_DEFINITION ('International Standard', 'config_control_design', 1997, #236);
#238 = MECHANICAL_CONTEXT ('', #236, 'mechanical');
#239 = PRODUCT ('', '', '', (#238));
#240 = PERSON_AND_ORGANIZATION_ROLE ('design_owner');
#241 = PERSON ('#241', '', $, $, $, $);
#242 = ORGANIZATION ($, '', '');
#243 = PERSON_AND_ORGANIZATION (#241, #242);
#244 = CC_DESIGN_PERSON_AND_ORGANIZATION_ASSIGNMENT (#243, #240, (#239));
#245 = PRODUCT_RELATED_PRODUCT_CATEGORY ('detail', $, (#239));
#246 = PRODUCT_DEFINITION_FORMATION_WITH_SPECIFIED_SOURCE ('', '', #239, .NOT_KNOWN.);
#247 = APPROVAL_STATUS ('approved');
#248 = APPROVAL (#247, '');
#249 = CALENDAR_DATE (2024, 17, 9);
#250 = COORDINATED_UNIVERSAL_TIME_OFFSET (0, $, .AHEAD.);
#251 = LOCAL_TIME (9, 38, 40., #250);
#252 = DATE_AND_TIME (#249, #251);
#253 = APPROVAL_DATE_TIME (#252, #248);
#254 = APPROVAL_ROLE ('');
#255 = PERSON ('#255', '', $, $, $, $);
#256 = ORGANIZATION ($, '', '');
#257 = PERSON_AND_ORGANIZATION (#255, #256);
#258 = APPROVAL_PERSON_ORGANIZATION (#257, #248, #254);
#259 = CC_DESIGN_APPROVAL (#248, (#246));
#260 = PERSON_AND_ORGANIZATION_ROLE ('creator');
#261 = PERSON ('#261', '', $, $, $, $);
#262 = ORGANIZATION ($, '', '');
#263 = PERSON_AND_ORGANIZATION (#261, #262);
#264 = CC_DESIGN_PERSON_AND_ORGANIZATION_ASSIGNMENT (#263, #260, (#246));
#265 = PERSON_AND_ORGANIZATION_ROLE ('part_supplier');
#266 = PERSON ('#266', '', $, $, $, $);
#267 = ORGANIZATION ($, '', '');
#268 = PERSON_AND_ORGANIZATION (#266, #267);
#269 = CC_DESIGN_PERSON_AND_ORGANIZATION_ASSIGNMENT (#268, #265, (#246));
#270 = SECURITY_CLASSIFICATION_LEVEL ('unclassified');
#271 = SECURITY_CLASSIFICATION ('', '', #270);
#272 = APPROVAL_STATUS ('approved');
#273 = APPROVAL (#272, '');
#274 = CALENDAR_DATE (2024, 17, 9);
#275 = COORDINATED_UNIVERSAL_TIME_OFFSET (0, $, .AHEAD.);
#276 = LOCAL_TIME (9, 38, 40., #275);
#277 = DATE_AND_TIME (#274, #276);
#278 = APPROVAL_DATE_TIME (#277, #273);
#279 = APPROVAL_ROLE ('');
#280 = PERSON ('#280', '', $, $, $, $);
#281 = ORGANIZATION ($, '', '');
#282 = PERSON_AND_ORGANIZATION (#280, #281);
#283 = APPROVAL_PERSON_ORGANIZATION (#282, #273, #279);
#284 = CC_DESIGN_APPROVAL (#273, (#271));
#285 = DATE_TIME_ROLE ('classification_date');
#286 = CALENDAR_DATE (2024, 17, 9);
#287 = COORDINATED_UNIVERSAL_TIME_OFFSET (0, $, .AHEAD.);
#288 = LOCAL_TIME (9, 38, 40., #287);
#289 = DATE_AND_TIME (#286, #288);
#290 = CC_DESIGN_DATE_AND_TIME_ASSIGNMENT (#289, #285, (#271));
#291 = PERSON_AND_ORGANIZATION_ROLE ('classification_officer');
#292 = PERSON ('#292', '', $, $, $, $);
#293 = ORGANIZATION ($, '', '');
#294 = PERSON_AND_ORGANIZATION (#292, #293);
#295 = CC_DESIGN_PERSON_AND_ORGANIZATION_ASSIGNMENT (#294, #291, (#271));
#296 = CC_DESIGN_SECURITY_CLASSIFICATION (#271, (#246));
#297 = DESIGN_CONTEXT ('', #236, 'design');
#298 = APPROVAL_STATUS ('approved');
#299 = APPROVAL (#298, '');
#300 = CALENDAR_DATE (2024, 17, 9);
#301 = COORDINATED_UNIVERSAL_TIME_OFFSET (0, $, .AHEAD.);
#302 = LOCAL_TIME (9, 38, 40., #301);
#303 = DATE_AND_TIME (#300, #302);
#304 = APPROVAL_DATE_TIME (#303, #299);
#305 = APPROVAL_ROLE ('');
#306 = PERSON ('#306', '', $, $, $, $);
#307 = ORGANIZATION ($, '', '');
#308 = PERSON_AND_ORGANIZATION (#306, #307);
#309 = APPROVAL_PERSON_ORGANIZATION (#308, #299, #305);
#310 = CC_DESIGN_APPROVAL (#299, (*));
#311 = DATE_TIME_ROLE ('creation_date');
#312 = CALENDAR_DATE (2024, 17, 9);
#313 = COORDINATED_UNIVERSAL_TIME_OFFSET (0, $, .AHEAD.);
#314 = LOCAL_TIME (9, 38, 40., #313);
#315 = DATE_AND_TIME (#312, #314);
#316 = CC_DESIGN_DATE_AND_TIME_ASSIGNMENT (#315, #311, (*));
#317 = PERSON_AND_ORGANIZATION_ROLE ('creator');
#318 = PERSON ('#318', '', $, $, $, $);
#319 = ORGANIZATION ($, '', '');
#320 = PERSON_AND_ORGANIZATION (#318, #319);
#321 = CC_DESIGN_PERSON_AND_ORGANIZATION_ASSIGNMENT (#320, #317, (*));
#322 = PRODUCT_DEFINITION ('', '', #246, #297);
#323 = PRODUCT_DEFINITION_SHAPE ('', '', #322);
#324 = SHAPE_DEFINITION_REPRESENTATION (#323, #235);
#325 = SHAPE_REPRESENTATION_RELATIONSHIP ('', '', #235, #326);
#326 = ADVANCED_BREP_SHAPE_REPRESENTATION ('', (#221), #234);
ENDSEC;
END-ISO-10303-21;
