ISO-10303-21;
HEADER;
FILE_DESCRIPTION (('STEP'), '1');
FILE_NAME ('C:\\Users\\JHayes\\OneDrive - MAFord Europe\\Files\\M\\M.A.FORD\\STEP FILES\\XFO\\XFO-4M08R90AQ.STP', '2024-09-17T09:22:19', ('Unknown'), ('M.A.FORD'), 'OneCNC-XR9 Mill 3D Expert', 'OneCNC-XR9 Mill 3D Expert', '');
FILE_SCHEMA (('CONFIG_CONTROL_DESIGN'));
ENDSEC;

DATA;
#1 = CARTESIAN_POINT ('', (-0.742551927249672, 0.966292134831461, 0.));
#2 = VERTEX_POINT ('', #1);
#3 = CARTESIAN_POINT ('', (0., 0., 0.));
#4 = VERTEX_POINT ('', #3);
#5 = CARTESIAN_POINT ('', (-0.742551927249672, 0.966292134831461, 0.));
#6 = CARTESIAN_POINT ('', (-0.626568286330691, 0.9353907503031, 0.));
#7 = CARTESIAN_POINT ('', (-0.412860355982437, 0.834539351535786, 0.));
#8 = CARTESIAN_POINT ('', (-0.100780366075989, 0.520060673938383, 0.));
#9 = CARTESIAN_POINT ('', (1.47543867652018E-17, 0.204248706362863, 0.));
#10 = CARTESIAN_POINT ('', (0., 0., 0.));
#11 = B_SPLINE_CURVE_WITH_KNOTS ('', 3, (#5, #6, #7, #8, #9, #10), .UNSPECIFIED., .F., .U., (4, 1, 1, 4), (0., 0.274789642641687, 0.532403361306421, 1.), .UNSPECIFIED.);
#12 = EDGE_CURVE ('', #2, #4, #11, .T.);
#13 = ORIENTED_EDGE ('', *, *, #12, .F.);
#14 = CARTESIAN_POINT ('', (-0.742551927249672, 0.966292134831461, 0.));
#15 = CARTESIAN_POINT ('', (-0.742551927249672, 0.966292134831461, 0.966292134831461));
#16 = CARTESIAN_POINT ('', (-0.742551927249672, 5.91683284981306E-17, 0.966292134831461));
#17 = CARTESIAN_POINT ('', (-0.742551927249672, -0.966292134831461, 0.966292134831461));
#18 = CARTESIAN_POINT ('', (-0.742551927249672, -0.966292134831461, 1.18336656996261E-16));
#19 = CARTESIAN_POINT ('', (-0.742551927249672, -0.966292134831461, -0.96629213483146));
#20 = CARTESIAN_POINT ('', (-0.742551927249672, -1.77504985494392E-16, -0.966292134831461));
#21 = CARTESIAN_POINT ('', (-0.742551927249672, 0.96629213483146, -0.966292134831461));
#22 = CARTESIAN_POINT ('', (-0.742551927249672, 0.966292134831461, 0.));
#23 = (
   BOUNDED_CURVE ()
   B_SPLINE_CURVE (2, (#14, #15, #16, #17, #18, #19, #20, #21, #22), .UNSPECIFIED., .T., .U.)
   B_SPLINE_CURVE_WITH_KNOTS ((3, 2, 2, 2, 3), (0., 0.25, 0.5, 0.75, 1.), .UNSPECIFIED.)
   CURVE ()
   GEOMETRIC_REPRESENTATION_ITEM ()
   RATIONAL_B_SPLINE_CURVE ((1., 0.707106781186548, 1., 0.707106781186548, 1., 0.707106781186548, 1., 0.707106781186548, 1.))
   REPRESENTATION_ITEM ('')
);
#24 = EDGE_CURVE ('', #2, #2, #23, .T.);
#25 = ORIENTED_EDGE ('', *, *, #24, .T.);
#26 = ORIENTED_EDGE ('', *, *, #12, .T.);
#27 = EDGE_LOOP ('', (#13, #25, #26));
#28 = FACE_OUTER_BOUND ('', #27, .T.);
#29 = CARTESIAN_POINT ('', (-0.742551927249672, 0.966292134831461, 0.));
#30 = CARTESIAN_POINT ('', (-0.626568286330691, 0.9353907503031, 0.));
#31 = CARTESIAN_POINT ('', (-0.412860355982437, 0.834539351535786, 0.));
#32 = CARTESIAN_POINT ('', (-0.100780366075989, 0.520060673938383, 0.));
#33 = CARTESIAN_POINT ('', (1.47543867652018E-17, 0.204248706362863, 0.));
#34 = CARTESIAN_POINT ('', (0., 0., 0.));
#35 = CARTESIAN_POINT ('', (-0.742551927249672, 0.966292134831461, 0.966292134831461));
#36 = CARTESIAN_POINT ('', (-0.626568286330691, 0.9353907503031, 0.9353907503031));
#37 = CARTESIAN_POINT ('', (-0.412860355982437, 0.834539351535786, 0.834539351535786));
#38 = CARTESIAN_POINT ('', (-0.100780366075989, 0.520060673938383, 0.520060673938383));
#39 = CARTESIAN_POINT ('', (1.47543867652018E-17, 0.204248706362863, 0.204248706362863));
#40 = CARTESIAN_POINT ('', (0., 0., 0.));
#41 = CARTESIAN_POINT ('', (-0.742551927249672, 5.91683284981306E-17, 0.966292134831461));
#42 = CARTESIAN_POINT ('', (-0.626568286330691, 5.72761644155366E-17, 0.9353907503031));
#43 = CARTESIAN_POINT ('', (-0.412860355982437, 5.11007972810404E-17, 0.834539351535786));
#44 = CARTESIAN_POINT ('', (-0.100780366075989, 3.18445319850528E-17, 0.520060673938383));
#45 = CARTESIAN_POINT ('', (1.47543867652018E-17, 1.25066262238634E-17, 0.204248706362863));
#46 = CARTESIAN_POINT ('', (0., 0., 0.));
#47 = CARTESIAN_POINT ('', (-0.742551927249672, -0.966292134831461, 0.966292134831461));
#48 = CARTESIAN_POINT ('', (-0.626568286330691, -0.9353907503031, 0.9353907503031));
#49 = CARTESIAN_POINT ('', (-0.412860355982437, -0.834539351535786, 0.834539351535786));
#50 = CARTESIAN_POINT ('', (-0.100780366075989, -0.520060673938383, 0.520060673938383));
#51 = CARTESIAN_POINT ('', (1.47543867652018E-17, -0.204248706362863, 0.204248706362863));
#52 = CARTESIAN_POINT ('', (0., 0., 0.));
#53 = CARTESIAN_POINT ('', (-0.742551927249672, -0.966292134831461, 1.18336656996261E-16));
#54 = CARTESIAN_POINT ('', (-0.626568286330691, -0.9353907503031, 1.14552328831073E-16));
#55 = CARTESIAN_POINT ('', (-0.412860355982437, -0.834539351535786, 1.02201594562081E-16));
#56 = CARTESIAN_POINT ('', (-0.100780366075989, -0.520060673938383, 6.36890639701056E-17));
#57 = CARTESIAN_POINT ('', (1.47543867652018E-17, -0.204248706362863, 2.50132524477268E-17));
#58 = CARTESIAN_POINT ('', (0., 0., 0.));
#59 = CARTESIAN_POINT ('', (-0.742551927249672, -0.966292134831461, -0.96629213483146));
#60 = CARTESIAN_POINT ('', (-0.626568286330691, -0.9353907503031, -0.9353907503031));
#61 = CARTESIAN_POINT ('', (-0.412860355982437, -0.834539351535786, -0.834539351535786));
#62 = CARTESIAN_POINT ('', (-0.100780366075989, -0.520060673938383, -0.520060673938383));
#63 = CARTESIAN_POINT ('', (1.47543867652018E-17, -0.204248706362863, -0.204248706362863));
#64 = CARTESIAN_POINT ('', (0., 0., 0.));
#65 = CARTESIAN_POINT ('', (-0.742551927249672, -1.77504985494392E-16, -0.966292134831461));
#66 = CARTESIAN_POINT ('', (-0.626568286330691, -1.7182849324661E-16, -0.9353907503031));
#67 = CARTESIAN_POINT ('', (-0.412860355982437, -1.53302391843121E-16, -0.834539351535786));
#68 = CARTESIAN_POINT ('', (-0.100780366075989, -9.55335959551584E-17, -0.520060673938383));
#69 = CARTESIAN_POINT ('', (1.47543867652018E-17, -3.75198786715903E-17, -0.204248706362863));
#70 = CARTESIAN_POINT ('', (0., 0., 0.));
#71 = CARTESIAN_POINT ('', (-0.742551927249672, 0.96629213483146, -0.966292134831461));
#72 = CARTESIAN_POINT ('', (-0.626568286330691, 0.9353907503031, -0.9353907503031));
#73 = CARTESIAN_POINT ('', (-0.412860355982437, 0.834539351535786, -0.834539351535786));
#74 = CARTESIAN_POINT ('', (-0.100780366075989, 0.520060673938383, -0.520060673938383));
#75 = CARTESIAN_POINT ('', (1.47543867652018E-17, 0.204248706362863, -0.204248706362864));
#76 = CARTESIAN_POINT ('', (0., 0., 0.));
#77 = CARTESIAN_POINT ('', (-0.742551927249672, 0.966292134831461, 0.));
#78 = CARTESIAN_POINT ('', (-0.626568286330691, 0.9353907503031, 0.));
#79 = CARTESIAN_POINT ('', (-0.412860355982437, 0.834539351535786, 0.));
#80 = CARTESIAN_POINT ('', (-0.100780366075989, 0.520060673938383, 0.));
#81 = CARTESIAN_POINT ('', (1.47543867652018E-17, 0.204248706362863, 0.));
#82 = CARTESIAN_POINT ('', (0., 0., 0.));
#83 = (
   BOUNDED_SURFACE ()
   B_SPLINE_SURFACE (2, 3, ((#29, #30, #31, #32, #33, #34), (#35, #36, #37, #38, #39, #40), (#41, #42, #43, #44, #45, #46), (#47, #48, #49, #50, #51, #52), (#53, #54, #55, #56, #57, #58), (#59, #60, #61, #62, #63, #64), (#65, #66, #67, #68, #69, #70), (#71, #72, #73, #74, #75, #76), (#77, #78, #79, #80, #81, #82)), .UNSPECIFIED., .T., .F., .U.)
   B_SPLINE_SURFACE_WITH_KNOTS ((3, 2, 2, 2, 3), (4, 1, 1, 4), (0., 0.25, 0.5, 0.75, 1.), (0., 0.274789642641687, 0.532403361306421, 1.), .UNSPECIFIED.)
   GEOMETRIC_REPRESENTATION_ITEM ()
   RATIONAL_B_SPLINE_SURFACE (((1., 1., 1., 1., 1., 1.), (0.707106781186548, 0.707106781186548, 0.707106781186548, 0.707106781186548, 0.707106781186548, 0.707106781186548), (1., 1., 1., 1., 1., 1.), (0.707106781186548, 0.707106781186548, 0.707106781186548, 0.707106781186548, 0.707106781186548, 0.707106781186548), (1., 1., 1., 1., 1., 1.), (0.707106781186548, 0.707106781186548, 0.707106781186548, 0.707106781186548, 0.707106781186548, 0.707106781186548), (1., 1., 1., 1., 1., 1.), (0.707106781186548, 0.707106781186548, 0.707106781186548, 0.707106781186548, 0.707106781186548, 0.707106781186548), (1., 1., 1., 1., 1., 1.)))
   REPRESENTATION_ITEM ('')
   SURFACE ()
);
#84 = ADVANCED_FACE ('', (#28), #83, .T.);
#85 = CARTESIAN_POINT ('', (-23.9128784747792, 4., 0.));
#86 = VERTEX_POINT ('', #85);
#87 = CARTESIAN_POINT ('', (-23.9128784747792, 4., 0.));
#88 = CARTESIAN_POINT ('', (-19.7627257755374, 4., 0.));
#89 = CARTESIAN_POINT ('', (-11.9513713468967, 3.45857880794891, 0.));
#90 = CARTESIAN_POINT ('', (-4.28039573474089, 1.90887568394538, 0.));
#91 = CARTESIAN_POINT ('', (-0.742551927249668, 0.966292134831463, 0.));
#92 = B_SPLINE_CURVE_WITH_KNOTS ('', 3, (#87, #88, #89, #90, #91), .UNSPECIFIED., .F., .U., (4, 1, 4), (0., 0.531293694530133, 1.), .UNSPECIFIED.);
#93 = EDGE_CURVE ('', #86, #2, #92, .T.);
#94 = ORIENTED_EDGE ('', *, *, #93, .F.);
#95 = CARTESIAN_POINT ('', (-23.9128784747792, 4., 0.));
#96 = CARTESIAN_POINT ('', (-23.9128784747792, 4., 4.));
#97 = CARTESIAN_POINT ('', (-23.9128784747792, 2.44929359829471E-16, 4.));
#98 = CARTESIAN_POINT ('', (-23.9128784747792, -4., 4.));
#99 = CARTESIAN_POINT ('', (-23.9128784747792, -4., 4.89858719658941E-16));
#100 = CARTESIAN_POINT ('', (-23.9128784747792, -4., -4.));
#101 = CARTESIAN_POINT ('', (-23.9128784747792, -7.34788079488412E-16, -4.));
#102 = CARTESIAN_POINT ('', (-23.9128784747792, 4., -4.));
#103 = CARTESIAN_POINT ('', (-23.9128784747792, 4., 0.));
#104 = (
   BOUNDED_CURVE ()
   B_SPLINE_CURVE (2, (#95, #96, #97, #98, #99, #100, #101, #102, #103), .UNSPECIFIED., .T., .U.)
   B_SPLINE_CURVE_WITH_KNOTS ((3, 2, 2, 2, 3), (0., 0.25, 0.5, 0.75, 1.), .UNSPECIFIED.)
   CURVE ()
   GEOMETRIC_REPRESENTATION_ITEM ()
   RATIONAL_B_SPLINE_CURVE ((1., 0.707106781186548, 1., 0.707106781186548, 1., 0.707106781186548, 1., 0.707106781186548, 1.))
   REPRESENTATION_ITEM ('')
);
#105 = EDGE_CURVE ('', #86, #86, #104, .T.);
#106 = ORIENTED_EDGE ('', *, *, #105, .T.);
#107 = ORIENTED_EDGE ('', *, *, #93, .T.);
#108 = ORIENTED_EDGE ('', *, *, #24, .F.);
#109 = EDGE_LOOP ('', (#94, #106, #107, #108));
#110 = FACE_OUTER_BOUND ('', #109, .T.);
#111 = CARTESIAN_POINT ('', (-23.9128784747792, 4., 0.));
#112 = CARTESIAN_POINT ('', (-19.7627257755374, 4., 0.));
#113 = CARTESIAN_POINT ('', (-11.9513713468967, 3.45857880794891, 0.));
#114 = CARTESIAN_POINT ('', (-4.28039573474089, 1.90887568394538, 0.));
#115 = CARTESIAN_POINT ('', (-0.742551927249668, 0.966292134831463, 0.));
#116 = CARTESIAN_POINT ('', (-23.9128784747792, 4., 4.));
#117 = CARTESIAN_POINT ('', (-19.7627257755374, 4., 4.));
#118 = CARTESIAN_POINT ('', (-11.9513713468967, 3.45857880794891, 3.45857880794891));
#119 = CARTESIAN_POINT ('', (-4.28039573474089, 1.90887568394538, 1.90887568394537));
#120 = CARTESIAN_POINT ('', (-0.742551927249668, 0.966292134831463, 0.966292134831462));
#121 = CARTESIAN_POINT ('', (-23.9128784747792, 2.44929359829471E-16, 4.));
#122 = CARTESIAN_POINT ('', (-19.7627257755374, 2.44929359829471E-16, 4.));
#123 = CARTESIAN_POINT ('', (-11.9513713468967, 2.11776873337675E-16, 3.45857880794891));
#124 = CARTESIAN_POINT ('', (-4.28039573474089, 1.16884924815696E-16, 1.90887568394538));
#125 = CARTESIAN_POINT ('', (-0.742551927249668, 5.91683284981307E-17, 0.966292134831463));
#126 = CARTESIAN_POINT ('', (-23.9128784747792, -4., 4.));
#127 = CARTESIAN_POINT ('', (-19.7627257755374, -4., 4.));
#128 = CARTESIAN_POINT ('', (-11.9513713468967, -3.45857880794891, 3.45857880794891));
#129 = CARTESIAN_POINT ('', (-4.28039573474089, -1.90887568394537, 1.90887568394538));
#130 = CARTESIAN_POINT ('', (-0.742551927249668, -0.966292134831462, 0.966292134831463));
#131 = CARTESIAN_POINT ('', (-23.9128784747792, -4., 4.89858719658941E-16));
#132 = CARTESIAN_POINT ('', (-19.7627257755374, -4., 4.89858719658941E-16));
#133 = CARTESIAN_POINT ('', (-11.9513713468967, -3.45857880794891, 4.2355374667535E-16));
#134 = CARTESIAN_POINT ('', (-4.28039573474089, -1.90887568394538, 2.33769849631392E-16));
#135 = CARTESIAN_POINT ('', (-0.742551927249668, -0.966292134831463, 1.18336656996261E-16));
#136 = CARTESIAN_POINT ('', (-23.9128784747792, -4., -4.));
#137 = CARTESIAN_POINT ('', (-19.7627257755374, -4., -4.));
#138 = CARTESIAN_POINT ('', (-11.9513713468967, -3.45857880794891, -3.45857880794891));
#139 = CARTESIAN_POINT ('', (-4.28039573474089, -1.90887568394538, -1.90887568394537));
#140 = CARTESIAN_POINT ('', (-0.742551927249668, -0.966292134831463, -0.966292134831462));
#141 = CARTESIAN_POINT ('', (-23.9128784747792, -7.34788079488412E-16, -4.));
#142 = CARTESIAN_POINT ('', (-19.7627257755374, -7.34788079488412E-16, -4.));
#143 = CARTESIAN_POINT ('', (-11.9513713468967, -6.35330620013025E-16, -3.45857880794891));
#144 = CARTESIAN_POINT ('', (-4.28039573474089, -3.50654774447088E-16, -1.90887568394538));
#145 = CARTESIAN_POINT ('', (-0.742551927249668, -1.77504985494392E-16, -0.966292134831463));
#146 = CARTESIAN_POINT ('', (-23.9128784747792, 4., -4.));
#147 = CARTESIAN_POINT ('', (-19.7627257755374, 4., -4.));
#148 = CARTESIAN_POINT ('', (-11.9513713468967, 3.45857880794891, -3.45857880794891));
#149 = CARTESIAN_POINT ('', (-4.28039573474089, 1.90887568394537, -1.90887568394538));
#150 = CARTESIAN_POINT ('', (-0.742551927249668, 0.966292134831462, -0.966292134831463));
#151 = CARTESIAN_POINT ('', (-23.9128784747792, 4., 0.));
#152 = CARTESIAN_POINT ('', (-19.7627257755374, 4., 0.));
#153 = CARTESIAN_POINT ('', (-11.9513713468967, 3.45857880794891, 0.));
#154 = CARTESIAN_POINT ('', (-4.28039573474089, 1.90887568394538, 0.));
#155 = CARTESIAN_POINT ('', (-0.742551927249668, 0.966292134831463, 0.));
#156 = (
   BOUNDED_SURFACE ()
   B_SPLINE_SURFACE (2, 3, ((#111, #112, #113, #114, #115), (#116, #117, #118, #119, #120), (#121, #122, #123, #124, #125), (#126, #127, #128, #129, #130), (#131, #132, #133, #134, #135), (#136, #137, #138, #139, #140), (#141, #142, #143, #144, #145), (#146, #147, #148, #149, #150), (#151, #152, #153, #154, #155)), .UNSPECIFIED., .T., .F., .U.)
   B_SPLINE_SURFACE_WITH_KNOTS ((3, 2, 2, 2, 3), (4, 1, 4), (0., 0.25, 0.5, 0.75, 1.), (0., 0.531293694530133, 1.), .UNSPECIFIED.)
   GEOMETRIC_REPRESENTATION_ITEM ()
   RATIONAL_B_SPLINE_SURFACE (((1., 1., 1., 1., 1.), (0.707106781186548, 0.707106781186548, 0.707106781186548, 0.707106781186548, 0.707106781186548), (1., 1., 1., 1., 1.), (0.707106781186548, 0.707106781186548, 0.707106781186548, 0.707106781186548, 0.707106781186548), (1., 1., 1., 1., 1.), (0.707106781186548, 0.707106781186548, 0.707106781186548, 0.707106781186548, 0.707106781186548), (1., 1., 1., 1., 1.), (0.707106781186548, 0.707106781186548, 0.707106781186548, 0.707106781186548, 0.707106781186548), (1., 1., 1., 1., 1.)))
   REPRESENTATION_ITEM ('')
   SURFACE ()
);
#157 = ADVANCED_FACE ('', (#110), #156, .T.);
#158 = CARTESIAN_POINT ('', (-64., 4., 0.));
#159 = VERTEX_POINT ('', #158);
#160 = CARTESIAN_POINT ('', (-64., 4., 0.));
#161 = CARTESIAN_POINT ('', (-50.6376261582597, 4., 0.));
#162 = CARTESIAN_POINT ('', (-37.2752523165196, 4., 0.));
#163 = CARTESIAN_POINT ('', (-23.9128784747792, 4., 0.));
#164 = B_SPLINE_CURVE_WITH_KNOTS ('', 3, (#160, #161, #162, #163), .UNSPECIFIED., .F., .U., (4, 4), (0., 1.), .UNSPECIFIED.);
#165 = EDGE_CURVE ('', #159, #86, #164, .T.);
#166 = ORIENTED_EDGE ('', *, *, #165, .F.);
#167 = CARTESIAN_POINT ('', (-64., 4., 0.));
#168 = CARTESIAN_POINT ('', (-64., 4., 4.));
#169 = CARTESIAN_POINT ('', (-64., 2.44929359829471E-16, 4.));
#170 = CARTESIAN_POINT ('', (-64., -4., 4.));
#171 = CARTESIAN_POINT ('', (-64., -4., 4.89858719658941E-16));
#172 = CARTESIAN_POINT ('', (-64., -4., -4.));
#173 = CARTESIAN_POINT ('', (-64., -7.34788079488412E-16, -4.));
#174 = CARTESIAN_POINT ('', (-64., 4., -4.));
#175 = CARTESIAN_POINT ('', (-64., 4., 0.));
#176 = (
   BOUNDED_CURVE ()
   B_SPLINE_CURVE (2, (#167, #168, #169, #170, #171, #172, #173, #174, #175), .UNSPECIFIED., .T., .U.)
   B_SPLINE_CURVE_WITH_KNOTS ((3, 2, 2, 2, 3), (0., 0.25, 0.5, 0.75, 1.), .UNSPECIFIED.)
   CURVE ()
   GEOMETRIC_REPRESENTATION_ITEM ()
   RATIONAL_B_SPLINE_CURVE ((1., 0.707106781186548, 1., 0.707106781186548, 1., 0.707106781186548, 1., 0.707106781186548, 1.))
   REPRESENTATION_ITEM ('')
);
#177 = EDGE_CURVE ('', #159, #159, #176, .T.);
#178 = ORIENTED_EDGE ('', *, *, #177, .T.);
#179 = ORIENTED_EDGE ('', *, *, #165, .T.);
#180 = ORIENTED_EDGE ('', *, *, #105, .F.);
#181 = EDGE_LOOP ('', (#166, #178, #179, #180));
#182 = FACE_OUTER_BOUND ('', #181, .T.);
#183 = CARTESIAN_POINT ('', (-64., 4., 0.));
#184 = CARTESIAN_POINT ('', (-50.6376261582597, 4., 0.));
#185 = CARTESIAN_POINT ('', (-37.2752523165196, 4., 0.));
#186 = CARTESIAN_POINT ('', (-23.9128784747792, 4., 0.));
#187 = CARTESIAN_POINT ('', (-64., 4., 4.));
#188 = CARTESIAN_POINT ('', (-50.6376261582597, 4., 4.));
#189 = CARTESIAN_POINT ('', (-37.2752523165196, 4., 4.));
#190 = CARTESIAN_POINT ('', (-23.9128784747792, 4., 4.));
#191 = CARTESIAN_POINT ('', (-64., 2.44929359829471E-16, 4.));
#192 = CARTESIAN_POINT ('', (-50.6376261582597, 2.44929359829471E-16, 4.));
#193 = CARTESIAN_POINT ('', (-37.2752523165196, 2.44929359829471E-16, 4.));
#194 = CARTESIAN_POINT ('', (-23.9128784747792, 2.44929359829471E-16, 4.));
#195 = CARTESIAN_POINT ('', (-64., -4., 4.));
#196 = CARTESIAN_POINT ('', (-50.6376261582597, -4., 4.));
#197 = CARTESIAN_POINT ('', (-37.2752523165196, -4., 4.));
#198 = CARTESIAN_POINT ('', (-23.9128784747792, -4., 4.));
#199 = CARTESIAN_POINT ('', (-64., -4., 4.89858719658941E-16));
#200 = CARTESIAN_POINT ('', (-50.6376261582597, -4., 4.89858719658941E-16));
#201 = CARTESIAN_POINT ('', (-37.2752523165196, -4., 4.89858719658941E-16));
#202 = CARTESIAN_POINT ('', (-23.9128784747792, -4., 4.89858719658941E-16));
#203 = CARTESIAN_POINT ('', (-64., -4., -4.));
#204 = CARTESIAN_POINT ('', (-50.6376261582597, -4., -4.));
#205 = CARTESIAN_POINT ('', (-37.2752523165196, -4., -4.));
#206 = CARTESIAN_POINT ('', (-23.9128784747792, -4., -4.));
#207 = CARTESIAN_POINT ('', (-64., -7.34788079488412E-16, -4.));
#208 = CARTESIAN_POINT ('', (-50.6376261582597, -7.34788079488412E-16, -4.));
#209 = CARTESIAN_POINT ('', (-37.2752523165196, -7.34788079488412E-16, -4.));
#210 = CARTESIAN_POINT ('', (-23.9128784747792, -7.34788079488412E-16, -4.));
#211 = CARTESIAN_POINT ('', (-64., 4., -4.));
#212 = CARTESIAN_POINT ('', (-50.6376261582597, 4., -4.));
#213 = CARTESIAN_POINT ('', (-37.2752523165196, 4., -4.));
#214 = CARTESIAN_POINT ('', (-23.9128784747792, 4., -4.));
#215 = CARTESIAN_POINT ('', (-64., 4., 0.));
#216 = CARTESIAN_POINT ('', (-50.6376261582597, 4., 0.));
#217 = CARTESIAN_POINT ('', (-37.2752523165196, 4., 0.));
#218 = CARTESIAN_POINT ('', (-23.9128784747792, 4., 0.));
#219 = (
   BOUNDED_SURFACE ()
   B_SPLINE_SURFACE (2, 3, ((#183, #184, #185, #186), (#187, #188, #189, #190), (#191, #192, #193, #194), (#195, #196, #197, #198), (#199, #200, #201, #202), (#203, #204, #205, #206), (#207, #208, #209, #210), (#211, #212, #213, #214), (#215, #216, #217, #218)), .UNSPECIFIED., .T., .F., .U.)
   B_SPLINE_SURFACE_WITH_KNOTS ((3, 2, 2, 2, 3), (4, 4), (0., 0.25, 0.5, 0.75, 1.), (0., 1.), .UNSPECIFIED.)
   GEOMETRIC_REPRESENTATION_ITEM ()
   RATIONAL_B_SPLINE_SURFACE (((1., 1., 1., 1.), (0.707106781186548, 0.707106781186548, 0.707106781186548, 0.707106781186548), (1., 1., 1., 1.), (0.707106781186548, 0.707106781186548, 0.707106781186548, 0.707106781186548), (1., 1., 1., 1.), (0.707106781186548, 0.707106781186548, 0.707106781186548, 0.707106781186548), (1., 1., 1., 1.), (0.707106781186548, 0.707106781186548, 0.707106781186548, 0.707106781186548), (1., 1., 1., 1.)))
   REPRESENTATION_ITEM ('')
   SURFACE ()
);
#220 = ADVANCED_FACE ('', (#182), #219, .T.);
#221 = ORIENTED_EDGE ('', *, *, #177, .F.);
#222 = EDGE_LOOP ('', (#221));
#223 = FACE_OUTER_BOUND ('', #222, .T.);
#224 = CARTESIAN_POINT ('', (-64., -4.4, -4.4));
#225 = CARTESIAN_POINT ('', (-64., 4.4, -4.4));
#226 = CARTESIAN_POINT ('', (-64., -4.4, 4.4));
#227 = CARTESIAN_POINT ('', (-64., 4.4, 4.4));
#228 = B_SPLINE_SURFACE_WITH_KNOTS ('', 1, 1, ((#224, #225), (#226, #227)), .UNSPECIFIED., .F., .F., .U., (2, 2), (2, 2), (0., 1.), (0., 1.), .UNSPECIFIED.);
#229 = ADVANCED_FACE ('', (#223), #228, .T.);
#230 = CLOSED_SHELL ('', (#84, #157, #220, #229));
#231 = MANIFOLD_SOLID_BREP ('', #230);
#232 = COLOUR_RGB ('', 0.780392156862745, 0.780392156862745, 0.780392156862745);
#233 = FILL_AREA_STYLE_COLOUR ('', #232);
#234 = FILL_AREA_STYLE ('', (#233));
#235 = SURFACE_STYLE_FILL_AREA (#234);
#236 = SURFACE_SIDE_STYLE ('', (#235));
#237 = SURFACE_STYLE_USAGE (.POSITIVE., #236);
#238 = PRESENTATION_STYLE_ASSIGNMENT ((#237));
#239 = STYLED_ITEM ('', (#238), #231);
#240 = (
   LENGTH_UNIT ()
   NAMED_UNIT (*)
   SI_UNIT (.MILLI., .METRE.)
);
#241 = (
   NAMED_UNIT (*)
   SI_UNIT ($, .STERADIAN.)
   SOLID_ANGLE_UNIT ()
);
#242 = (
   NAMED_UNIT (*)
   PLANE_ANGLE_UNIT ()
   SI_UNIT ($, .RADIAN.)
);
#243 = UNCERTAINTY_MEASURE_WITH_UNIT (LENGTH_MEASURE(0.001), #240, 'DISTANCE_ACCURACY_VALUE', '');
#244 = (
   GEOMETRIC_REPRESENTATION_CONTEXT (3)
   GLOBAL_UNCERTAINTY_ASSIGNED_CONTEXT ((#243))
   GLOBAL_UNIT_ASSIGNED_CONTEXT ((#240, #241, #242))
   REPRESENTATION_CONTEXT ('', '3D')
);
#245 = SHAPE_REPRESENTATION ('', (), #244);
#246 = APPLICATION_CONTEXT ('configuration controlled 3D designs of mechanical parts and assemblies');
#247 = APPLICATION_PROTOCOL_DEFINITION ('International Standard', 'config_control_design', 1997, #246);
#248 = MECHANICAL_CONTEXT ('', #246, 'mechanical');
#249 = PRODUCT ('', '', '', (#248));
#250 = PERSON_AND_ORGANIZATION_ROLE ('design_owner');
#251 = PERSON ('#251', '', $, $, $, $);
#252 = ORGANIZATION ($, '', '');
#253 = PERSON_AND_ORGANIZATION (#251, #252);
#254 = CC_DESIGN_PERSON_AND_ORGANIZATION_ASSIGNMENT (#253, #250, (#249));
#255 = PRODUCT_RELATED_PRODUCT_CATEGORY ('detail', $, (#249));
#256 = PRODUCT_DEFINITION_FORMATION_WITH_SPECIFIED_SOURCE ('', '', #249, .NOT_KNOWN.);
#257 = APPROVAL_STATUS ('approved');
#258 = APPROVAL (#257, '');
#259 = CALENDAR_DATE (2024, 17, 9);
#260 = COORDINATED_UNIVERSAL_TIME_OFFSET (0, $, .AHEAD.);
#261 = LOCAL_TIME (9, 22, 19., #260);
#262 = DATE_AND_TIME (#259, #261);
#263 = APPROVAL_DATE_TIME (#262, #258);
#264 = APPROVAL_ROLE ('');
#265 = PERSON ('#265', '', $, $, $, $);
#266 = ORGANIZATION ($, '', '');
#267 = PERSON_AND_ORGANIZATION (#265, #266);
#268 = APPROVAL_PERSON_ORGANIZATION (#267, #258, #264);
#269 = CC_DESIGN_APPROVAL (#258, (#256));
#270 = PERSON_AND_ORGANIZATION_ROLE ('creator');
#271 = PERSON ('#271', '', $, $, $, $);
#272 = ORGANIZATION ($, '', '');
#273 = PERSON_AND_ORGANIZATION (#271, #272);
#274 = CC_DESIGN_PERSON_AND_ORGANIZATION_ASSIGNMENT (#273, #270, (#256));
#275 = PERSON_AND_ORGANIZATION_ROLE ('part_supplier');
#276 = PERSON ('#276', '', $, $, $, $);
#277 = ORGANIZATION ($, '', '');
#278 = PERSON_AND_ORGANIZATION (#276, #277);
#279 = CC_DESIGN_PERSON_AND_ORGANIZATION_ASSIGNMENT (#278, #275, (#256));
#280 = SECURITY_CLASSIFICATION_LEVEL ('unclassified');
#281 = SECURITY_CLASSIFICATION ('', '', #280);
#282 = APPROVAL_STATUS ('approved');
#283 = APPROVAL (#282, '');
#284 = CALENDAR_DATE (2024, 17, 9);
#285 = COORDINATED_UNIVERSAL_TIME_OFFSET (0, $, .AHEAD.);
#286 = LOCAL_TIME (9, 22, 19., #285);
#287 = DATE_AND_TIME (#284, #286);
#288 = APPROVAL_DATE_TIME (#287, #283);
#289 = APPROVAL_ROLE ('');
#290 = PERSON ('#290', '', $, $, $, $);
#291 = ORGANIZATION ($, '', '');
#292 = PERSON_AND_ORGANIZATION (#290, #291);
#293 = APPROVAL_PERSON_ORGANIZATION (#292, #283, #289);
#294 = CC_DESIGN_APPROVAL (#283, (#281));
#295 = DATE_TIME_ROLE ('classification_date');
#296 = CALENDAR_DATE (2024, 17, 9);
#297 = COORDINATED_UNIVERSAL_TIME_OFFSET (0, $, .AHEAD.);
#298 = LOCAL_TIME (9, 22, 19., #297);
#299 = DATE_AND_TIME (#296, #298);
#300 = CC_DESIGN_DATE_AND_TIME_ASSIGNMENT (#299, #295, (#281));
#301 = PERSON_AND_ORGANIZATION_ROLE ('classification_officer');
#302 = PERSON ('#302', '', $, $, $, $);
#303 = ORGANIZATION ($, '', '');
#304 = PERSON_AND_ORGANIZATION (#302, #303);
#305 = CC_DESIGN_PERSON_AND_ORGANIZATION_ASSIGNMENT (#304, #301, (#281));
#306 = CC_DESIGN_SECURITY_CLASSIFICATION (#281, (#256));
#307 = DESIGN_CONTEXT ('', #246, 'design');
#308 = APPROVAL_STATUS ('approved');
#309 = APPROVAL (#308, '');
#310 = CALENDAR_DATE (2024, 17, 9);
#311 = COORDINATED_UNIVERSAL_TIME_OFFSET (0, $, .AHEAD.);
#312 = LOCAL_TIME (9, 22, 19., #311);
#313 = DATE_AND_TIME (#310, #312);
#314 = APPROVAL_DATE_TIME (#313, #309);
#315 = APPROVAL_ROLE ('');
#316 = PERSON ('#316', '', $, $, $, $);
#317 = ORGANIZATION ($, '', '');
#318 = PERSON_AND_ORGANIZATION (#316, #317);
#319 = APPROVAL_PERSON_ORGANIZATION (#318, #309, #315);
#320 = CC_DESIGN_APPROVAL (#309, (*));
#321 = DATE_TIME_ROLE ('creation_date');
#322 = CALENDAR_DATE (2024, 17, 9);
#323 = COORDINATED_UNIVERSAL_TIME_OFFSET (0, $, .AHEAD.);
#324 = LOCAL_TIME (9, 22, 19., #323);
#325 = DATE_AND_TIME (#322, #324);
#326 = CC_DESIGN_DATE_AND_TIME_ASSIGNMENT (#325, #321, (*));
#327 = PERSON_AND_ORGANIZATION_ROLE ('creator');
#328 = PERSON ('#328', '', $, $, $, $);
#329 = ORGANIZATION ($, '', '');
#330 = PERSON_AND_ORGANIZATION (#328, #329);
#331 = CC_DESIGN_PERSON_AND_ORGANIZATION_ASSIGNMENT (#330, #327, (*));
#332 = PRODUCT_DEFINITION ('', '', #256, #307);
#333 = PRODUCT_DEFINITION_SHAPE ('', '', #332);
#334 = SHAPE_DEFINITION_REPRESENTATION (#333, #245);
#335 = SHAPE_REPRESENTATION_RELATIONSHIP ('', '', #245, #336);
#336 = ADVANCED_BREP_SHAPE_REPRESENTATION ('', (#231), #244);
ENDSEC;
END-ISO-10303-21;
