ISO-10303-21;
HEADER;
FILE_DESCRIPTION (('STEP'), '1');
FILE_NAME ('C:\\Users\\JHayes\\OneDrive - MAFord Europe\\Files\\M\\M.A.FORD\\STEP FILES\\XFO\\XFO-4M12R80AQ.STP', '2024-09-17T09:35:20', ('Unknown'), ('M.A.FORD'), 'OneCNC-XR9 Mill 3D Expert', 'OneCNC-XR9 Mill 3D Expert', '');
FILE_SCHEMA (('CONFIG_CONTROL_DESIGN'));
ENDSEC;

DATA;
#1 = CARTESIAN_POINT ('', (-1.3677524099519, 1.8974358974359, 0.));
#2 = VERTEX_POINT ('', #1);
#3 = CARTESIAN_POINT ('', (0., 0., 0.));
#4 = VERTEX_POINT ('', #3);
#5 = CARTESIAN_POINT ('', (-1.3677524099519, 1.8974358974359, 0.));
#6 = CARTESIAN_POINT ('', (-1.15017192524951, 1.82493556302118, 0.));
#7 = CARTESIAN_POINT ('', (-0.754158100201656, 1.61162434925484, 0.));
#8 = CARTESIAN_POINT ('', (-0.339896069421337, 1.16220744098088, 0.));
#9 = CARTESIAN_POINT ('', (-0.0678284843655441, 0.618720086921462, 0.));
#10 = CARTESIAN_POINT ('', (-1.76613005444594E-17, 0.229341591983597, 0.));
#11 = CARTESIAN_POINT ('', (0., 0., 0.));
#12 = B_SPLINE_CURVE_WITH_KNOTS ('', 3, (#5, #6, #7, #8, #9, #10, #11), .UNSPECIFIED., .F., .U., (4, 1, 1, 1, 4), (0., 0.275395997560782, 0.532293859624214, 0.724604002439218, 1.), .UNSPECIFIED.);
#13 = EDGE_CURVE ('', #2, #4, #12, .T.);
#14 = ORIENTED_EDGE ('', *, *, #13, .F.);
#15 = CARTESIAN_POINT ('', (-1.3677524099519, 1.8974358974359, 0.));
#16 = CARTESIAN_POINT ('', (-1.3677524099519, 1.8974358974359, 1.8974358974359));
#17 = CARTESIAN_POINT ('', (-1.3677524099519, 1.16184439919108E-16, 1.8974358974359));
#18 = CARTESIAN_POINT ('', (-1.3677524099519, -1.8974358974359, 1.8974358974359));
#19 = CARTESIAN_POINT ('', (-1.3677524099519, -1.8974358974359, 2.32368879838216E-16));
#20 = CARTESIAN_POINT ('', (-1.3677524099519, -1.8974358974359, -1.8974358974359));
#21 = CARTESIAN_POINT ('', (-1.3677524099519, -3.48553319757323E-16, -1.8974358974359));
#22 = CARTESIAN_POINT ('', (-1.3677524099519, 1.8974358974359, -1.8974358974359));
#23 = CARTESIAN_POINT ('', (-1.3677524099519, 1.8974358974359, 0.));
#24 = (
   BOUNDED_CURVE ()
   B_SPLINE_CURVE (2, (#15, #16, #17, #18, #19, #20, #21, #22, #23), .UNSPECIFIED., .T., .U.)
   B_SPLINE_CURVE_WITH_KNOTS ((3, 2, 2, 2, 3), (0., 0.25, 0.5, 0.75, 1.), .UNSPECIFIED.)
   CURVE ()
   GEOMETRIC_REPRESENTATION_ITEM ()
   RATIONAL_B_SPLINE_CURVE ((1., 0.707106781186548, 1., 0.707106781186548, 1., 0.707106781186548, 1., 0.707106781186548, 1.))
   REPRESENTATION_ITEM ('')
);
#25 = EDGE_CURVE ('', #2, #2, #24, .T.);
#26 = ORIENTED_EDGE ('', *, *, #25, .T.);
#27 = ORIENTED_EDGE ('', *, *, #13, .T.);
#28 = EDGE_LOOP ('', (#14, #26, #27));
#29 = FACE_OUTER_BOUND ('', #28, .T.);
#30 = CARTESIAN_POINT ('', (-1.3677524099519, 1.8974358974359, 0.));
#31 = CARTESIAN_POINT ('', (-1.15017192524951, 1.82493556302118, 0.));
#32 = CARTESIAN_POINT ('', (-0.754158100201656, 1.61162434925484, 0.));
#33 = CARTESIAN_POINT ('', (-0.339896069421337, 1.16220744098088, 0.));
#34 = CARTESIAN_POINT ('', (-0.0678284843655441, 0.618720086921462, 0.));
#35 = CARTESIAN_POINT ('', (-1.76613005444594E-17, 0.229341591983597, 0.));
#36 = CARTESIAN_POINT ('', (0., 0., 0.));
#37 = CARTESIAN_POINT ('', (-1.3677524099519, 1.8974358974359, 1.8974358974359));
#38 = CARTESIAN_POINT ('', (-1.15017192524951, 1.82493556302118, 1.82493556302118));
#39 = CARTESIAN_POINT ('', (-0.754158100201656, 1.61162434925484, 1.61162434925484));
#40 = CARTESIAN_POINT ('', (-0.339896069421337, 1.16220744098088, 1.16220744098088));
#41 = CARTESIAN_POINT ('', (-0.0678284843655441, 0.618720086921462, 0.618720086921462));
#42 = CARTESIAN_POINT ('', (-1.76613005444594E-17, 0.229341591983597, 0.229341591983597));
#43 = CARTESIAN_POINT ('', (0., 0., 0.));
#44 = CARTESIAN_POINT ('', (-1.3677524099519, 1.16184439919108E-16, 1.8974358974359));
#45 = CARTESIAN_POINT ('', (-1.15017192524951, 1.11745074795203E-16, 1.82493556302118));
#46 = CARTESIAN_POINT ('', (-0.754158100201656, 9.86835300371436E-17, 1.61162434925484));
#47 = CARTESIAN_POINT ('', (-0.339896069421337, 7.11646811271234E-17, 1.16220744098088));
#48 = CARTESIAN_POINT ('', (-0.0678284843655441, 3.7885678700827E-17, 0.618720086921462));
#49 = CARTESIAN_POINT ('', (-1.76613005444594E-17, 1.40431223267035E-17, 0.229341591983597));
#50 = CARTESIAN_POINT ('', (0., 0., 0.));
#51 = CARTESIAN_POINT ('', (-1.3677524099519, -1.8974358974359, 1.8974358974359));
#52 = CARTESIAN_POINT ('', (-1.15017192524951, -1.82493556302118, 1.82493556302118));
#53 = CARTESIAN_POINT ('', (-0.754158100201656, -1.61162434925484, 1.61162434925484));
#54 = CARTESIAN_POINT ('', (-0.339896069421337, -1.16220744098088, 1.16220744098088));
#55 = CARTESIAN_POINT ('', (-0.0678284843655441, -0.618720086921462, 0.618720086921462));
#56 = CARTESIAN_POINT ('', (-1.76613005444594E-17, -0.229341591983597, 0.229341591983597));
#57 = CARTESIAN_POINT ('', (0., 0., 0.));
#58 = CARTESIAN_POINT ('', (-1.3677524099519, -1.8974358974359, 2.32368879838216E-16));
#59 = CARTESIAN_POINT ('', (-1.15017192524951, -1.82493556302118, 2.23490149590406E-16));
#60 = CARTESIAN_POINT ('', (-0.754158100201656, -1.61162434925484, 1.97367060074287E-16));
#61 = CARTESIAN_POINT ('', (-0.339896069421337, -1.16220744098088, 1.42329362254247E-16));
#62 = CARTESIAN_POINT ('', (-0.0678284843655441, -0.618720086921462, 7.5771357401654E-17));
#63 = CARTESIAN_POINT ('', (-1.76613005444594E-17, -0.229341591983597, 2.8086244653407E-17));
#64 = CARTESIAN_POINT ('', (0., 0., 0.));
#65 = CARTESIAN_POINT ('', (-1.3677524099519, -1.8974358974359, -1.8974358974359));
#66 = CARTESIAN_POINT ('', (-1.15017192524951, -1.82493556302118, -1.82493556302118));
#67 = CARTESIAN_POINT ('', (-0.754158100201656, -1.61162434925484, -1.61162434925484));
#68 = CARTESIAN_POINT ('', (-0.339896069421337, -1.16220744098088, -1.16220744098088));
#69 = CARTESIAN_POINT ('', (-0.0678284843655441, -0.618720086921462, -0.618720086921462));
#70 = CARTESIAN_POINT ('', (-1.76613005444594E-17, -0.229341591983597, -0.229341591983597));
#71 = CARTESIAN_POINT ('', (0., 0., 0.));
#72 = CARTESIAN_POINT ('', (-1.3677524099519, -3.48553319757323E-16, -1.8974358974359));
#73 = CARTESIAN_POINT ('', (-1.15017192524951, -3.3523522438561E-16, -1.82493556302118));
#74 = CARTESIAN_POINT ('', (-0.754158100201656, -2.96050590111431E-16, -1.61162434925484));
#75 = CARTESIAN_POINT ('', (-0.339896069421337, -2.1349404338137E-16, -1.16220744098088));
#76 = CARTESIAN_POINT ('', (-0.0678284843655441, -1.13657036102481E-16, -0.618720086921462));
#77 = CARTESIAN_POINT ('', (-1.76613005444594E-17, -4.21293669801105E-17, -0.229341591983597));
#78 = CARTESIAN_POINT ('', (0., 0., 0.));
#79 = CARTESIAN_POINT ('', (-1.3677524099519, 1.8974358974359, -1.8974358974359));
#80 = CARTESIAN_POINT ('', (-1.15017192524951, 1.82493556302118, -1.82493556302118));
#81 = CARTESIAN_POINT ('', (-0.754158100201656, 1.61162434925484, -1.61162434925484));
#82 = CARTESIAN_POINT ('', (-0.339896069421337, 1.16220744098088, -1.16220744098088));
#83 = CARTESIAN_POINT ('', (-0.0678284843655441, 0.618720086921462, -0.618720086921462));
#84 = CARTESIAN_POINT ('', (-1.76613005444594E-17, 0.229341591983597, -0.229341591983597));
#85 = CARTESIAN_POINT ('', (0., 0., 0.));
#86 = CARTESIAN_POINT ('', (-1.3677524099519, 1.8974358974359, 0.));
#87 = CARTESIAN_POINT ('', (-1.15017192524951, 1.82493556302118, 0.));
#88 = CARTESIAN_POINT ('', (-0.754158100201656, 1.61162434925484, 0.));
#89 = CARTESIAN_POINT ('', (-0.339896069421337, 1.16220744098088, 0.));
#90 = CARTESIAN_POINT ('', (-0.0678284843655441, 0.618720086921462, 0.));
#91 = CARTESIAN_POINT ('', (-1.76613005444594E-17, 0.229341591983597, 0.));
#92 = CARTESIAN_POINT ('', (0., 0., 0.));
#93 = (
   BOUNDED_SURFACE ()
   B_SPLINE_SURFACE (2, 3, ((#30, #31, #32, #33, #34, #35, #36), (#37, #38, #39, #40, #41, #42, #43), (#44, #45, #46, #47, #48, #49, #50), (#51, #52, #53, #54, #55, #56, #57), (#58, #59, #60, #61, #62, #63, #64), (#65, #66, #67, #68, #69, #70, #71), (#72, #73, #74, #75, #76, #77, #78), (#79, #80, #81, #82, #83, #84, #85), (#86, #87, #88, #89, #90, #91, #92)), .UNSPECIFIED., .T., .F., .U.)
   B_SPLINE_SURFACE_WITH_KNOTS ((3, 2, 2, 2, 3), (4, 1, 1, 1, 4), (0., 0.25, 0.5, 0.75, 1.), (0., 0.275395997560782, 0.532293859624214, 0.724604002439218, 1.), .UNSPECIFIED.)
   GEOMETRIC_REPRESENTATION_ITEM ()
   RATIONAL_B_SPLINE_SURFACE (((1., 1., 1., 1., 1., 1., 1.), (0.707106781186548, 0.707106781186548, 0.707106781186548, 0.707106781186548, 0.707106781186548, 0.707106781186548, 0.707106781186548), (1., 1., 1., 1., 1., 1., 1.), (0.707106781186548, 0.707106781186548, 0.707106781186548, 0.707106781186548, 0.707106781186548, 0.707106781186548, 0.707106781186548), (1., 1., 1., 1., 1., 1., 1.), (0.707106781186548, 0.707106781186548, 0.707106781186548, 0.707106781186548, 0.707106781186548, 0.707106781186548, 0.707106781186548), (1., 1., 1., 1., 1., 1., 1.), (0.707106781186548, 0.707106781186548, 0.707106781186548, 0.707106781186548, 0.707106781186548, 0.707106781186548, 0.707106781186548), (1., 1., 1., 1., 1., 1., 1.)))
   REPRESENTATION_ITEM ('')
   SURFACE ()
);
#94 = ADVANCED_FACE ('', (#29), #93, .T.);
#95 = CARTESIAN_POINT ('', (-26.6576560118759, 6., 0.));
#96 = VERTEX_POINT ('', #95);
#97 = CARTESIAN_POINT ('', (-26.6576560118759, 6., 0.));
#98 = CARTESIAN_POINT ('', (-22.6377163604795, 6.00000000000001, 0.));
#99 = CARTESIAN_POINT ('', (-14.0607216034821, 5.35195576661344, 0.));
#100 = CARTESIAN_POINT ('', (-5.69120492523253, 3.33806028805035, 0.));
#101 = CARTESIAN_POINT ('', (-1.36775240995189, 1.8974358974359, 0.));
#102 = B_SPLINE_CURVE_WITH_KNOTS ('', 3, (#97, #98, #99, #100, #101), .UNSPECIFIED., .F., .U., (4, 1, 4), (0., 0.468683268123385, 1.), .UNSPECIFIED.);
#103 = EDGE_CURVE ('', #96, #2, #102, .T.);
#104 = ORIENTED_EDGE ('', *, *, #103, .F.);
#105 = CARTESIAN_POINT ('', (-26.6576560118759, 6., 0.));
#106 = CARTESIAN_POINT ('', (-26.6576560118759, 6., 6.));
#107 = CARTESIAN_POINT ('', (-26.6576560118759, 3.67394039744206E-16, 6.));
#108 = CARTESIAN_POINT ('', (-26.6576560118759, -6., 6.));
#109 = CARTESIAN_POINT ('', (-26.6576560118759, -6., 7.34788079488412E-16));
#110 = CARTESIAN_POINT ('', (-26.6576560118759, -6., -6.));
#111 = CARTESIAN_POINT ('', (-26.6576560118759, -1.10218211923262E-15, -6.));
#112 = CARTESIAN_POINT ('', (-26.6576560118759, 6., -6.));
#113 = CARTESIAN_POINT ('', (-26.6576560118759, 6., 0.));
#114 = (
   BOUNDED_CURVE ()
   B_SPLINE_CURVE (2, (#105, #106, #107, #108, #109, #110, #111, #112, #113), .UNSPECIFIED., .T., .U.)
   B_SPLINE_CURVE_WITH_KNOTS ((3, 2, 2, 2, 3), (0., 0.25, 0.5, 0.75, 1.), .UNSPECIFIED.)
   CURVE ()
   GEOMETRIC_REPRESENTATION_ITEM ()
   RATIONAL_B_SPLINE_CURVE ((1., 0.707106781186548, 1., 0.707106781186548, 1., 0.707106781186548, 1., 0.707106781186548, 1.))
   REPRESENTATION_ITEM ('')
);
#115 = EDGE_CURVE ('', #96, #96, #114, .T.);
#116 = ORIENTED_EDGE ('', *, *, #115, .T.);
#117 = ORIENTED_EDGE ('', *, *, #103, .T.);
#118 = ORIENTED_EDGE ('', *, *, #25, .F.);
#119 = EDGE_LOOP ('', (#104, #116, #117, #118));
#120 = FACE_OUTER_BOUND ('', #119, .T.);
#121 = CARTESIAN_POINT ('', (-26.6576560118759, 6., 0.));
#122 = CARTESIAN_POINT ('', (-22.6377163604795, 6.00000000000001, 0.));
#123 = CARTESIAN_POINT ('', (-14.0607216034821, 5.35195576661344, 0.));
#124 = CARTESIAN_POINT ('', (-5.69120492523253, 3.33806028805035, 0.));
#125 = CARTESIAN_POINT ('', (-1.36775240995189, 1.8974358974359, 0.));
#126 = CARTESIAN_POINT ('', (-26.6576560118759, 6., 6.));
#127 = CARTESIAN_POINT ('', (-22.6377163604795, 6.00000000000001, 6.00000000000001));
#128 = CARTESIAN_POINT ('', (-14.0607216034821, 5.35195576661344, 5.35195576661344));
#129 = CARTESIAN_POINT ('', (-5.69120492523253, 3.33806028805035, 3.33806028805035));
#130 = CARTESIAN_POINT ('', (-1.36775240995189, 1.8974358974359, 1.8974358974359));
#131 = CARTESIAN_POINT ('', (-26.6576560118759, 3.67394039744206E-16, 6.));
#132 = CARTESIAN_POINT ('', (-22.6377163604795, 3.67394039744207E-16, 6.00000000000001));
#133 = CARTESIAN_POINT ('', (-14.0607216034821, 3.27712774938068E-16, 5.35195576661344));
#134 = CARTESIAN_POINT ('', (-5.69120492523253, 2.04397242356088E-16, 3.33806028805035));
#135 = CARTESIAN_POINT ('', (-1.36775240995189, 1.16184439919108E-16, 1.8974358974359));
#136 = CARTESIAN_POINT ('', (-26.6576560118759, -6., 6.));
#137 = CARTESIAN_POINT ('', (-22.6377163604795, -6.00000000000001, 6.00000000000001));
#138 = CARTESIAN_POINT ('', (-14.0607216034821, -5.35195576661344, 5.35195576661344));
#139 = CARTESIAN_POINT ('', (-5.69120492523253, -3.33806028805035, 3.33806028805035));
#140 = CARTESIAN_POINT ('', (-1.36775240995189, -1.8974358974359, 1.8974358974359));
#141 = CARTESIAN_POINT ('', (-26.6576560118759, -6., 7.34788079488412E-16));
#142 = CARTESIAN_POINT ('', (-22.6377163604795, -6.00000000000001, 7.34788079488413E-16));
#143 = CARTESIAN_POINT ('', (-14.0607216034821, -5.35195576661344, 6.55425549876136E-16));
#144 = CARTESIAN_POINT ('', (-5.69120492523253, -3.33806028805035, 4.08794484712176E-16));
#145 = CARTESIAN_POINT ('', (-1.36775240995189, -1.8974358974359, 2.32368879838216E-16));
#146 = CARTESIAN_POINT ('', (-26.6576560118759, -6., -6.));
#147 = CARTESIAN_POINT ('', (-22.6377163604795, -6.00000000000001, -6.00000000000001));
#148 = CARTESIAN_POINT ('', (-14.0607216034821, -5.35195576661344, -5.35195576661344));
#149 = CARTESIAN_POINT ('', (-5.69120492523253, -3.33806028805035, -3.33806028805035));
#150 = CARTESIAN_POINT ('', (-1.36775240995189, -1.8974358974359, -1.8974358974359));
#151 = CARTESIAN_POINT ('', (-26.6576560118759, -1.10218211923262E-15, -6.));
#152 = CARTESIAN_POINT ('', (-22.6377163604795, -1.10218211923262E-15, -6.00000000000001));
#153 = CARTESIAN_POINT ('', (-14.0607216034821, -9.83138324814204E-16, -5.35195576661344));
#154 = CARTESIAN_POINT ('', (-5.69120492523253, -6.13191727068263E-16, -3.33806028805035));
#155 = CARTESIAN_POINT ('', (-1.36775240995189, -3.48553319757324E-16, -1.8974358974359));
#156 = CARTESIAN_POINT ('', (-26.6576560118759, 6., -6.));
#157 = CARTESIAN_POINT ('', (-22.6377163604795, 6.00000000000001, -6.00000000000001));
#158 = CARTESIAN_POINT ('', (-14.0607216034821, 5.35195576661344, -5.35195576661344));
#159 = CARTESIAN_POINT ('', (-5.69120492523253, 3.33806028805035, -3.33806028805035));
#160 = CARTESIAN_POINT ('', (-1.36775240995189, 1.8974358974359, -1.8974358974359));
#161 = CARTESIAN_POINT ('', (-26.6576560118759, 6., 0.));
#162 = CARTESIAN_POINT ('', (-22.6377163604795, 6.00000000000001, 0.));
#163 = CARTESIAN_POINT ('', (-14.0607216034821, 5.35195576661344, 0.));
#164 = CARTESIAN_POINT ('', (-5.69120492523253, 3.33806028805035, 0.));
#165 = CARTESIAN_POINT ('', (-1.36775240995189, 1.8974358974359, 0.));
#166 = (
   BOUNDED_SURFACE ()
   B_SPLINE_SURFACE (2, 3, ((#121, #122, #123, #124, #125), (#126, #127, #128, #129, #130), (#131, #132, #133, #134, #135), (#136, #137, #138, #139, #140), (#141, #142, #143, #144, #145), (#146, #147, #148, #149, #150), (#151, #152, #153, #154, #155), (#156, #157, #158, #159, #160), (#161, #162, #163, #164, #165)), .UNSPECIFIED., .T., .F., .U.)
   B_SPLINE_SURFACE_WITH_KNOTS ((3, 2, 2, 2, 3), (4, 1, 4), (0., 0.25, 0.5, 0.75, 1.), (0., 0.468683268123385, 1.), .UNSPECIFIED.)
   GEOMETRIC_REPRESENTATION_ITEM ()
   RATIONAL_B_SPLINE_SURFACE (((1., 1., 1., 1., 1.), (0.707106781186548, 0.707106781186548, 0.707106781186548, 0.707106781186548, 0.707106781186548), (1., 1., 1., 1., 1.), (0.707106781186548, 0.707106781186548, 0.707106781186548, 0.707106781186548, 0.707106781186548), (1., 1., 1., 1., 1.), (0.707106781186548, 0.707106781186548, 0.707106781186548, 0.707106781186548, 0.707106781186548), (1., 1., 1., 1., 1.), (0.707106781186548, 0.707106781186548, 0.707106781186548, 0.707106781186548, 0.707106781186548), (1., 1., 1., 1., 1.)))
   REPRESENTATION_ITEM ('')
   SURFACE ()
);
#167 = ADVANCED_FACE ('', (#120), #166, .T.);
#168 = CARTESIAN_POINT ('', (-84., 6., 0.));
#169 = VERTEX_POINT ('', #168);
#170 = CARTESIAN_POINT ('', (-84., 6., 0.));
#171 = CARTESIAN_POINT ('', (-64.8858853372922, 6., 0.));
#172 = CARTESIAN_POINT ('', (-45.771770674584, 6., 0.));
#173 = CARTESIAN_POINT ('', (-26.6576560118759, 6., 0.));
#174 = B_SPLINE_CURVE_WITH_KNOTS ('', 3, (#170, #171, #172, #173), .UNSPECIFIED., .F., .U., (4, 4), (0., 1.), .UNSPECIFIED.);
#175 = EDGE_CURVE ('', #169, #96, #174, .T.);
#176 = ORIENTED_EDGE ('', *, *, #175, .F.);
#177 = CARTESIAN_POINT ('', (-84., 6., 0.));
#178 = CARTESIAN_POINT ('', (-84., 6., 6.));
#179 = CARTESIAN_POINT ('', (-84., 3.67394039744206E-16, 6.));
#180 = CARTESIAN_POINT ('', (-84., -6., 6.));
#181 = CARTESIAN_POINT ('', (-84., -6., 7.34788079488412E-16));
#182 = CARTESIAN_POINT ('', (-84., -6., -6.));
#183 = CARTESIAN_POINT ('', (-84., -1.10218211923262E-15, -6.));
#184 = CARTESIAN_POINT ('', (-84., 6., -6.));
#185 = CARTESIAN_POINT ('', (-84., 6., 0.));
#186 = (
   BOUNDED_CURVE ()
   B_SPLINE_CURVE (2, (#177, #178, #179, #180, #181, #182, #183, #184, #185), .UNSPECIFIED., .T., .U.)
   B_SPLINE_CURVE_WITH_KNOTS ((3, 2, 2, 2, 3), (0., 0.25, 0.5, 0.75, 1.), .UNSPECIFIED.)
   CURVE ()
   GEOMETRIC_REPRESENTATION_ITEM ()
   RATIONAL_B_SPLINE_CURVE ((1., 0.707106781186548, 1., 0.707106781186548, 1., 0.707106781186548, 1., 0.707106781186548, 1.))
   REPRESENTATION_ITEM ('')
);
#187 = EDGE_CURVE ('', #169, #169, #186, .T.);
#188 = ORIENTED_EDGE ('', *, *, #187, .T.);
#189 = ORIENTED_EDGE ('', *, *, #175, .T.);
#190 = ORIENTED_EDGE ('', *, *, #115, .F.);
#191 = EDGE_LOOP ('', (#176, #188, #189, #190));
#192 = FACE_OUTER_BOUND ('', #191, .T.);
#193 = CARTESIAN_POINT ('', (-84., 6., 0.));
#194 = CARTESIAN_POINT ('', (-64.8858853372922, 6., 0.));
#195 = CARTESIAN_POINT ('', (-45.771770674584, 6., 0.));
#196 = CARTESIAN_POINT ('', (-26.6576560118759, 6., 0.));
#197 = CARTESIAN_POINT ('', (-84., 6., 6.));
#198 = CARTESIAN_POINT ('', (-64.8858853372922, 6., 6.));
#199 = CARTESIAN_POINT ('', (-45.771770674584, 6., 6.));
#200 = CARTESIAN_POINT ('', (-26.6576560118759, 6., 6.));
#201 = CARTESIAN_POINT ('', (-84., 3.67394039744206E-16, 6.));
#202 = CARTESIAN_POINT ('', (-64.8858853372922, 3.67394039744206E-16, 6.));
#203 = CARTESIAN_POINT ('', (-45.771770674584, 3.67394039744206E-16, 6.));
#204 = CARTESIAN_POINT ('', (-26.6576560118759, 3.67394039744206E-16, 6.));
#205 = CARTESIAN_POINT ('', (-84., -6., 6.));
#206 = CARTESIAN_POINT ('', (-64.8858853372922, -6., 6.));
#207 = CARTESIAN_POINT ('', (-45.771770674584, -6., 6.));
#208 = CARTESIAN_POINT ('', (-26.6576560118759, -6., 6.));
#209 = CARTESIAN_POINT ('', (-84., -6., 7.34788079488412E-16));
#210 = CARTESIAN_POINT ('', (-64.8858853372922, -6., 7.34788079488412E-16));
#211 = CARTESIAN_POINT ('', (-45.771770674584, -6., 7.34788079488412E-16));
#212 = CARTESIAN_POINT ('', (-26.6576560118759, -6., 7.34788079488412E-16));
#213 = CARTESIAN_POINT ('', (-84., -6., -6.));
#214 = CARTESIAN_POINT ('', (-64.8858853372922, -6., -6.));
#215 = CARTESIAN_POINT ('', (-45.771770674584, -6., -6.));
#216 = CARTESIAN_POINT ('', (-26.6576560118759, -6., -6.));
#217 = CARTESIAN_POINT ('', (-84., -1.10218211923262E-15, -6.));
#218 = CARTESIAN_POINT ('', (-64.8858853372922, -1.10218211923262E-15, -6.));
#219 = CARTESIAN_POINT ('', (-45.771770674584, -1.10218211923262E-15, -6.));
#220 = CARTESIAN_POINT ('', (-26.6576560118759, -1.10218211923262E-15, -6.));
#221 = CARTESIAN_POINT ('', (-84., 6., -6.));
#222 = CARTESIAN_POINT ('', (-64.8858853372922, 6., -6.));
#223 = CARTESIAN_POINT ('', (-45.771770674584, 6., -6.));
#224 = CARTESIAN_POINT ('', (-26.6576560118759, 6., -6.));
#225 = CARTESIAN_POINT ('', (-84., 6., 0.));
#226 = CARTESIAN_POINT ('', (-64.8858853372922, 6., 0.));
#227 = CARTESIAN_POINT ('', (-45.771770674584, 6., 0.));
#228 = CARTESIAN_POINT ('', (-26.6576560118759, 6., 0.));
#229 = (
   BOUNDED_SURFACE ()
   B_SPLINE_SURFACE (2, 3, ((#193, #194, #195, #196), (#197, #198, #199, #200), (#201, #202, #203, #204), (#205, #206, #207, #208), (#209, #210, #211, #212), (#213, #214, #215, #216), (#217, #218, #219, #220), (#221, #222, #223, #224), (#225, #226, #227, #228)), .UNSPECIFIED., .T., .F., .U.)
   B_SPLINE_SURFACE_WITH_KNOTS ((3, 2, 2, 2, 3), (4, 4), (0., 0.25, 0.5, 0.75, 1.), (0., 1.), .UNSPECIFIED.)
   GEOMETRIC_REPRESENTATION_ITEM ()
   RATIONAL_B_SPLINE_SURFACE (((1., 1., 1., 1.), (0.707106781186548, 0.707106781186548, 0.707106781186548, 0.707106781186548), (1., 1., 1., 1.), (0.707106781186548, 0.707106781186548, 0.707106781186548, 0.707106781186548), (1., 1., 1., 1.), (0.707106781186548, 0.707106781186548, 0.707106781186548, 0.707106781186548), (1., 1., 1., 1.), (0.707106781186548, 0.707106781186548, 0.707106781186548, 0.707106781186548), (1., 1., 1., 1.)))
   REPRESENTATION_ITEM ('')
   SURFACE ()
);
#230 = ADVANCED_FACE ('', (#192), #229, .T.);
#231 = ORIENTED_EDGE ('', *, *, #187, .F.);
#232 = EDGE_LOOP ('', (#231));
#233 = FACE_OUTER_BOUND ('', #232, .T.);
#234 = CARTESIAN_POINT ('', (-84., -6.6, -6.6));
#235 = CARTESIAN_POINT ('', (-84., 6.6, -6.6));
#236 = CARTESIAN_POINT ('', (-84., -6.6, 6.6));
#237 = CARTESIAN_POINT ('', (-84., 6.6, 6.6));
#238 = B_SPLINE_SURFACE_WITH_KNOTS ('', 1, 1, ((#234, #235), (#236, #237)), .UNSPECIFIED., .F., .F., .U., (2, 2), (2, 2), (0., 1.), (0., 1.), .UNSPECIFIED.);
#239 = ADVANCED_FACE ('', (#233), #238, .T.);
#240 = CLOSED_SHELL ('', (#94, #167, #230, #239));
#241 = MANIFOLD_SOLID_BREP ('', #240);
#242 = COLOUR_RGB ('', 0.780392156862745, 0.780392156862745, 0.780392156862745);
#243 = FILL_AREA_STYLE_COLOUR ('', #242);
#244 = FILL_AREA_STYLE ('', (#243));
#245 = SURFACE_STYLE_FILL_AREA (#244);
#246 = SURFACE_SIDE_STYLE ('', (#245));
#247 = SURFACE_STYLE_USAGE (.POSITIVE., #246);
#248 = PRESENTATION_STYLE_ASSIGNMENT ((#247));
#249 = STYLED_ITEM ('', (#248), #241);
#250 = (
   LENGTH_UNIT ()
   NAMED_UNIT (*)
   SI_UNIT (.MILLI., .METRE.)
);
#251 = (
   NAMED_UNIT (*)
   SI_UNIT ($, .STERADIAN.)
   SOLID_ANGLE_UNIT ()
);
#252 = (
   NAMED_UNIT (*)
   PLANE_ANGLE_UNIT ()
   SI_UNIT ($, .RADIAN.)
);
#253 = UNCERTAINTY_MEASURE_WITH_UNIT (LENGTH_MEASURE(0.001), #250, 'DISTANCE_ACCURACY_VALUE', '');
#254 = (
   GEOMETRIC_REPRESENTATION_CONTEXT (3)
   GLOBAL_UNCERTAINTY_ASSIGNED_CONTEXT ((#253))
   GLOBAL_UNIT_ASSIGNED_CONTEXT ((#250, #251, #252))
   REPRESENTATION_CONTEXT ('', '3D')
);
#255 = SHAPE_REPRESENTATION ('', (), #254);
#256 = APPLICATION_CONTEXT ('configuration controlled 3D designs of mechanical parts and assemblies');
#257 = APPLICATION_PROTOCOL_DEFINITION ('International Standard', 'config_control_design', 1997, #256);
#258 = MECHANICAL_CONTEXT ('', #256, 'mechanical');
#259 = PRODUCT ('', '', '', (#258));
#260 = PERSON_AND_ORGANIZATION_ROLE ('design_owner');
#261 = PERSON ('#261', '', $, $, $, $);
#262 = ORGANIZATION ($, '', '');
#263 = PERSON_AND_ORGANIZATION (#261, #262);
#264 = CC_DESIGN_PERSON_AND_ORGANIZATION_ASSIGNMENT (#263, #260, (#259));
#265 = PRODUCT_RELATED_PRODUCT_CATEGORY ('detail', $, (#259));
#266 = PRODUCT_DEFINITION_FORMATION_WITH_SPECIFIED_SOURCE ('', '', #259, .NOT_KNOWN.);
#267 = APPROVAL_STATUS ('approved');
#268 = APPROVAL (#267, '');
#269 = CALENDAR_DATE (2024, 17, 9);
#270 = COORDINATED_UNIVERSAL_TIME_OFFSET (0, $, .AHEAD.);
#271 = LOCAL_TIME (9, 35, 20., #270);
#272 = DATE_AND_TIME (#269, #271);
#273 = APPROVAL_DATE_TIME (#272, #268);
#274 = APPROVAL_ROLE ('');
#275 = PERSON ('#275', '', $, $, $, $);
#276 = ORGANIZATION ($, '', '');
#277 = PERSON_AND_ORGANIZATION (#275, #276);
#278 = APPROVAL_PERSON_ORGANIZATION (#277, #268, #274);
#279 = CC_DESIGN_APPROVAL (#268, (#266));
#280 = PERSON_AND_ORGANIZATION_ROLE ('creator');
#281 = PERSON ('#281', '', $, $, $, $);
#282 = ORGANIZATION ($, '', '');
#283 = PERSON_AND_ORGANIZATION (#281, #282);
#284 = CC_DESIGN_PERSON_AND_ORGANIZATION_ASSIGNMENT (#283, #280, (#266));
#285 = PERSON_AND_ORGANIZATION_ROLE ('part_supplier');
#286 = PERSON ('#286', '', $, $, $, $);
#287 = ORGANIZATION ($, '', '');
#288 = PERSON_AND_ORGANIZATION (#286, #287);
#289 = CC_DESIGN_PERSON_AND_ORGANIZATION_ASSIGNMENT (#288, #285, (#266));
#290 = SECURITY_CLASSIFICATION_LEVEL ('unclassified');
#291 = SECURITY_CLASSIFICATION ('', '', #290);
#292 = APPROVAL_STATUS ('approved');
#293 = APPROVAL (#292, '');
#294 = CALENDAR_DATE (2024, 17, 9);
#295 = COORDINATED_UNIVERSAL_TIME_OFFSET (0, $, .AHEAD.);
#296 = LOCAL_TIME (9, 35, 20., #295);
#297 = DATE_AND_TIME (#294, #296);
#298 = APPROVAL_DATE_TIME (#297, #293);
#299 = APPROVAL_ROLE ('');
#300 = PERSON ('#300', '', $, $, $, $);
#301 = ORGANIZATION ($, '', '');
#302 = PERSON_AND_ORGANIZATION (#300, #301);
#303 = APPROVAL_PERSON_ORGANIZATION (#302, #293, #299);
#304 = CC_DESIGN_APPROVAL (#293, (#291));
#305 = DATE_TIME_ROLE ('classification_date');
#306 = CALENDAR_DATE (2024, 17, 9);
#307 = COORDINATED_UNIVERSAL_TIME_OFFSET (0, $, .AHEAD.);
#308 = LOCAL_TIME (9, 35, 20., #307);
#309 = DATE_AND_TIME (#306, #308);
#310 = CC_DESIGN_DATE_AND_TIME_ASSIGNMENT (#309, #305, (#291));
#311 = PERSON_AND_ORGANIZATION_ROLE ('classification_officer');
#312 = PERSON ('#312', '', $, $, $, $);
#313 = ORGANIZATION ($, '', '');
#314 = PERSON_AND_ORGANIZATION (#312, #313);
#315 = CC_DESIGN_PERSON_AND_ORGANIZATION_ASSIGNMENT (#314, #311, (#291));
#316 = CC_DESIGN_SECURITY_CLASSIFICATION (#291, (#266));
#317 = DESIGN_CONTEXT ('', #256, 'design');
#318 = APPROVAL_STATUS ('approved');
#319 = APPROVAL (#318, '');
#320 = CALENDAR_DATE (2024, 17, 9);
#321 = COORDINATED_UNIVERSAL_TIME_OFFSET (0, $, .AHEAD.);
#322 = LOCAL_TIME (9, 35, 20., #321);
#323 = DATE_AND_TIME (#320, #322);
#324 = APPROVAL_DATE_TIME (#323, #319);
#325 = APPROVAL_ROLE ('');
#326 = PERSON ('#326', '', $, $, $, $);
#327 = ORGANIZATION ($, '', '');
#328 = PERSON_AND_ORGANIZATION (#326, #327);
#329 = APPROVAL_PERSON_ORGANIZATION (#328, #319, #325);
#330 = CC_DESIGN_APPROVAL (#319, (*));
#331 = DATE_TIME_ROLE ('creation_date');
#332 = CALENDAR_DATE (2024, 17, 9);
#333 = COORDINATED_UNIVERSAL_TIME_OFFSET (0, $, .AHEAD.);
#334 = LOCAL_TIME (9, 35, 20., #333);
#335 = DATE_AND_TIME (#332, #334);
#336 = CC_DESIGN_DATE_AND_TIME_ASSIGNMENT (#335, #331, (*));
#337 = PERSON_AND_ORGANIZATION_ROLE ('creator');
#338 = PERSON ('#338', '', $, $, $, $);
#339 = ORGANIZATION ($, '', '');
#340 = PERSON_AND_ORGANIZATION (#338, #339);
#341 = CC_DESIGN_PERSON_AND_ORGANIZATION_ASSIGNMENT (#340, #337, (*));
#342 = PRODUCT_DEFINITION ('', '', #266, #317);
#343 = PRODUCT_DEFINITION_SHAPE ('', '', #342);
#344 = SHAPE_DEFINITION_REPRESENTATION (#343, #255);
#345 = SHAPE_REPRESENTATION_RELATIONSHIP ('', '', #255, #346);
#346 = ADVANCED_BREP_SHAPE_REPRESENTATION ('', (#241), #254);
ENDSEC;
END-ISO-10303-21;
