ISO-10303-21;
HEADER;
FILE_DESCRIPTION (('STEP'), '1');
FILE_NAME ('C:\\Users\\JHayes\\OneDrive - MAFord Europe\\Files\\M\\M.A.FORD\\STEP FILES\\XFO\\XFO-6M10R85AQ.STP', '2024-09-17T09:29:36', ('Unknown'), ('M.A.FORD'), 'OneCNC-XR9 Mill 3D Expert', 'OneCNC-XR9 Mill 3D Expert', '');
FILE_SCHEMA (('CONFIG_CONTROL_DESIGN'));
ENDSEC;

DATA;
#1 = CARTESIAN_POINT ('', (-24.113344387496, 5., 0.));
#2 = VERTEX_POINT ('', #1);
#3 = CARTESIAN_POINT ('', (-1.46714832801214, 1.92771084337349, 0.));
#4 = VERTEX_POINT ('', #3);
#5 = CARTESIAN_POINT ('', (-24.113344387496, 5., 0.));
#6 = CARTESIAN_POINT ('', (-20.5319762312719, 5.00000000000001, 0.));
#7 = CARTESIAN_POINT ('', (-12.8910029851811, 4.51626555393054, 0.));
#8 = CARTESIAN_POINT ('', (-5.38006212352135, 3.00930597235698, 0.));
#9 = CARTESIAN_POINT ('', (-1.46714832801214, 1.92771084337349, 0.));
#10 = B_SPLINE_CURVE_WITH_KNOTS ('', 3, (#5, #6, #7, #8, #9), .UNSPECIFIED., .F., .U., (4, 1, 4), (0., 0.468703121881658, 1.), .UNSPECIFIED.);
#11 = EDGE_CURVE ('', #2, #4, #10, .T.);
#12 = ORIENTED_EDGE ('', *, *, #11, .F.);
#13 = CARTESIAN_POINT ('', (-24.113344387496, 5., 0.));
#14 = CARTESIAN_POINT ('', (-24.113344387496, 5., 5.));
#15 = CARTESIAN_POINT ('', (-24.113344387496, 3.06161699786838E-16, 5.));
#16 = CARTESIAN_POINT ('', (-24.113344387496, -5., 5.));
#17 = CARTESIAN_POINT ('', (-24.113344387496, -5., 6.12323399573677E-16));
#18 = CARTESIAN_POINT ('', (-24.113344387496, -5., -5.));
#19 = CARTESIAN_POINT ('', (-24.113344387496, -9.18485099360515E-16, -5.));
#20 = CARTESIAN_POINT ('', (-24.113344387496, 5., -5.));
#21 = CARTESIAN_POINT ('', (-24.113344387496, 5., 0.));
#22 = (
   BOUNDED_CURVE ()
   B_SPLINE_CURVE (2, (#13, #14, #15, #16, #17, #18, #19, #20, #21), .UNSPECIFIED., .T., .U.)
   B_SPLINE_CURVE_WITH_KNOTS ((3, 2, 2, 2, 3), (0., 0.25, 0.5, 0.75, 1.), .UNSPECIFIED.)
   CURVE ()
   GEOMETRIC_REPRESENTATION_ITEM ()
   RATIONAL_B_SPLINE_CURVE ((1., 0.707106781186548, 1., 0.707106781186548, 1., 0.707106781186548, 1., 0.707106781186548, 1.))
   REPRESENTATION_ITEM ('')
);
#23 = EDGE_CURVE ('', #2, #2, #22, .T.);
#24 = ORIENTED_EDGE ('', *, *, #23, .T.);
#25 = ORIENTED_EDGE ('', *, *, #11, .T.);
#26 = CARTESIAN_POINT ('', (-1.46714832801214, 1.92771084337349, 0.));
#27 = CARTESIAN_POINT ('', (-1.46714832801214, 1.92771084337349, 1.92771084337349));
#28 = CARTESIAN_POINT ('', (-1.46714832801214, 1.18038245700949E-16, 1.92771084337349));
#29 = CARTESIAN_POINT ('', (-1.46714832801214, -1.92771084337349, 1.92771084337349));
#30 = CARTESIAN_POINT ('', (-1.46714832801214, -1.92771084337349, 2.36076491401899E-16));
#31 = CARTESIAN_POINT ('', (-1.46714832801214, -1.92771084337349, -1.92771084337349));
#32 = CARTESIAN_POINT ('', (-1.46714832801214, -3.54114737102848E-16, -1.92771084337349));
#33 = CARTESIAN_POINT ('', (-1.46714832801214, 1.92771084337349, -1.92771084337349));
#34 = CARTESIAN_POINT ('', (-1.46714832801214, 1.92771084337349, 0.));
#35 = (
   BOUNDED_CURVE ()
   B_SPLINE_CURVE (2, (#26, #27, #28, #29, #30, #31, #32, #33, #34), .UNSPECIFIED., .T., .U.)
   B_SPLINE_CURVE_WITH_KNOTS ((3, 2, 2, 2, 3), (0., 0.25, 0.5, 0.75, 1.), .UNSPECIFIED.)
   CURVE ()
   GEOMETRIC_REPRESENTATION_ITEM ()
   RATIONAL_B_SPLINE_CURVE ((1., 0.707106781186548, 1., 0.707106781186548, 1., 0.707106781186548, 1., 0.707106781186548, 1.))
   REPRESENTATION_ITEM ('')
);
#36 = EDGE_CURVE ('', #4, #4, #35, .T.);
#37 = ORIENTED_EDGE ('', *, *, #36, .F.);
#38 = EDGE_LOOP ('', (#12, #24, #25, #37));
#39 = FACE_OUTER_BOUND ('', #38, .T.);
#40 = CARTESIAN_POINT ('', (-24.113344387496, 5., 0.));
#41 = CARTESIAN_POINT ('', (-20.5319762312719, 5.00000000000001, 0.));
#42 = CARTESIAN_POINT ('', (-12.8910029851811, 4.51626555393054, 0.));
#43 = CARTESIAN_POINT ('', (-5.38006212352135, 3.00930597235698, 0.));
#44 = CARTESIAN_POINT ('', (-1.46714832801214, 1.92771084337349, 0.));
#45 = CARTESIAN_POINT ('', (-24.113344387496, 5., 5.));
#46 = CARTESIAN_POINT ('', (-20.5319762312719, 5.00000000000001, 5.00000000000001));
#47 = CARTESIAN_POINT ('', (-12.8910029851811, 4.51626555393054, 4.51626555393054));
#48 = CARTESIAN_POINT ('', (-5.38006212352135, 3.00930597235698, 3.00930597235698));
#49 = CARTESIAN_POINT ('', (-1.46714832801214, 1.92771084337349, 1.92771084337349));
#50 = CARTESIAN_POINT ('', (-24.113344387496, 3.06161699786838E-16, 5.));
#51 = CARTESIAN_POINT ('', (-20.5319762312719, 3.06161699786839E-16, 5.00000000000001));
#52 = CARTESIAN_POINT ('', (-12.8910029851811, 2.76541507736024E-16, 4.51626555393054));
#53 = CARTESIAN_POINT ('', (-5.38006212352135, 1.84266846335099E-16, 3.00930597235698));
#54 = CARTESIAN_POINT ('', (-1.46714832801214, 1.18038245700949E-16, 1.92771084337349));
#55 = CARTESIAN_POINT ('', (-24.113344387496, -5., 5.));
#56 = CARTESIAN_POINT ('', (-20.5319762312719, -5.00000000000001, 5.00000000000001));
#57 = CARTESIAN_POINT ('', (-12.8910029851811, -4.51626555393054, 4.51626555393054));
#58 = CARTESIAN_POINT ('', (-5.38006212352135, -3.00930597235698, 3.00930597235698));
#59 = CARTESIAN_POINT ('', (-1.46714832801214, -1.92771084337349, 1.92771084337349));
#60 = CARTESIAN_POINT ('', (-24.113344387496, -5., 6.12323399573677E-16));
#61 = CARTESIAN_POINT ('', (-20.5319762312719, -5.00000000000001, 6.12323399573678E-16));
#62 = CARTESIAN_POINT ('', (-12.8910029851811, -4.51626555393054, 5.53083015472048E-16));
#63 = CARTESIAN_POINT ('', (-5.38006212352135, -3.00930597235698, 3.68533692670199E-16));
#64 = CARTESIAN_POINT ('', (-1.46714832801214, -1.92771084337349, 2.36076491401899E-16));
#65 = CARTESIAN_POINT ('', (-24.113344387496, -5., -5.));
#66 = CARTESIAN_POINT ('', (-20.5319762312719, -5.00000000000001, -5.00000000000001));
#67 = CARTESIAN_POINT ('', (-12.8910029851811, -4.51626555393054, -4.51626555393053));
#68 = CARTESIAN_POINT ('', (-5.38006212352135, -3.00930597235698, -3.00930597235698));
#69 = CARTESIAN_POINT ('', (-1.46714832801214, -1.92771084337349, -1.92771084337349));
#70 = CARTESIAN_POINT ('', (-24.113344387496, -9.18485099360515E-16, -5.));
#71 = CARTESIAN_POINT ('', (-20.5319762312719, -9.18485099360517E-16, -5.00000000000001));
#72 = CARTESIAN_POINT ('', (-12.8910029851811, -8.29624523208072E-16, -4.51626555393054));
#73 = CARTESIAN_POINT ('', (-5.38006212352135, -5.52800539005298E-16, -3.00930597235698));
#74 = CARTESIAN_POINT ('', (-1.46714832801214, -3.54114737102848E-16, -1.92771084337349));
#75 = CARTESIAN_POINT ('', (-24.113344387496, 5., -5.));
#76 = CARTESIAN_POINT ('', (-20.5319762312719, 5.00000000000001, -5.00000000000001));
#77 = CARTESIAN_POINT ('', (-12.8910029851811, 4.51626555393053, -4.51626555393054));
#78 = CARTESIAN_POINT ('', (-5.38006212352135, 3.00930597235698, -3.00930597235698));
#79 = CARTESIAN_POINT ('', (-1.46714832801214, 1.92771084337349, -1.92771084337349));
#80 = CARTESIAN_POINT ('', (-24.113344387496, 5., 0.));
#81 = CARTESIAN_POINT ('', (-20.5319762312719, 5.00000000000001, 0.));
#82 = CARTESIAN_POINT ('', (-12.8910029851811, 4.51626555393054, 0.));
#83 = CARTESIAN_POINT ('', (-5.38006212352135, 3.00930597235698, 0.));
#84 = CARTESIAN_POINT ('', (-1.46714832801214, 1.92771084337349, 0.));
#85 = (
   BOUNDED_SURFACE ()
   B_SPLINE_SURFACE (2, 3, ((#40, #41, #42, #43, #44), (#45, #46, #47, #48, #49), (#50, #51, #52, #53, #54), (#55, #56, #57, #58, #59), (#60, #61, #62, #63, #64), (#65, #66, #67, #68, #69), (#70, #71, #72, #73, #74), (#75, #76, #77, #78, #79), (#80, #81, #82, #83, #84)), .UNSPECIFIED., .T., .F., .U.)
   B_SPLINE_SURFACE_WITH_KNOTS ((3, 2, 2, 2, 3), (4, 1, 4), (0., 0.25, 0.5, 0.75, 1.), (0., 0.468703121881658, 1.), .UNSPECIFIED.)
   GEOMETRIC_REPRESENTATION_ITEM ()
   RATIONAL_B_SPLINE_SURFACE (((1., 1., 1., 1., 1.), (0.707106781186548, 0.707106781186548, 0.707106781186548, 0.707106781186548, 0.707106781186548), (1., 1., 1., 1., 1.), (0.707106781186548, 0.707106781186548, 0.707106781186548, 0.707106781186548, 0.707106781186548), (1., 1., 1., 1., 1.), (0.707106781186548, 0.707106781186548, 0.707106781186548, 0.707106781186548, 0.707106781186548), (1., 1., 1., 1., 1.), (0.707106781186548, 0.707106781186548, 0.707106781186548, 0.707106781186548, 0.707106781186548), (1., 1., 1., 1., 1.)))
   REPRESENTATION_ITEM ('')
   SURFACE ()
);
#86 = ADVANCED_FACE ('', (#39), #85, .T.);
#87 = CARTESIAN_POINT ('', (-72., 5., 0.));
#88 = VERTEX_POINT ('', #87);
#89 = CARTESIAN_POINT ('', (-72., 5., 0.));
#90 = CARTESIAN_POINT ('', (-56.0377814624985, 5., 0.));
#91 = CARTESIAN_POINT ('', (-40.0755629249972, 5., 0.));
#92 = CARTESIAN_POINT ('', (-24.113344387496, 5., 0.));
#93 = B_SPLINE_CURVE_WITH_KNOTS ('', 3, (#89, #90, #91, #92), .UNSPECIFIED., .F., .U., (4, 4), (0., 1.), .UNSPECIFIED.);
#94 = EDGE_CURVE ('', #88, #2, #93, .T.);
#95 = ORIENTED_EDGE ('', *, *, #94, .F.);
#96 = CARTESIAN_POINT ('', (-72., 5., 0.));
#97 = CARTESIAN_POINT ('', (-72., 5., 5.));
#98 = CARTESIAN_POINT ('', (-72., 3.06161699786838E-16, 5.));
#99 = CARTESIAN_POINT ('', (-72., -5., 5.));
#100 = CARTESIAN_POINT ('', (-72., -5., 6.12323399573677E-16));
#101 = CARTESIAN_POINT ('', (-72., -5., -5.));
#102 = CARTESIAN_POINT ('', (-72., -9.18485099360515E-16, -5.));
#103 = CARTESIAN_POINT ('', (-72., 5., -5.));
#104 = CARTESIAN_POINT ('', (-72., 5., 0.));
#105 = (
   BOUNDED_CURVE ()
   B_SPLINE_CURVE (2, (#96, #97, #98, #99, #100, #101, #102, #103, #104), .UNSPECIFIED., .T., .U.)
   B_SPLINE_CURVE_WITH_KNOTS ((3, 2, 2, 2, 3), (0., 0.25, 0.5, 0.75, 1.), .UNSPECIFIED.)
   CURVE ()
   GEOMETRIC_REPRESENTATION_ITEM ()
   RATIONAL_B_SPLINE_CURVE ((1., 0.707106781186548, 1., 0.707106781186548, 1., 0.707106781186548, 1., 0.707106781186548, 1.))
   REPRESENTATION_ITEM ('')
);
#106 = EDGE_CURVE ('', #88, #88, #105, .T.);
#107 = ORIENTED_EDGE ('', *, *, #106, .T.);
#108 = ORIENTED_EDGE ('', *, *, #94, .T.);
#109 = ORIENTED_EDGE ('', *, *, #23, .F.);
#110 = EDGE_LOOP ('', (#95, #107, #108, #109));
#111 = FACE_OUTER_BOUND ('', #110, .T.);
#112 = CARTESIAN_POINT ('', (-72., 5., 0.));
#113 = CARTESIAN_POINT ('', (-56.0377814624985, 5., 0.));
#114 = CARTESIAN_POINT ('', (-40.0755629249972, 5., 0.));
#115 = CARTESIAN_POINT ('', (-24.113344387496, 5., 0.));
#116 = CARTESIAN_POINT ('', (-72., 5., 5.));
#117 = CARTESIAN_POINT ('', (-56.0377814624985, 5., 5.));
#118 = CARTESIAN_POINT ('', (-40.0755629249972, 5., 5.));
#119 = CARTESIAN_POINT ('', (-24.113344387496, 5., 5.));
#120 = CARTESIAN_POINT ('', (-72., 3.06161699786838E-16, 5.));
#121 = CARTESIAN_POINT ('', (-56.0377814624985, 3.06161699786838E-16, 5.));
#122 = CARTESIAN_POINT ('', (-40.0755629249972, 3.06161699786838E-16, 5.));
#123 = CARTESIAN_POINT ('', (-24.113344387496, 3.06161699786838E-16, 5.));
#124 = CARTESIAN_POINT ('', (-72., -5., 5.));
#125 = CARTESIAN_POINT ('', (-56.0377814624985, -5., 5.));
#126 = CARTESIAN_POINT ('', (-40.0755629249972, -5., 5.));
#127 = CARTESIAN_POINT ('', (-24.113344387496, -5., 5.));
#128 = CARTESIAN_POINT ('', (-72., -5., 6.12323399573677E-16));
#129 = CARTESIAN_POINT ('', (-56.0377814624985, -5., 6.12323399573677E-16));
#130 = CARTESIAN_POINT ('', (-40.0755629249972, -5., 6.12323399573677E-16));
#131 = CARTESIAN_POINT ('', (-24.113344387496, -5., 6.12323399573677E-16));
#132 = CARTESIAN_POINT ('', (-72., -5., -5.));
#133 = CARTESIAN_POINT ('', (-56.0377814624985, -5., -5.));
#134 = CARTESIAN_POINT ('', (-40.0755629249972, -5., -5.));
#135 = CARTESIAN_POINT ('', (-24.113344387496, -5., -5.));
#136 = CARTESIAN_POINT ('', (-72., -9.18485099360515E-16, -5.));
#137 = CARTESIAN_POINT ('', (-56.0377814624985, -9.18485099360515E-16, -5.));
#138 = CARTESIAN_POINT ('', (-40.0755629249972, -9.18485099360515E-16, -5.));
#139 = CARTESIAN_POINT ('', (-24.113344387496, -9.18485099360515E-16, -5.));
#140 = CARTESIAN_POINT ('', (-72., 5., -5.));
#141 = CARTESIAN_POINT ('', (-56.0377814624985, 5., -5.));
#142 = CARTESIAN_POINT ('', (-40.0755629249972, 5., -5.));
#143 = CARTESIAN_POINT ('', (-24.113344387496, 5., -5.));
#144 = CARTESIAN_POINT ('', (-72., 5., 0.));
#145 = CARTESIAN_POINT ('', (-56.0377814624985, 5., 0.));
#146 = CARTESIAN_POINT ('', (-40.0755629249972, 5., 0.));
#147 = CARTESIAN_POINT ('', (-24.113344387496, 5., 0.));
#148 = (
   BOUNDED_SURFACE ()
   B_SPLINE_SURFACE (2, 3, ((#112, #113, #114, #115), (#116, #117, #118, #119), (#120, #121, #122, #123), (#124, #125, #126, #127), (#128, #129, #130, #131), (#132, #133, #134, #135), (#136, #137, #138, #139), (#140, #141, #142, #143), (#144, #145, #146, #147)), .UNSPECIFIED., .T., .F., .U.)
   B_SPLINE_SURFACE_WITH_KNOTS ((3, 2, 2, 2, 3), (4, 4), (0., 0.25, 0.5, 0.75, 1.), (0., 1.), .UNSPECIFIED.)
   GEOMETRIC_REPRESENTATION_ITEM ()
   RATIONAL_B_SPLINE_SURFACE (((1., 1., 1., 1.), (0.707106781186548, 0.707106781186548, 0.707106781186548, 0.707106781186548), (1., 1., 1., 1.), (0.707106781186548, 0.707106781186548, 0.707106781186548, 0.707106781186548), (1., 1., 1., 1.), (0.707106781186548, 0.707106781186548, 0.707106781186548, 0.707106781186548), (1., 1., 1., 1.), (0.707106781186548, 0.707106781186548, 0.707106781186548, 0.707106781186548), (1., 1., 1., 1.)))
   REPRESENTATION_ITEM ('')
   SURFACE ()
);
#149 = ADVANCED_FACE ('', (#111), #148, .T.);
#150 = ORIENTED_EDGE ('', *, *, #106, .F.);
#151 = EDGE_LOOP ('', (#150));
#152 = FACE_OUTER_BOUND ('', #151, .T.);
#153 = CARTESIAN_POINT ('', (-72., -5.5, -5.5));
#154 = CARTESIAN_POINT ('', (-72., 5.5, -5.5));
#155 = CARTESIAN_POINT ('', (-72., -5.5, 5.5));
#156 = CARTESIAN_POINT ('', (-72., 5.5, 5.5));
#157 = B_SPLINE_SURFACE_WITH_KNOTS ('', 1, 1, ((#153, #154), (#155, #156)), .UNSPECIFIED., .F., .F., .U., (2, 2), (2, 2), (0., 1.), (0., 1.), .UNSPECIFIED.);
#158 = ADVANCED_FACE ('', (#152), #157, .T.);
#159 = CARTESIAN_POINT ('', (0., 0., 0.));
#160 = VERTEX_POINT ('', #159);
#161 = CARTESIAN_POINT ('', (-1.46714832801215, 1.92771084337349, 0.));
#162 = CARTESIAN_POINT ('', (-1.23732984809426, 1.86418515346055, 0.));
#163 = CARTESIAN_POINT ('', (-0.814682899602714, 1.66054355567594, 0.));
#164 = CARTESIAN_POINT ('', (-0.367944499735093, 1.20530131869645, 0.));
#165 = CARTESIAN_POINT ('', (-0.0735091699196115, 0.643911374351929, 0.));
#166 = CARTESIAN_POINT ('', (0., 0.238436672914808, 0.));
#167 = CARTESIAN_POINT ('', (0., 0., 0.));
#168 = B_SPLINE_CURVE_WITH_KNOTS ('', 3, (#161, #162, #163, #164, #165, #166, #167), .UNSPECIFIED., .F., .U., (4, 1, 1, 1, 4), (0., 0.274883810268143, 0.532386338154872, 0.725116189731857, 1.), .UNSPECIFIED.);
#169 = EDGE_CURVE ('', #4, #160, #168, .T.);
#170 = ORIENTED_EDGE ('', *, *, #169, .F.);
#171 = ORIENTED_EDGE ('', *, *, #36, .T.);
#172 = ORIENTED_EDGE ('', *, *, #169, .T.);
#173 = EDGE_LOOP ('', (#170, #171, #172));
#174 = FACE_OUTER_BOUND ('', #173, .T.);
#175 = CARTESIAN_POINT ('', (-1.46714832801215, 1.92771084337349, 0.));
#176 = CARTESIAN_POINT ('', (-1.23732984809426, 1.86418515346055, 0.));
#177 = CARTESIAN_POINT ('', (-0.814682899602714, 1.66054355567594, 0.));
#178 = CARTESIAN_POINT ('', (-0.367944499735093, 1.20530131869645, 0.));
#179 = CARTESIAN_POINT ('', (-0.0735091699196115, 0.643911374351929, 0.));
#180 = CARTESIAN_POINT ('', (0., 0.238436672914808, 0.));
#181 = CARTESIAN_POINT ('', (0., 0., 0.));
#182 = CARTESIAN_POINT ('', (-1.46714832801215, 1.92771084337349, 1.92771084337349));
#183 = CARTESIAN_POINT ('', (-1.23732984809426, 1.86418515346055, 1.86418515346055));
#184 = CARTESIAN_POINT ('', (-0.814682899602714, 1.66054355567594, 1.66054355567594));
#185 = CARTESIAN_POINT ('', (-0.367944499735093, 1.20530131869645, 1.20530131869645));
#186 = CARTESIAN_POINT ('', (-0.0735091699196115, 0.643911374351929, 0.643911374351929));
#187 = CARTESIAN_POINT ('', (0., 0.238436672914808, 0.238436672914808));
#188 = CARTESIAN_POINT ('', (0., 0., 0.));
#189 = CARTESIAN_POINT ('', (-1.46714832801215, 1.1803824570095E-16, 1.92771084337349));
#190 = CARTESIAN_POINT ('', (-1.23732984809426, 1.14148419060174E-16, 1.86418515346055));
#191 = CARTESIAN_POINT ('', (-0.814682899602714, 1.01678967515165E-16, 1.66054355567594));
#192 = CARTESIAN_POINT ('', (-0.367944499735093, 7.38034200974844E-17, 1.20530131869645));
#193 = CARTESIAN_POINT ('', (-0.0735091699196115, 3.94282001767331E-17, 0.643911374351929));
#194 = CARTESIAN_POINT ('', (0., 1.46000354142232E-17, 0.238436672914808));
#195 = CARTESIAN_POINT ('', (0., 0., 0.));
#196 = CARTESIAN_POINT ('', (-1.46714832801215, -1.92771084337349, 1.92771084337349));
#197 = CARTESIAN_POINT ('', (-1.23732984809426, -1.86418515346055, 1.86418515346055));
#198 = CARTESIAN_POINT ('', (-0.814682899602714, -1.66054355567594, 1.66054355567594));
#199 = CARTESIAN_POINT ('', (-0.367944499735093, -1.20530131869645, 1.20530131869645));
#200 = CARTESIAN_POINT ('', (-0.0735091699196115, -0.643911374351928, 0.643911374351929));
#201 = CARTESIAN_POINT ('', (0., -0.238436672914808, 0.238436672914808));
#202 = CARTESIAN_POINT ('', (0., 0., 0.));
#203 = CARTESIAN_POINT ('', (-1.46714832801215, -1.92771084337349, 2.36076491401899E-16));
#204 = CARTESIAN_POINT ('', (-1.23732984809426, -1.86418515346055, 2.28296838120349E-16));
#205 = CARTESIAN_POINT ('', (-0.814682899602714, -1.66054355567594, 2.03357935030331E-16));
#206 = CARTESIAN_POINT ('', (-0.367944499735093, -1.20530131869645, 1.47606840194969E-16));
#207 = CARTESIAN_POINT ('', (-0.0735091699196115, -0.643911374351929, 7.88564003534662E-17));
#208 = CARTESIAN_POINT ('', (0., -0.238436672914808, 2.92000708284464E-17));
#209 = CARTESIAN_POINT ('', (0., 0., 0.));
#210 = CARTESIAN_POINT ('', (-1.46714832801215, -1.92771084337349, -1.92771084337349));
#211 = CARTESIAN_POINT ('', (-1.23732984809426, -1.86418515346055, -1.86418515346055));
#212 = CARTESIAN_POINT ('', (-0.814682899602714, -1.66054355567594, -1.66054355567594));
#213 = CARTESIAN_POINT ('', (-0.367944499735093, -1.20530131869645, -1.20530131869645));
#214 = CARTESIAN_POINT ('', (-0.0735091699196115, -0.643911374351929, -0.643911374351928));
#215 = CARTESIAN_POINT ('', (0., -0.238436672914808, -0.238436672914808));
#216 = CARTESIAN_POINT ('', (0., 0., 0.));
#217 = CARTESIAN_POINT ('', (-1.46714832801215, -3.54114737102849E-16, -1.92771084337349));
#218 = CARTESIAN_POINT ('', (-1.23732984809426, -3.42445257180523E-16, -1.86418515346055));
#219 = CARTESIAN_POINT ('', (-0.814682899602714, -3.05036902545496E-16, -1.66054355567594));
#220 = CARTESIAN_POINT ('', (-0.367944499735093, -2.21410260292453E-16, -1.20530131869645));
#221 = CARTESIAN_POINT ('', (-0.0735091699196115, -1.18284600530199E-16, -0.643911374351929));
#222 = CARTESIAN_POINT ('', (0., -4.38001062426696E-17, -0.238436672914808));
#223 = CARTESIAN_POINT ('', (0., 0., 0.));
#224 = CARTESIAN_POINT ('', (-1.46714832801215, 1.92771084337349, -1.92771084337349));
#225 = CARTESIAN_POINT ('', (-1.23732984809426, 1.86418515346055, -1.86418515346055));
#226 = CARTESIAN_POINT ('', (-0.814682899602714, 1.66054355567594, -1.66054355567594));
#227 = CARTESIAN_POINT ('', (-0.367944499735093, 1.20530131869645, -1.20530131869645));
#228 = CARTESIAN_POINT ('', (-0.0735091699196115, 0.643911374351928, -0.643911374351929));
#229 = CARTESIAN_POINT ('', (0., 0.238436672914808, -0.238436672914808));
#230 = CARTESIAN_POINT ('', (0., 0., 0.));
#231 = CARTESIAN_POINT ('', (-1.46714832801215, 1.92771084337349, 0.));
#232 = CARTESIAN_POINT ('', (-1.23732984809426, 1.86418515346055, 0.));
#233 = CARTESIAN_POINT ('', (-0.814682899602714, 1.66054355567594, 0.));
#234 = CARTESIAN_POINT ('', (-0.367944499735093, 1.20530131869645, 0.));
#235 = CARTESIAN_POINT ('', (-0.0735091699196115, 0.643911374351929, 0.));
#236 = CARTESIAN_POINT ('', (0., 0.238436672914808, 0.));
#237 = CARTESIAN_POINT ('', (0., 0., 0.));
#238 = (
   BOUNDED_SURFACE ()
   B_SPLINE_SURFACE (2, 3, ((#175, #176, #177, #178, #179, #180, #181), (#182, #183, #184, #185, #186, #187, #188), (#189, #190, #191, #192, #193, #194, #195), (#196, #197, #198, #199, #200, #201, #202), (#203, #204, #205, #206, #207, #208, #209), (#210, #211, #212, #213, #214, #215, #216), (#217, #218, #219, #220, #221, #222, #223), (#224, #225, #226, #227, #228, #229, #230), (#231, #232, #233, #234, #235, #236, #237)), .UNSPECIFIED., .T., .F., .U.)
   B_SPLINE_SURFACE_WITH_KNOTS ((3, 2, 2, 2, 3), (4, 1, 1, 1, 4), (0., 0.25, 0.5, 0.75, 1.), (0., 0.274883810268143, 0.532386338154872, 0.725116189731857, 1.), .UNSPECIFIED.)
   GEOMETRIC_REPRESENTATION_ITEM ()
   RATIONAL_B_SPLINE_SURFACE (((1., 1., 1., 1., 1., 1., 1.), (0.707106781186548, 0.707106781186548, 0.707106781186548, 0.707106781186548, 0.707106781186548, 0.707106781186548, 0.707106781186548), (1., 1., 1., 1., 1., 1., 1.), (0.707106781186548, 0.707106781186548, 0.707106781186548, 0.707106781186548, 0.707106781186548, 0.707106781186548, 0.707106781186548), (1., 1., 1., 1., 1., 1., 1.), (0.707106781186548, 0.707106781186548, 0.707106781186548, 0.707106781186548, 0.707106781186548, 0.707106781186548, 0.707106781186548), (1., 1., 1., 1., 1., 1., 1.), (0.707106781186548, 0.707106781186548, 0.707106781186548, 0.707106781186548, 0.707106781186548, 0.707106781186548, 0.707106781186548), (1., 1., 1., 1., 1., 1., 1.)))
   REPRESENTATION_ITEM ('')
   SURFACE ()
);
#239 = ADVANCED_FACE ('', (#174), #238, .T.);
#240 = CLOSED_SHELL ('', (#86, #149, #158, #239));
#241 = MANIFOLD_SOLID_BREP ('', #240);
#242 = COLOUR_RGB ('', 0.780392156862745, 0.780392156862745, 0.780392156862745);
#243 = FILL_AREA_STYLE_COLOUR ('', #242);
#244 = FILL_AREA_STYLE ('', (#243));
#245 = SURFACE_STYLE_FILL_AREA (#244);
#246 = SURFACE_SIDE_STYLE ('', (#245));
#247 = SURFACE_STYLE_USAGE (.POSITIVE., #246);
#248 = PRESENTATION_STYLE_ASSIGNMENT ((#247));
#249 = STYLED_ITEM ('', (#248), #241);
#250 = (
   LENGTH_UNIT ()
   NAMED_UNIT (*)
   SI_UNIT (.MILLI., .METRE.)
);
#251 = (
   NAMED_UNIT (*)
   SI_UNIT ($, .STERADIAN.)
   SOLID_ANGLE_UNIT ()
);
#252 = (
   NAMED_UNIT (*)
   PLANE_ANGLE_UNIT ()
   SI_UNIT ($, .RADIAN.)
);
#253 = UNCERTAINTY_MEASURE_WITH_UNIT (LENGTH_MEASURE(0.001), #250, 'DISTANCE_ACCURACY_VALUE', '');
#254 = (
   GEOMETRIC_REPRESENTATION_CONTEXT (3)
   GLOBAL_UNCERTAINTY_ASSIGNED_CONTEXT ((#253))
   GLOBAL_UNIT_ASSIGNED_CONTEXT ((#250, #251, #252))
   REPRESENTATION_CONTEXT ('', '3D')
);
#255 = SHAPE_REPRESENTATION ('', (), #254);
#256 = APPLICATION_CONTEXT ('configuration controlled 3D designs of mechanical parts and assemblies');
#257 = APPLICATION_PROTOCOL_DEFINITION ('International Standard', 'config_control_design', 1997, #256);
#258 = MECHANICAL_CONTEXT ('', #256, 'mechanical');
#259 = PRODUCT ('', '', '', (#258));
#260 = PERSON_AND_ORGANIZATION_ROLE ('design_owner');
#261 = PERSON ('#261', '', $, $, $, $);
#262 = ORGANIZATION ($, '', '');
#263 = PERSON_AND_ORGANIZATION (#261, #262);
#264 = CC_DESIGN_PERSON_AND_ORGANIZATION_ASSIGNMENT (#263, #260, (#259));
#265 = PRODUCT_RELATED_PRODUCT_CATEGORY ('detail', $, (#259));
#266 = PRODUCT_DEFINITION_FORMATION_WITH_SPECIFIED_SOURCE ('', '', #259, .NOT_KNOWN.);
#267 = APPROVAL_STATUS ('approved');
#268 = APPROVAL (#267, '');
#269 = CALENDAR_DATE (2024, 17, 9);
#270 = COORDINATED_UNIVERSAL_TIME_OFFSET (0, $, .AHEAD.);
#271 = LOCAL_TIME (9, 29, 36., #270);
#272 = DATE_AND_TIME (#269, #271);
#273 = APPROVAL_DATE_TIME (#272, #268);
#274 = APPROVAL_ROLE ('');
#275 = PERSON ('#275', '', $, $, $, $);
#276 = ORGANIZATION ($, '', '');
#277 = PERSON_AND_ORGANIZATION (#275, #276);
#278 = APPROVAL_PERSON_ORGANIZATION (#277, #268, #274);
#279 = CC_DESIGN_APPROVAL (#268, (#266));
#280 = PERSON_AND_ORGANIZATION_ROLE ('creator');
#281 = PERSON ('#281', '', $, $, $, $);
#282 = ORGANIZATION ($, '', '');
#283 = PERSON_AND_ORGANIZATION (#281, #282);
#284 = CC_DESIGN_PERSON_AND_ORGANIZATION_ASSIGNMENT (#283, #280, (#266));
#285 = PERSON_AND_ORGANIZATION_ROLE ('part_supplier');
#286 = PERSON ('#286', '', $, $, $, $);
#287 = ORGANIZATION ($, '', '');
#288 = PERSON_AND_ORGANIZATION (#286, #287);
#289 = CC_DESIGN_PERSON_AND_ORGANIZATION_ASSIGNMENT (#288, #285, (#266));
#290 = SECURITY_CLASSIFICATION_LEVEL ('unclassified');
#291 = SECURITY_CLASSIFICATION ('', '', #290);
#292 = APPROVAL_STATUS ('approved');
#293 = APPROVAL (#292, '');
#294 = CALENDAR_DATE (2024, 17, 9);
#295 = COORDINATED_UNIVERSAL_TIME_OFFSET (0, $, .AHEAD.);
#296 = LOCAL_TIME (9, 29, 36., #295);
#297 = DATE_AND_TIME (#294, #296);
#298 = APPROVAL_DATE_TIME (#297, #293);
#299 = APPROVAL_ROLE ('');
#300 = PERSON ('#300', '', $, $, $, $);
#301 = ORGANIZATION ($, '', '');
#302 = PERSON_AND_ORGANIZATION (#300, #301);
#303 = APPROVAL_PERSON_ORGANIZATION (#302, #293, #299);
#304 = CC_DESIGN_APPROVAL (#293, (#291));
#305 = DATE_TIME_ROLE ('classification_date');
#306 = CALENDAR_DATE (2024, 17, 9);
#307 = COORDINATED_UNIVERSAL_TIME_OFFSET (0, $, .AHEAD.);
#308 = LOCAL_TIME (9, 29, 36., #307);
#309 = DATE_AND_TIME (#306, #308);
#310 = CC_DESIGN_DATE_AND_TIME_ASSIGNMENT (#309, #305, (#291));
#311 = PERSON_AND_ORGANIZATION_ROLE ('classification_officer');
#312 = PERSON ('#312', '', $, $, $, $);
#313 = ORGANIZATION ($, '', '');
#314 = PERSON_AND_ORGANIZATION (#312, #313);
#315 = CC_DESIGN_PERSON_AND_ORGANIZATION_ASSIGNMENT (#314, #311, (#291));
#316 = CC_DESIGN_SECURITY_CLASSIFICATION (#291, (#266));
#317 = DESIGN_CONTEXT ('', #256, 'design');
#318 = APPROVAL_STATUS ('approved');
#319 = APPROVAL (#318, '');
#320 = CALENDAR_DATE (2024, 17, 9);
#321 = COORDINATED_UNIVERSAL_TIME_OFFSET (0, $, .AHEAD.);
#322 = LOCAL_TIME (9, 29, 36., #321);
#323 = DATE_AND_TIME (#320, #322);
#324 = APPROVAL_DATE_TIME (#323, #319);
#325 = APPROVAL_ROLE ('');
#326 = PERSON ('#326', '', $, $, $, $);
#327 = ORGANIZATION ($, '', '');
#328 = PERSON_AND_ORGANIZATION (#326, #327);
#329 = APPROVAL_PERSON_ORGANIZATION (#328, #319, #325);
#330 = CC_DESIGN_APPROVAL (#319, (*));
#331 = DATE_TIME_ROLE ('creation_date');
#332 = CALENDAR_DATE (2024, 17, 9);
#333 = COORDINATED_UNIVERSAL_TIME_OFFSET (0, $, .AHEAD.);
#334 = LOCAL_TIME (9, 29, 36., #333);
#335 = DATE_AND_TIME (#332, #334);
#336 = CC_DESIGN_DATE_AND_TIME_ASSIGNMENT (#335, #331, (*));
#337 = PERSON_AND_ORGANIZATION_ROLE ('creator');
#338 = PERSON ('#338', '', $, $, $, $);
#339 = ORGANIZATION ($, '', '');
#340 = PERSON_AND_ORGANIZATION (#338, #339);
#341 = CC_DESIGN_PERSON_AND_ORGANIZATION_ASSIGNMENT (#340, #337, (*));
#342 = PRODUCT_DEFINITION ('', '', #266, #317);
#343 = PRODUCT_DEFINITION_SHAPE ('', '', #342);
#344 = SHAPE_DEFINITION_REPRESENTATION (#343, #255);
#345 = SHAPE_REPRESENTATION_RELATIONSHIP ('', '', #255, #346);
#346 = ADVANCED_BREP_SHAPE_REPRESENTATION ('', (#241), #254);
ENDSEC;
END-ISO-10303-21;
