ISO-10303-21;
HEADER;
FILE_DESCRIPTION ((), '1');
FILE_NAME ('C:\\Users\\kevin\\113A Range\\113A 0400A.STP', '2020-04-16T15:26:33', ('Unknown'), ('mafordeurope'), 'OneCNC-XR7 Mill 3D Expert', 'OneCNC-XR7 Mill 3D Expert', '');
FILE_SCHEMA (('CONFIG_CONTROL_DESIGN'));
ENDSEC;

DATA;
#1 = CARTESIAN_POINT ('', (-2.44929359829471E-16, 1.49975978266186E-32, -1.49975978266186E-32));
#2 = VERTEX_POINT ('', #1);
#3 = CARTESIAN_POINT ('', (-1.22464679914735E-16, 2., -4.89858719658941E-16));
#4 = VERTEX_POINT ('', #3);
#5 = CARTESIAN_POINT ('', (-2.44929359829471E-16, 1.49975978266186E-32, -1.49975978266186E-32));
#6 = CARTESIAN_POINT ('', (-1.22464679914735E-16, 2., -4.89858719658941E-16));
#7 = B_SPLINE_CURVE_WITH_KNOTS ('', 1, (#5, #6), .UNSPECIFIED., .F., .U., (2, 2), (0., 1.), .UNSPECIFIED.);
#8 = EDGE_CURVE ('', #2, #4, #7, .T.);
#9 = ORIENTED_EDGE ('', *, *, #8, .F.);
#10 = ORIENTED_EDGE ('', *, *, #8, .T.);
#11 = CARTESIAN_POINT ('', (-1.22464679914735E-16, 2., -4.89858719658941E-16));
#12 = CARTESIAN_POINT ('', (-6.12323399573676E-16, 2., 8.));
#13 = CARTESIAN_POINT ('', (-8.57252759403147E-16, -6., 4.));
#14 = CARTESIAN_POINT ('', (-3.67394039744206E-16, -6., -4.));
#15 = CARTESIAN_POINT ('', (3.67394039744206E-16, 2., -8.));
#16 = CARTESIAN_POINT ('', (-1.22464679914735E-16, 2., -4.89858719658941E-16));
#17 = (
   BOUNDED_CURVE ()
   B_SPLINE_CURVE (5, (#11, #12, #13, #14, #15, #16), .UNSPECIFIED., .T., .U.)
   B_SPLINE_CURVE_WITH_KNOTS ((6, 6), (0., 1.), .UNSPECIFIED.)
   CURVE ()
   GEOMETRIC_REPRESENTATION_ITEM ()
   RATIONAL_B_SPLINE_CURVE ((5., 1., 1., 1., 1., 5.))
   REPRESENTATION_ITEM ('')
);
#18 = EDGE_CURVE ('', #4, #4, #17, .T.);
#19 = ORIENTED_EDGE ('', *, *, #18, .F.);
#20 = EDGE_LOOP ('', (#9, #10, #19));
#21 = FACE_OUTER_BOUND ('', #20, .F.);
#22 = CARTESIAN_POINT ('', (-2.44929359829471E-16, 1.49975978266186E-32, -1.49975978266186E-32));
#23 = CARTESIAN_POINT ('', (-1.22464679914735E-16, 2., -4.89858719658941E-16));
#24 = CARTESIAN_POINT ('', (-2.44929359829471E-16, 1.49975978266186E-32, -1.49975978266186E-32));
#25 = CARTESIAN_POINT ('', (-6.12323399573676E-16, 2., 8.));
#26 = CARTESIAN_POINT ('', (-2.44929359829471E-16, 1.49975978266186E-32, -1.49975978266186E-32));
#27 = CARTESIAN_POINT ('', (-8.57252759403147E-16, -6., 4.));
#28 = CARTESIAN_POINT ('', (-2.44929359829471E-16, 1.49975978266186E-32, -1.49975978266186E-32));
#29 = CARTESIAN_POINT ('', (-3.67394039744206E-16, -6., -4.));
#30 = CARTESIAN_POINT ('', (-2.44929359829471E-16, 1.49975978266186E-32, -1.49975978266186E-32));
#31 = CARTESIAN_POINT ('', (3.67394039744206E-16, 2., -8.));
#32 = CARTESIAN_POINT ('', (-2.44929359829471E-16, 1.49975978266186E-32, -1.49975978266186E-32));
#33 = CARTESIAN_POINT ('', (-1.22464679914735E-16, 2., -4.89858719658941E-16));
#34 = (
   BOUNDED_SURFACE ()
   B_SPLINE_SURFACE (5, 1, ((#22, #23), (#24, #25), (#26, #27), (#28, #29), (#30, #31), (#32, #33)), .UNSPECIFIED., .T., .F., .U.)
   B_SPLINE_SURFACE_WITH_KNOTS ((6, 6), (2, 2), (0., 1.), (0., 1.), .UNSPECIFIED.)
   SURFACE ()
   GEOMETRIC_REPRESENTATION_ITEM ()
   RATIONAL_B_SPLINE_SURFACE (((5., 5.), (1., 1.), (1., 1.), (1., 1.), (1., 1.), (5., 5.)))
   REPRESENTATION_ITEM ('')
);
#35 = ADVANCED_FACE ('', (#21), #34, .F.);
#36 = CARTESIAN_POINT ('', (-50.75, 2., -4.89858719658941E-16));
#37 = VERTEX_POINT ('', #36);
#38 = CARTESIAN_POINT ('', (-1.22464679914735E-16, 2., -4.89858719658941E-16));
#39 = CARTESIAN_POINT ('', (-16.9166666666667, 2., -4.89858719658941E-16));
#40 = CARTESIAN_POINT ('', (-33.8333333333332, 2., -4.89858719658941E-16));
#41 = CARTESIAN_POINT ('', (-50.75, 2., -4.89858719658941E-16));
#42 = B_SPLINE_CURVE_WITH_KNOTS ('', 3, (#38, #39, #40, #41), .UNSPECIFIED., .F., .U., (4, 4), (0., 1.), .UNSPECIFIED.);
#43 = EDGE_CURVE ('', #4, #37, #42, .T.);
#44 = ORIENTED_EDGE ('', *, *, #43, .F.);
#45 = ORIENTED_EDGE ('', *, *, #18, .T.);
#46 = ORIENTED_EDGE ('', *, *, #43, .T.);
#47 = CARTESIAN_POINT ('', (-50.75, 2., -4.89858719658941E-16));
#48 = CARTESIAN_POINT ('', (-50.75, 1.99999999999999, 7.99999999999999));
#49 = CARTESIAN_POINT ('', (-50.75, -5.99999999999999, 3.99999999999998));
#50 = CARTESIAN_POINT ('', (-50.75, -5.99999999999998, -4.));
#51 = CARTESIAN_POINT ('', (-50.75, 2.00000000000001, -7.99999999999999));
#52 = CARTESIAN_POINT ('', (-50.75, 2., -4.89858719658941E-16));
#53 = (
   BOUNDED_CURVE ()
   B_SPLINE_CURVE (5, (#47, #48, #49, #50, #51, #52), .UNSPECIFIED., .T., .U.)
   B_SPLINE_CURVE_WITH_KNOTS ((6, 6), (0., 1.), .UNSPECIFIED.)
   CURVE ()
   GEOMETRIC_REPRESENTATION_ITEM ()
   RATIONAL_B_SPLINE_CURVE ((5., 1., 1., 1., 1., 5.))
   REPRESENTATION_ITEM ('')
);
#54 = EDGE_CURVE ('', #37, #37, #53, .T.);
#55 = ORIENTED_EDGE ('', *, *, #54, .F.);
#56 = EDGE_LOOP ('', (#44, #45, #46, #55));
#57 = FACE_OUTER_BOUND ('', #56, .F.);
#58 = CARTESIAN_POINT ('', (-1.22464679914735E-16, 2., -4.89858719658941E-16));
#59 = CARTESIAN_POINT ('', (-16.9166666666667, 2., -4.89858719658941E-16));
#60 = CARTESIAN_POINT ('', (-33.8333333333332, 2., -4.89858719658941E-16));
#61 = CARTESIAN_POINT ('', (-50.75, 2., -4.89858719658941E-16));
#62 = CARTESIAN_POINT ('', (-6.12323399573676E-16, 2., 8.));
#63 = CARTESIAN_POINT ('', (-16.9166666666667, 2., 8.));
#64 = CARTESIAN_POINT ('', (-33.8333333333332, 1.99999999999999, 7.99999999999999));
#65 = CARTESIAN_POINT ('', (-50.75, 1.99999999999999, 7.99999999999999));
#66 = CARTESIAN_POINT ('', (-8.57252759403147E-16, -6., 4.));
#67 = CARTESIAN_POINT ('', (-16.9166666666667, -6., 4.));
#68 = CARTESIAN_POINT ('', (-33.8333333333332, -6., 3.99999999999999));
#69 = CARTESIAN_POINT ('', (-50.75, -5.99999999999999, 3.99999999999998));
#70 = CARTESIAN_POINT ('', (-3.67394039744206E-16, -6., -4.));
#71 = CARTESIAN_POINT ('', (-16.9166666666667, -5.99999999999999, -4.));
#72 = CARTESIAN_POINT ('', (-33.8333333333332, -5.99999999999999, -4.));
#73 = CARTESIAN_POINT ('', (-50.75, -5.99999999999998, -4.));
#74 = CARTESIAN_POINT ('', (3.67394039744206E-16, 2., -8.));
#75 = CARTESIAN_POINT ('', (-16.9166666666667, 2., -8.));
#76 = CARTESIAN_POINT ('', (-33.8333333333332, 2.00000000000001, -7.99999999999999));
#77 = CARTESIAN_POINT ('', (-50.75, 2.00000000000001, -7.99999999999999));
#78 = CARTESIAN_POINT ('', (-1.22464679914735E-16, 2., -4.89858719658941E-16));
#79 = CARTESIAN_POINT ('', (-16.9166666666667, 2., -4.89858719658941E-16));
#80 = CARTESIAN_POINT ('', (-33.8333333333332, 2., -4.89858719658941E-16));
#81 = CARTESIAN_POINT ('', (-50.75, 2., -4.89858719658941E-16));
#82 = (
   BOUNDED_SURFACE ()
   B_SPLINE_SURFACE (5, 3, ((#58, #59, #60, #61), (#62, #63, #64, #65), (#66, #67, #68, #69), (#70, #71, #72, #73), (#74, #75, #76, #77), (#78, #79, #80, #81)), .UNSPECIFIED., .T., .F., .U.)
   B_SPLINE_SURFACE_WITH_KNOTS ((6, 6), (4, 4), (0., 1.), (0., 1.), .UNSPECIFIED.)
   SURFACE ()
   GEOMETRIC_REPRESENTATION_ITEM ()
   RATIONAL_B_SPLINE_SURFACE (((5., 5., 5., 5.), (1., 1., 1., 1.), (1., 1., 1., 1.), (1., 1., 1., 1.), (1., 1., 1., 1.), (5., 5., 5., 5.)))
   REPRESENTATION_ITEM ('')
);
#83 = ADVANCED_FACE ('', (#57), #82, .F.);
#84 = CARTESIAN_POINT ('', (-51., 1.75, -4.28626379701573E-16));
#85 = VERTEX_POINT ('', #84);
#86 = CARTESIAN_POINT ('', (-51., 3.12284933782575E-15, -3.12284933782575E-15));
#87 = VERTEX_POINT ('', #86);
#88 = CARTESIAN_POINT ('', (-51., 1.75, -4.28626379701573E-16));
#89 = CARTESIAN_POINT ('', (-51., 3.12284933782575E-15, -3.12284933782575E-15));
#90 = B_SPLINE_CURVE_WITH_KNOTS ('', 1, (#88, #89), .UNSPECIFIED., .F., .U., (2, 2), (0., 1.), .UNSPECIFIED.);
#91 = EDGE_CURVE ('', #85, #87, #90, .T.);
#92 = ORIENTED_EDGE ('', *, *, #91, .F.);
#93 = CARTESIAN_POINT ('', (-51., 1.75, -4.28626379701573E-16));
#94 = CARTESIAN_POINT ('', (-51., 1.74999999999999, 6.99999999999999));
#95 = CARTESIAN_POINT ('', (-51., -5.24999999999999, 3.49999999999998));
#96 = CARTESIAN_POINT ('', (-51., -5.24999999999998, -3.5));
#97 = CARTESIAN_POINT ('', (-51., 1.75000000000001, -6.99999999999999));
#98 = CARTESIAN_POINT ('', (-51., 1.75, -4.28626379701573E-16));
#99 = (
   BOUNDED_CURVE ()
   B_SPLINE_CURVE (5, (#93, #94, #95, #96, #97, #98), .UNSPECIFIED., .T., .U.)
   B_SPLINE_CURVE_WITH_KNOTS ((6, 6), (0., 1.), .UNSPECIFIED.)
   CURVE ()
   GEOMETRIC_REPRESENTATION_ITEM ()
   RATIONAL_B_SPLINE_CURVE ((5., 1., 1., 1., 1., 5.))
   REPRESENTATION_ITEM ('')
);
#100 = EDGE_CURVE ('', #85, #85, #99, .T.);
#101 = ORIENTED_EDGE ('', *, *, #100, .T.);
#102 = ORIENTED_EDGE ('', *, *, #91, .T.);
#103 = EDGE_LOOP ('', (#92, #101, #102));
#104 = FACE_OUTER_BOUND ('', #103, .F.);
#105 = CARTESIAN_POINT ('', (-51., 1.75, -4.28626379701573E-16));
#106 = CARTESIAN_POINT ('', (-51., 3.12284933782575E-15, -3.12284933782575E-15));
#107 = CARTESIAN_POINT ('', (-51., 1.74999999999999, 6.99999999999999));
#108 = CARTESIAN_POINT ('', (-51., 3.12284933782575E-15, -3.12284933782575E-15));
#109 = CARTESIAN_POINT ('', (-51., -5.24999999999999, 3.49999999999998));
#110 = CARTESIAN_POINT ('', (-51., 3.12284933782575E-15, -3.12284933782575E-15));
#111 = CARTESIAN_POINT ('', (-51., -5.24999999999998, -3.5));
#112 = CARTESIAN_POINT ('', (-51., 3.12284933782575E-15, -3.12284933782575E-15));
#113 = CARTESIAN_POINT ('', (-51., 1.75000000000001, -6.99999999999999));
#114 = CARTESIAN_POINT ('', (-51., 3.12284933782575E-15, -3.12284933782575E-15));
#115 = CARTESIAN_POINT ('', (-51., 1.75, -4.28626379701573E-16));
#116 = CARTESIAN_POINT ('', (-51., 3.12284933782575E-15, -3.12284933782575E-15));
#117 = (
   BOUNDED_SURFACE ()
   B_SPLINE_SURFACE (5, 1, ((#105, #106), (#107, #108), (#109, #110), (#111, #112), (#113, #114), (#115, #116)), .UNSPECIFIED., .T., .F., .U.)
   B_SPLINE_SURFACE_WITH_KNOTS ((6, 6), (2, 2), (0., 1.), (0., 1.), .UNSPECIFIED.)
   SURFACE ()
   GEOMETRIC_REPRESENTATION_ITEM ()
   RATIONAL_B_SPLINE_SURFACE (((5., 5.), (1., 1.), (1., 1.), (1., 1.), (1., 1.), (5., 5.)))
   REPRESENTATION_ITEM ('')
);
#118 = ADVANCED_FACE ('', (#104), #117, .F.);
#119 = CARTESIAN_POINT ('', (-50.75, 2., -4.89858719658941E-16));
#120 = CARTESIAN_POINT ('', (-50.8333333333333, 1.91666666666666, -4.6944793967315E-16));
#121 = CARTESIAN_POINT ('', (-50.9166666666668, 1.83333333333333, -4.49037159687362E-16));
#122 = CARTESIAN_POINT ('', (-51., 1.75, -4.28626379701573E-16));
#123 = B_SPLINE_CURVE_WITH_KNOTS ('', 3, (#119, #120, #121, #122), .UNSPECIFIED., .F., .U., (4, 4), (0., 1.), .UNSPECIFIED.);
#124 = EDGE_CURVE ('', #37, #85, #123, .T.);
#125 = ORIENTED_EDGE ('', *, *, #124, .F.);
#126 = ORIENTED_EDGE ('', *, *, #54, .T.);
#127 = ORIENTED_EDGE ('', *, *, #124, .T.);
#128 = ORIENTED_EDGE ('', *, *, #100, .F.);
#129 = EDGE_LOOP ('', (#125, #126, #127, #128));
#130 = FACE_OUTER_BOUND ('', #129, .F.);
#131 = CARTESIAN_POINT ('', (-50.75, 2., -4.89858719658941E-16));
#132 = CARTESIAN_POINT ('', (-50.8333333333333, 1.91666666666666, -4.6944793967315E-16));
#133 = CARTESIAN_POINT ('', (-50.9166666666668, 1.83333333333333, -4.49037159687362E-16));
#134 = CARTESIAN_POINT ('', (-51., 1.75, -4.28626379701573E-16));
#135 = CARTESIAN_POINT ('', (-50.75, 1.99999999999999, 7.99999999999999));
#136 = CARTESIAN_POINT ('', (-50.8333333333333, 1.91666666666665, 7.66666666666664));
#137 = CARTESIAN_POINT ('', (-50.9166666666668, 1.83333333333332, 7.33333333333332));
#138 = CARTESIAN_POINT ('', (-51., 1.74999999999999, 6.99999999999999));
#139 = CARTESIAN_POINT ('', (-50.75, -5.99999999999999, 3.99999999999998));
#140 = CARTESIAN_POINT ('', (-50.8333333333333, -5.74999999999998, 3.83333333333331));
#141 = CARTESIAN_POINT ('', (-50.9166666666668, -5.49999999999999, 3.66666666666665));
#142 = CARTESIAN_POINT ('', (-51., -5.24999999999999, 3.49999999999998));
#143 = CARTESIAN_POINT ('', (-50.75, -5.99999999999998, -4.));
#144 = CARTESIAN_POINT ('', (-50.8333333333333, -5.74999999999997, -3.83333333333333));
#145 = CARTESIAN_POINT ('', (-50.9166666666668, -5.49999999999998, -3.66666666666667));
#146 = CARTESIAN_POINT ('', (-51., -5.24999999999998, -3.5));
#147 = CARTESIAN_POINT ('', (-50.75, 2.00000000000001, -7.99999999999999));
#148 = CARTESIAN_POINT ('', (-50.8333333333333, 1.91666666666667, -7.66666666666664));
#149 = CARTESIAN_POINT ('', (-50.9166666666668, 1.83333333333334, -7.33333333333332));
#150 = CARTESIAN_POINT ('', (-51., 1.75000000000001, -6.99999999999999));
#151 = CARTESIAN_POINT ('', (-50.75, 2., -4.89858719658941E-16));
#152 = CARTESIAN_POINT ('', (-50.8333333333333, 1.91666666666666, -4.6944793967315E-16));
#153 = CARTESIAN_POINT ('', (-50.9166666666668, 1.83333333333333, -4.49037159687362E-16));
#154 = CARTESIAN_POINT ('', (-51., 1.75, -4.28626379701573E-16));
#155 = (
   BOUNDED_SURFACE ()
   B_SPLINE_SURFACE (5, 3, ((#131, #132, #133, #134), (#135, #136, #137, #138), (#139, #140, #141, #142), (#143, #144, #145, #146), (#147, #148, #149, #150), (#151, #152, #153, #154)), .UNSPECIFIED., .T., .F., .U.)
   B_SPLINE_SURFACE_WITH_KNOTS ((6, 6), (4, 4), (0., 1.), (0., 1.), .UNSPECIFIED.)
   SURFACE ()
   GEOMETRIC_REPRESENTATION_ITEM ()
   RATIONAL_B_SPLINE_SURFACE (((5., 5., 5., 5.), (1., 1., 1., 1.), (1., 1., 1., 1.), (1., 1., 1., 1.), (1., 1., 1., 1.), (5., 5., 5., 5.)))
   REPRESENTATION_ITEM ('')
);
#156 = ADVANCED_FACE ('', (#130), #155, .F.);
#157 = CLOSED_SHELL ('', (#35, #83, #118, #156));
#158 = MANIFOLD_SOLID_BREP ('', #157);
#159 = (
   LENGTH_UNIT ()
   NAMED_UNIT (*)
   SI_UNIT (.MILLI., .METRE.)
);
#160 = (
   NAMED_UNIT (*)
   SI_UNIT ($, .STERADIAN.)
   SOLID_ANGLE_UNIT ()
);
#161 = (
   NAMED_UNIT (*)
   SI_UNIT ($, .RADIAN.)
   PLANE_ANGLE_UNIT ()
);
#162 = UNCERTAINTY_MEASURE_WITH_UNIT (LENGTH_MEASURE(0.001), #159, 'DISTANCE_ACCURACY_VALUE', '');
#163 = (
   GEOMETRIC_REPRESENTATION_CONTEXT (3)
   GLOBAL_UNCERTAINTY_ASSIGNED_CONTEXT ((#162))
   GLOBAL_UNIT_ASSIGNED_CONTEXT ((#159, #160, #161))
   REPRESENTATION_CONTEXT ('', '3D')
);
#164 = SHAPE_REPRESENTATION ('', (), #163);
#165 = APPLICATION_CONTEXT ('configuration controlled 3D designs of mechanical parts and assemblies');
#166 = APPLICATION_PROTOCOL_DEFINITION ('International Standard', 'config_control_design', 1997, #165);
#167 = MECHANICAL_CONTEXT ('', #165, 'mechanical');
#168 = PRODUCT ('', '', '', (#167));
#169 = PERSON_AND_ORGANIZATION_ROLE ('design_owner');
#170 = PERSON ('', '', $, $, $, $);
#171 = ORGANIZATION ($, '', '');
#172 = PERSON_AND_ORGANIZATION (#170, #171);
#173 = CC_DESIGN_PERSON_AND_ORGANIZATION_ASSIGNMENT (#172, #169, (#168));
#174 = PRODUCT_RELATED_PRODUCT_CATEGORY ('detail', $, (#168));
#175 = PRODUCT_DEFINITION_FORMATION_WITH_SPECIFIED_SOURCE ('', '', #168, .NOT_KNOWN.);
#176 = APPROVAL_STATUS ('approved');
#177 = APPROVAL (#176, '');
#178 = CALENDAR_DATE (2020, 16, 4);
#179 = COORDINATED_UNIVERSAL_TIME_OFFSET (0, $, .AHEAD.);
#180 = LOCAL_TIME (15, 26, 33., #179);
#181 = DATE_AND_TIME (#178, #180);
#182 = APPROVAL_DATE_TIME (#181, #177);
#183 = APPROVAL_ROLE ('');
#184 = PERSON ('', '', $, $, $, $);
#185 = ORGANIZATION ($, '', '');
#186 = PERSON_AND_ORGANIZATION (#184, #185);
#187 = APPROVAL_PERSON_ORGANIZATION (#186, #177, #183);
#188 = CC_DESIGN_APPROVAL (#177, (#175));
#189 = PERSON_AND_ORGANIZATION_ROLE ('creator');
#190 = PERSON ('', '', $, $, $, $);
#191 = ORGANIZATION ($, '', '');
#192 = PERSON_AND_ORGANIZATION (#190, #191);
#193 = CC_DESIGN_PERSON_AND_ORGANIZATION_ASSIGNMENT (#192, #189, (#175));
#194 = PERSON_AND_ORGANIZATION_ROLE ('part_supplier');
#195 = PERSON ('', '', $, $, $, $);
#196 = ORGANIZATION ($, '', '');
#197 = PERSON_AND_ORGANIZATION (#195, #196);
#198 = CC_DESIGN_PERSON_AND_ORGANIZATION_ASSIGNMENT (#197, #194, (#175));
#199 = SECURITY_CLASSIFICATION_LEVEL ('unclassified');
#200 = SECURITY_CLASSIFICATION ('', '', #199);
#201 = APPROVAL_STATUS ('approved');
#202 = APPROVAL (#201, '');
#203 = CALENDAR_DATE (2020, 16, 4);
#204 = COORDINATED_UNIVERSAL_TIME_OFFSET (0, $, .AHEAD.);
#205 = LOCAL_TIME (15, 26, 33., #204);
#206 = DATE_AND_TIME (#203, #205);
#207 = APPROVAL_DATE_TIME (#206, #202);
#208 = APPROVAL_ROLE ('');
#209 = PERSON ('', '', $, $, $, $);
#210 = ORGANIZATION ($, '', '');
#211 = PERSON_AND_ORGANIZATION (#209, #210);
#212 = APPROVAL_PERSON_ORGANIZATION (#211, #202, #208);
#213 = CC_DESIGN_APPROVAL (#202, (#200));
#214 = DATE_TIME_ROLE ('classification_date');
#215 = CALENDAR_DATE (2020, 16, 4);
#216 = COORDINATED_UNIVERSAL_TIME_OFFSET (0, $, .AHEAD.);
#217 = LOCAL_TIME (15, 26, 33., #216);
#218 = DATE_AND_TIME (#215, #217);
#219 = CC_DESIGN_DATE_AND_TIME_ASSIGNMENT (#218, #214, (#200));
#220 = PERSON_AND_ORGANIZATION_ROLE ('classification_officer');
#221 = PERSON ('', '', $, $, $, $);
#222 = ORGANIZATION ($, '', '');
#223 = PERSON_AND_ORGANIZATION (#221, #222);
#224 = CC_DESIGN_PERSON_AND_ORGANIZATION_ASSIGNMENT (#223, #220, (#200));
#225 = CC_DESIGN_SECURITY_CLASSIFICATION (#200, (#175));
#226 = DESIGN_CONTEXT ('', #165, 'design');
#227 = PRODUCT_DEFINITION ('', '', #175, #226);
#228 = APPROVAL_STATUS ('approved');
#229 = APPROVAL (#228, '');
#230 = CALENDAR_DATE (2020, 16, 4);
#231 = COORDINATED_UNIVERSAL_TIME_OFFSET (0, $, .AHEAD.);
#232 = LOCAL_TIME (15, 26, 33., #231);
#233 = DATE_AND_TIME (#230, #232);
#234 = APPROVAL_DATE_TIME (#233, #229);
#235 = APPROVAL_ROLE ('');
#236 = PERSON ('', '', $, $, $, $);
#237 = ORGANIZATION ($, '', '');
#238 = PERSON_AND_ORGANIZATION (#236, #237);
#239 = APPROVAL_PERSON_ORGANIZATION (#238, #229, #235);
#240 = CC_DESIGN_APPROVAL (#229, (#227));
#241 = DATE_TIME_ROLE ('creation_date');
#242 = CALENDAR_DATE (2020, 16, 4);
#243 = COORDINATED_UNIVERSAL_TIME_OFFSET (0, $, .AHEAD.);
#244 = LOCAL_TIME (15, 26, 33., #243);
#245 = DATE_AND_TIME (#242, #244);
#246 = CC_DESIGN_DATE_AND_TIME_ASSIGNMENT (#245, #241, (#227));
#247 = PERSON_AND_ORGANIZATION_ROLE ('creator');
#248 = PERSON ('', '', $, $, $, $);
#249 = ORGANIZATION ($, '', '');
#250 = PERSON_AND_ORGANIZATION (#248, #249);
#251 = CC_DESIGN_PERSON_AND_ORGANIZATION_ASSIGNMENT (#250, #247, (#227));
#252 = PRODUCT_DEFINITION_SHAPE ('', '', #227);
#253 = SHAPE_DEFINITION_REPRESENTATION (#252, #164);
#254 = SHAPE_REPRESENTATION_RELATIONSHIP ('', '', #164, #255);
#255 = ADVANCED_BREP_SHAPE_REPRESENTATION ('', (#158), #163);
ENDSEC;
END-ISO-10303-21;
