ISO-10303-21;
HEADER;
FILE_DESCRIPTION ((), '1');
FILE_NAME ('C:\\Users\\rob\\OneDrive - MAFord Europe\\Customers & Projects\\M\\MAFE\\STEP FILE CORRECTION\\CORRECTED\\137VF 0303.STP', '2023-03-29T13:09:08', ('Unknown'), ('M A Ford'), 'OneCNC-XR8 Mill 3D Expert', 'OneCNC-XR8 Mill 3D Expert', '');
FILE_SCHEMA (('CONFIG_CONTROL_DESIGN'));
ENDSEC;

DATA;
#1 = CARTESIAN_POINT ('', (-17.5980762113533, 3., -7.34788079488412E-16));
#2 = VERTEX_POINT ('', #1);
#3 = CARTESIAN_POINT ('', (-15., 1.5, -3.67394039744206E-16));
#4 = VERTEX_POINT ('', #3);
#5 = CARTESIAN_POINT ('', (-17.5980762113533, 3., -7.34788079488412E-16));
#6 = CARTESIAN_POINT ('', (-16.7320508075689, 2.5, -6.12323399573676E-16));
#7 = CARTESIAN_POINT ('', (-15.8660254037844, 2., -4.89858719658941E-16));
#8 = CARTESIAN_POINT ('', (-15., 1.5, -3.67394039744206E-16));
#9 = B_SPLINE_CURVE_WITH_KNOTS ('', 3, (#5, #6, #7, #8), .UNSPECIFIED., .F., .U., (4, 4), (0., 1.), .UNSPECIFIED.);
#10 = EDGE_CURVE ('', #2, #4, #9, .T.);
#11 = ORIENTED_EDGE ('', *, *, #10, .F.);
#12 = CARTESIAN_POINT ('', (-17.5980762113533, 3., -7.34788079488412E-16));
#13 = CARTESIAN_POINT ('', (-17.5980762113533, 3., 12.));
#14 = CARTESIAN_POINT ('', (-17.5980762113533, -8.99999999999999, 6.));
#15 = CARTESIAN_POINT ('', (-17.5980762113533, -8.99999999999999, -6.));
#16 = CARTESIAN_POINT ('', (-17.5980762113533, 3., -12.));
#17 = CARTESIAN_POINT ('', (-17.5980762113533, 3., -7.34788079488412E-16));
#18 = (
   BOUNDED_CURVE ()
   B_SPLINE_CURVE (5, (#12, #13, #14, #15, #16, #17), .UNSPECIFIED., .T., .U.)
   B_SPLINE_CURVE_WITH_KNOTS ((6, 6), (0., 1.), .UNSPECIFIED.)
   CURVE ()
   GEOMETRIC_REPRESENTATION_ITEM ()
   RATIONAL_B_SPLINE_CURVE ((5., 1., 1., 1., 1., 5.))
   REPRESENTATION_ITEM ('')
);
#19 = EDGE_CURVE ('', #2, #2, #18, .T.);
#20 = ORIENTED_EDGE ('', *, *, #19, .T.);
#21 = ORIENTED_EDGE ('', *, *, #10, .T.);
#22 = CARTESIAN_POINT ('', (-15., 1.5, -3.67394039744206E-16));
#23 = CARTESIAN_POINT ('', (-15., 1.5, 6.));
#24 = CARTESIAN_POINT ('', (-15., -4.5, 3.));
#25 = CARTESIAN_POINT ('', (-15., -4.5, -3.));
#26 = CARTESIAN_POINT ('', (-15., 1.5, -6.));
#27 = CARTESIAN_POINT ('', (-15., 1.5, -3.67394039744206E-16));
#28 = (
   BOUNDED_CURVE ()
   B_SPLINE_CURVE (5, (#22, #23, #24, #25, #26, #27), .UNSPECIFIED., .T., .U.)
   B_SPLINE_CURVE_WITH_KNOTS ((6, 6), (0., 1.), .UNSPECIFIED.)
   CURVE ()
   GEOMETRIC_REPRESENTATION_ITEM ()
   RATIONAL_B_SPLINE_CURVE ((5., 1., 1., 1., 1., 5.))
   REPRESENTATION_ITEM ('')
);
#29 = EDGE_CURVE ('', #4, #4, #28, .T.);
#30 = ORIENTED_EDGE ('', *, *, #29, .F.);
#31 = EDGE_LOOP ('', (#11, #20, #21, #30));
#32 = FACE_OUTER_BOUND ('', #31, .T.);
#33 = CARTESIAN_POINT ('', (-17.5980762113533, 3., -7.34788079488412E-16));
#34 = CARTESIAN_POINT ('', (-16.7320508075689, 2.5, -6.12323399573676E-16));
#35 = CARTESIAN_POINT ('', (-15.8660254037844, 2., -4.89858719658941E-16));
#36 = CARTESIAN_POINT ('', (-15., 1.5, -3.67394039744206E-16));
#37 = CARTESIAN_POINT ('', (-17.5980762113533, 3., 12.));
#38 = CARTESIAN_POINT ('', (-16.7320508075689, 2.5, 9.99999999999999));
#39 = CARTESIAN_POINT ('', (-15.8660254037844, 2., 7.99999999999999));
#40 = CARTESIAN_POINT ('', (-15., 1.5, 6.));
#41 = CARTESIAN_POINT ('', (-17.5980762113533, -8.99999999999999, 6.));
#42 = CARTESIAN_POINT ('', (-16.7320508075689, -7.5, 5.));
#43 = CARTESIAN_POINT ('', (-15.8660254037844, -5.99999999999999, 3.99999999999999));
#44 = CARTESIAN_POINT ('', (-15., -4.5, 3.));
#45 = CARTESIAN_POINT ('', (-17.5980762113533, -8.99999999999999, -6.));
#46 = CARTESIAN_POINT ('', (-16.7320508075689, -7.49999999999999, -5.));
#47 = CARTESIAN_POINT ('', (-15.8660254037844, -5.99999999999999, -4.));
#48 = CARTESIAN_POINT ('', (-15., -4.5, -3.));
#49 = CARTESIAN_POINT ('', (-17.5980762113533, 3., -12.));
#50 = CARTESIAN_POINT ('', (-16.7320508075689, 2.5, -10.));
#51 = CARTESIAN_POINT ('', (-15.8660254037844, 2., -7.99999999999999));
#52 = CARTESIAN_POINT ('', (-15., 1.5, -6.));
#53 = CARTESIAN_POINT ('', (-17.5980762113533, 3., -7.34788079488412E-16));
#54 = CARTESIAN_POINT ('', (-16.7320508075689, 2.5, -6.12323399573676E-16));
#55 = CARTESIAN_POINT ('', (-15.8660254037844, 2., -4.89858719658941E-16));
#56 = CARTESIAN_POINT ('', (-15., 1.5, -3.67394039744206E-16));
#57 = (
   BOUNDED_SURFACE ()
   B_SPLINE_SURFACE (5, 3, ((#33, #34, #35, #36), (#37, #38, #39, #40), (#41, #42, #43, #44), (#45, #46, #47, #48), (#49, #50, #51, #52), (#53, #54, #55, #56)), .UNSPECIFIED., .T., .F., .U.)
   B_SPLINE_SURFACE_WITH_KNOTS ((6, 6), (4, 4), (0., 1.), (0., 1.), .UNSPECIFIED.)
   SURFACE ()
   GEOMETRIC_REPRESENTATION_ITEM ()
   RATIONAL_B_SPLINE_SURFACE (((5., 5., 5., 5.), (1., 1., 1., 1.), (1., 1., 1., 1.), (1., 1., 1., 1.), (1., 1., 1., 1.), (5., 5., 5., 5.)))
   REPRESENTATION_ITEM ('')
);
#58 = ADVANCED_FACE ('', (#32), #57, .T.);
#59 = CARTESIAN_POINT ('', (-73.75, 3., -7.34788079488411E-16));
#60 = VERTEX_POINT ('', #59);
#61 = CARTESIAN_POINT ('', (-73.75, 3., -7.34788079488411E-16));
#62 = CARTESIAN_POINT ('', (-55.032692070451, 3., -7.34788079488411E-16));
#63 = CARTESIAN_POINT ('', (-36.3153841409022, 3., -7.34788079488412E-16));
#64 = CARTESIAN_POINT ('', (-17.5980762113533, 3., -7.34788079488412E-16));
#65 = B_SPLINE_CURVE_WITH_KNOTS ('', 3, (#61, #62, #63, #64), .UNSPECIFIED., .F., .U., (4, 4), (0., 1.), .UNSPECIFIED.);
#66 = EDGE_CURVE ('', #60, #2, #65, .T.);
#67 = ORIENTED_EDGE ('', *, *, #66, .F.);
#68 = CARTESIAN_POINT ('', (-73.75, 3., -7.34788079488411E-16));
#69 = CARTESIAN_POINT ('', (-73.75, 2.99999999999998, 12.));
#70 = CARTESIAN_POINT ('', (-73.75, -8.99999999999999, 5.99999999999998));
#71 = CARTESIAN_POINT ('', (-73.75, -8.99999999999997, -6.00000000000001));
#72 = CARTESIAN_POINT ('', (-73.75, 3.00000000000002, -12.));
#73 = CARTESIAN_POINT ('', (-73.75, 3., -7.34788079488411E-16));
#74 = (
   BOUNDED_CURVE ()
   B_SPLINE_CURVE (5, (#68, #69, #70, #71, #72, #73), .UNSPECIFIED., .T., .U.)
   B_SPLINE_CURVE_WITH_KNOTS ((6, 6), (0., 1.), .UNSPECIFIED.)
   CURVE ()
   GEOMETRIC_REPRESENTATION_ITEM ()
   RATIONAL_B_SPLINE_CURVE ((5., 1., 1., 1., 1., 5.))
   REPRESENTATION_ITEM ('')
);
#75 = EDGE_CURVE ('', #60, #60, #74, .T.);
#76 = ORIENTED_EDGE ('', *, *, #75, .T.);
#77 = ORIENTED_EDGE ('', *, *, #66, .T.);
#78 = ORIENTED_EDGE ('', *, *, #19, .F.);
#79 = EDGE_LOOP ('', (#67, #76, #77, #78));
#80 = FACE_OUTER_BOUND ('', #79, .T.);
#81 = CARTESIAN_POINT ('', (-73.75, 3., -7.34788079488411E-16));
#82 = CARTESIAN_POINT ('', (-55.032692070451, 3., -7.34788079488411E-16));
#83 = CARTESIAN_POINT ('', (-36.3153841409022, 3., -7.34788079488412E-16));
#84 = CARTESIAN_POINT ('', (-17.5980762113533, 3., -7.34788079488412E-16));
#85 = CARTESIAN_POINT ('', (-73.75, 2.99999999999998, 12.));
#86 = CARTESIAN_POINT ('', (-55.032692070451, 2.99999999999999, 12.));
#87 = CARTESIAN_POINT ('', (-36.3153841409022, 3., 12.));
#88 = CARTESIAN_POINT ('', (-17.5980762113533, 3., 12.));
#89 = CARTESIAN_POINT ('', (-73.75, -8.99999999999999, 5.99999999999998));
#90 = CARTESIAN_POINT ('', (-55.032692070451, -8.99999999999999, 5.99999999999998));
#91 = CARTESIAN_POINT ('', (-36.3153841409022, -9., 5.99999999999999));
#92 = CARTESIAN_POINT ('', (-17.5980762113533, -8.99999999999999, 6.));
#93 = CARTESIAN_POINT ('', (-73.75, -8.99999999999997, -6.00000000000001));
#94 = CARTESIAN_POINT ('', (-55.032692070451, -8.99999999999998, -6.));
#95 = CARTESIAN_POINT ('', (-36.3153841409022, -8.99999999999999, -6.00000000000001));
#96 = CARTESIAN_POINT ('', (-17.5980762113533, -8.99999999999999, -6.));
#97 = CARTESIAN_POINT ('', (-73.75, 3.00000000000002, -12.));
#98 = CARTESIAN_POINT ('', (-55.032692070451, 3.00000000000001, -12.));
#99 = CARTESIAN_POINT ('', (-36.3153841409022, 3.00000000000001, -12.));
#100 = CARTESIAN_POINT ('', (-17.5980762113533, 3., -12.));
#101 = CARTESIAN_POINT ('', (-73.75, 3., -7.34788079488411E-16));
#102 = CARTESIAN_POINT ('', (-55.032692070451, 3., -7.34788079488411E-16));
#103 = CARTESIAN_POINT ('', (-36.3153841409022, 3., -7.34788079488412E-16));
#104 = CARTESIAN_POINT ('', (-17.5980762113533, 3., -7.34788079488412E-16));
#105 = (
   BOUNDED_SURFACE ()
   B_SPLINE_SURFACE (5, 3, ((#81, #82, #83, #84), (#85, #86, #87, #88), (#89, #90, #91, #92), (#93, #94, #95, #96), (#97, #98, #99, #100), (#101, #102, #103, #104)), .UNSPECIFIED., .T., .F., .U.)
   B_SPLINE_SURFACE_WITH_KNOTS ((6, 6), (4, 4), (0., 1.), (0., 1.), .UNSPECIFIED.)
   SURFACE ()
   GEOMETRIC_REPRESENTATION_ITEM ()
   RATIONAL_B_SPLINE_SURFACE (((5., 5., 5., 5.), (1., 1., 1., 1.), (1., 1., 1., 1.), (1., 1., 1., 1.), (1., 1., 1., 1.), (5., 5., 5., 5.)))
   REPRESENTATION_ITEM ('')
);
#106 = ADVANCED_FACE ('', (#80), #105, .T.);
#107 = CARTESIAN_POINT ('', (-74., 2.75, -6.73555739531043E-16));
#108 = VERTEX_POINT ('', #107);
#109 = CARTESIAN_POINT ('', (-74., 2.75, -6.73555739531043E-16));
#110 = CARTESIAN_POINT ('', (-73.9166666666664, 2.83333333333333, -6.93966519516831E-16));
#111 = CARTESIAN_POINT ('', (-73.8333333333335, 2.91666666666666, -7.14377299502621E-16));
#112 = CARTESIAN_POINT ('', (-73.75, 3., -7.34788079488411E-16));
#113 = B_SPLINE_CURVE_WITH_KNOTS ('', 3, (#109, #110, #111, #112), .UNSPECIFIED., .F., .U., (4, 4), (0., 1.), .UNSPECIFIED.);
#114 = EDGE_CURVE ('', #108, #60, #113, .T.);
#115 = ORIENTED_EDGE ('', *, *, #114, .F.);
#116 = CARTESIAN_POINT ('', (-74., 2.75, -6.73555739531043E-16));
#117 = CARTESIAN_POINT ('', (-74., 2.74999999999998, 11.));
#118 = CARTESIAN_POINT ('', (-74., -8.24999999999999, 5.49999999999998));
#119 = CARTESIAN_POINT ('', (-74., -8.24999999999997, -5.50000000000001));
#120 = CARTESIAN_POINT ('', (-74., 2.75000000000002, -11.));
#121 = CARTESIAN_POINT ('', (-74., 2.75, -6.73555739531043E-16));
#122 = (
   BOUNDED_CURVE ()
   B_SPLINE_CURVE (5, (#116, #117, #118, #119, #120, #121), .UNSPECIFIED., .T., .U.)
   B_SPLINE_CURVE_WITH_KNOTS ((6, 6), (0., 1.), .UNSPECIFIED.)
   CURVE ()
   GEOMETRIC_REPRESENTATION_ITEM ()
   RATIONAL_B_SPLINE_CURVE ((5., 1., 1., 1., 1., 5.))
   REPRESENTATION_ITEM ('')
);
#123 = EDGE_CURVE ('', #108, #108, #122, .T.);
#124 = ORIENTED_EDGE ('', *, *, #123, .T.);
#125 = ORIENTED_EDGE ('', *, *, #114, .T.);
#126 = ORIENTED_EDGE ('', *, *, #75, .F.);
#127 = EDGE_LOOP ('', (#115, #124, #125, #126));
#128 = FACE_OUTER_BOUND ('', #127, .T.);
#129 = CARTESIAN_POINT ('', (-74., 2.75, -6.73555739531043E-16));
#130 = CARTESIAN_POINT ('', (-73.9166666666664, 2.83333333333333, -6.93966519516831E-16));
#131 = CARTESIAN_POINT ('', (-73.8333333333335, 2.91666666666666, -7.14377299502621E-16));
#132 = CARTESIAN_POINT ('', (-73.75, 3., -7.34788079488411E-16));
#133 = CARTESIAN_POINT ('', (-74., 2.74999999999998, 11.));
#134 = CARTESIAN_POINT ('', (-73.9166666666664, 2.83333333333331, 11.3333333333333));
#135 = CARTESIAN_POINT ('', (-73.8333333333335, 2.91666666666665, 11.6666666666666));
#136 = CARTESIAN_POINT ('', (-73.75, 2.99999999999998, 12.));
#137 = CARTESIAN_POINT ('', (-74., -8.24999999999999, 5.49999999999998));
#138 = CARTESIAN_POINT ('', (-73.9166666666664, -8.49999999999997, 5.66666666666663));
#139 = CARTESIAN_POINT ('', (-73.8333333333335, -8.74999999999998, 5.8333333333333));
#140 = CARTESIAN_POINT ('', (-73.75, -8.99999999999999, 5.99999999999998));
#141 = CARTESIAN_POINT ('', (-74., -8.24999999999997, -5.50000000000001));
#142 = CARTESIAN_POINT ('', (-73.9166666666664, -8.49999999999995, -5.66666666666666));
#143 = CARTESIAN_POINT ('', (-73.8333333333335, -8.74999999999997, -5.83333333333333));
#144 = CARTESIAN_POINT ('', (-73.75, -8.99999999999997, -6.00000000000001));
#145 = CARTESIAN_POINT ('', (-74., 2.75000000000002, -11.));
#146 = CARTESIAN_POINT ('', (-73.9166666666664, 2.83333333333334, -11.3333333333333));
#147 = CARTESIAN_POINT ('', (-73.8333333333335, 2.91666666666668, -11.6666666666666));
#148 = CARTESIAN_POINT ('', (-73.75, 3.00000000000002, -12.));
#149 = CARTESIAN_POINT ('', (-74., 2.75, -6.73555739531043E-16));
#150 = CARTESIAN_POINT ('', (-73.9166666666664, 2.83333333333333, -6.93966519516831E-16));
#151 = CARTESIAN_POINT ('', (-73.8333333333335, 2.91666666666666, -7.14377299502621E-16));
#152 = CARTESIAN_POINT ('', (-73.75, 3., -7.34788079488411E-16));
#153 = (
   BOUNDED_SURFACE ()
   B_SPLINE_SURFACE (5, 3, ((#129, #130, #131, #132), (#133, #134, #135, #136), (#137, #138, #139, #140), (#141, #142, #143, #144), (#145, #146, #147, #148), (#149, #150, #151, #152)), .UNSPECIFIED., .T., .F., .U.)
   B_SPLINE_SURFACE_WITH_KNOTS ((6, 6), (4, 4), (0., 1.), (0., 1.), .UNSPECIFIED.)
   SURFACE ()
   GEOMETRIC_REPRESENTATION_ITEM ()
   RATIONAL_B_SPLINE_SURFACE (((5., 5., 5., 5.), (1., 1., 1., 1.), (1., 1., 1., 1.), (1., 1., 1., 1.), (1., 1., 1., 1.), (5., 5., 5., 5.)))
   REPRESENTATION_ITEM ('')
);
#154 = ADVANCED_FACE ('', (#128), #153, .T.);
#155 = CARTESIAN_POINT ('', (-74., 4.53119315684521E-15, -4.53119315684521E-15));
#156 = VERTEX_POINT ('', #155);
#157 = CARTESIAN_POINT ('', (-74., 4.53119315684521E-15, -4.53119315684521E-15));
#158 = CARTESIAN_POINT ('', (-74., 2.75, -6.73555739531043E-16));
#159 = B_SPLINE_CURVE_WITH_KNOTS ('', 1, (#157, #158), .UNSPECIFIED., .F., .U., (2, 2), (0., 1.), .UNSPECIFIED.);
#160 = EDGE_CURVE ('', #156, #108, #159, .T.);
#161 = ORIENTED_EDGE ('', *, *, #160, .F.);
#162 = ORIENTED_EDGE ('', *, *, #160, .T.);
#163 = ORIENTED_EDGE ('', *, *, #123, .F.);
#164 = EDGE_LOOP ('', (#161, #162, #163));
#165 = FACE_OUTER_BOUND ('', #164, .T.);
#166 = CARTESIAN_POINT ('', (-74., 4.53119315684521E-15, -4.53119315684521E-15));
#167 = CARTESIAN_POINT ('', (-74., 2.75, -6.73555739531043E-16));
#168 = CARTESIAN_POINT ('', (-74., 4.53119315684521E-15, -4.53119315684521E-15));
#169 = CARTESIAN_POINT ('', (-74., 2.74999999999998, 11.));
#170 = CARTESIAN_POINT ('', (-74., 4.53119315684521E-15, -4.53119315684521E-15));
#171 = CARTESIAN_POINT ('', (-74., -8.24999999999999, 5.49999999999998));
#172 = CARTESIAN_POINT ('', (-74., 4.53119315684521E-15, -4.53119315684521E-15));
#173 = CARTESIAN_POINT ('', (-74., -8.24999999999997, -5.50000000000001));
#174 = CARTESIAN_POINT ('', (-74., 4.53119315684521E-15, -4.53119315684521E-15));
#175 = CARTESIAN_POINT ('', (-74., 2.75000000000002, -11.));
#176 = CARTESIAN_POINT ('', (-74., 4.53119315684521E-15, -4.53119315684521E-15));
#177 = CARTESIAN_POINT ('', (-74., 2.75, -6.73555739531043E-16));
#178 = (
   BOUNDED_SURFACE ()
   B_SPLINE_SURFACE (5, 1, ((#166, #167), (#168, #169), (#170, #171), (#172, #173), (#174, #175), (#176, #177)), .UNSPECIFIED., .T., .F., .U.)
   B_SPLINE_SURFACE_WITH_KNOTS ((6, 6), (2, 2), (0., 1.), (0., 1.), .UNSPECIFIED.)
   SURFACE ()
   GEOMETRIC_REPRESENTATION_ITEM ()
   RATIONAL_B_SPLINE_SURFACE (((5., 5.), (1., 1.), (1., 1.), (1., 1.), (1., 1.), (5., 5.)))
   REPRESENTATION_ITEM ('')
);
#179 = ADVANCED_FACE ('', (#165), #178, .T.);
#180 = CARTESIAN_POINT ('', (2.46519032881566E-32, 1.5, -3.67394039744206E-16));
#181 = VERTEX_POINT ('', #180);
#182 = CARTESIAN_POINT ('', (-15., 1.5, -3.67394039744206E-16));
#183 = CARTESIAN_POINT ('', (-9.99999999999999, 1.5, -3.67394039744206E-16));
#184 = CARTESIAN_POINT ('', (-5., 1.5, -3.67394039744206E-16));
#185 = CARTESIAN_POINT ('', (2.46519032881566E-32, 1.5, -3.67394039744206E-16));
#186 = B_SPLINE_CURVE_WITH_KNOTS ('', 3, (#182, #183, #184, #185), .UNSPECIFIED., .F., .U., (4, 4), (0., 1.), .UNSPECIFIED.);
#187 = EDGE_CURVE ('', #4, #181, #186, .T.);
#188 = ORIENTED_EDGE ('', *, *, #187, .F.);
#189 = ORIENTED_EDGE ('', *, *, #29, .T.);
#190 = ORIENTED_EDGE ('', *, *, #187, .T.);
#191 = CARTESIAN_POINT ('', (2.46519032881566E-32, 1.5, -3.67394039744206E-16));
#192 = CARTESIAN_POINT ('', (-3.67394039744206E-16, 1.5, 6.));
#193 = CARTESIAN_POINT ('', (-5.51091059616309E-16, -4.5, 3.));
#194 = CARTESIAN_POINT ('', (-1.83697019872103E-16, -4.5, -3.));
#195 = CARTESIAN_POINT ('', (3.67394039744206E-16, 1.5, -6.));
#196 = CARTESIAN_POINT ('', (2.46519032881566E-32, 1.5, -3.67394039744206E-16));
#197 = (
   BOUNDED_CURVE ()
   B_SPLINE_CURVE (5, (#191, #192, #193, #194, #195, #196), .UNSPECIFIED., .T., .U.)
   B_SPLINE_CURVE_WITH_KNOTS ((6, 6), (0., 1.), .UNSPECIFIED.)
   CURVE ()
   GEOMETRIC_REPRESENTATION_ITEM ()
   RATIONAL_B_SPLINE_CURVE ((5., 1., 1., 1., 1., 5.))
   REPRESENTATION_ITEM ('')
);
#198 = EDGE_CURVE ('', #181, #181, #197, .T.);
#199 = ORIENTED_EDGE ('', *, *, #198, .F.);
#200 = EDGE_LOOP ('', (#188, #189, #190, #199));
#201 = FACE_OUTER_BOUND ('', #200, .T.);
#202 = CARTESIAN_POINT ('', (-15., 1.5, -3.67394039744206E-16));
#203 = CARTESIAN_POINT ('', (-9.99999999999999, 1.5, -3.67394039744206E-16));
#204 = CARTESIAN_POINT ('', (-5., 1.5, -3.67394039744206E-16));
#205 = CARTESIAN_POINT ('', (2.46519032881566E-32, 1.5, -3.67394039744206E-16));
#206 = CARTESIAN_POINT ('', (-15., 1.5, 6.));
#207 = CARTESIAN_POINT ('', (-9.99999999999999, 1.5, 6.));
#208 = CARTESIAN_POINT ('', (-5., 1.5, 6.));
#209 = CARTESIAN_POINT ('', (-3.67394039744206E-16, 1.5, 6.));
#210 = CARTESIAN_POINT ('', (-15., -4.5, 3.));
#211 = CARTESIAN_POINT ('', (-9.99999999999999, -4.5, 3.));
#212 = CARTESIAN_POINT ('', (-5., -4.5, 3.));
#213 = CARTESIAN_POINT ('', (-5.51091059616309E-16, -4.5, 3.));
#214 = CARTESIAN_POINT ('', (-15., -4.5, -3.));
#215 = CARTESIAN_POINT ('', (-9.99999999999999, -4.5, -3.));
#216 = CARTESIAN_POINT ('', (-5., -4.5, -3.));
#217 = CARTESIAN_POINT ('', (-1.83697019872103E-16, -4.5, -3.));
#218 = CARTESIAN_POINT ('', (-15., 1.5, -6.));
#219 = CARTESIAN_POINT ('', (-9.99999999999999, 1.5, -6.));
#220 = CARTESIAN_POINT ('', (-5., 1.5, -6.));
#221 = CARTESIAN_POINT ('', (3.67394039744206E-16, 1.5, -6.));
#222 = CARTESIAN_POINT ('', (-15., 1.5, -3.67394039744206E-16));
#223 = CARTESIAN_POINT ('', (-9.99999999999999, 1.5, -3.67394039744206E-16));
#224 = CARTESIAN_POINT ('', (-5., 1.5, -3.67394039744206E-16));
#225 = CARTESIAN_POINT ('', (2.46519032881566E-32, 1.5, -3.67394039744206E-16));
#226 = (
   BOUNDED_SURFACE ()
   B_SPLINE_SURFACE (5, 3, ((#202, #203, #204, #205), (#206, #207, #208, #209), (#210, #211, #212, #213), (#214, #215, #216, #217), (#218, #219, #220, #221), (#222, #223, #224, #225)), .UNSPECIFIED., .T., .F., .U.)
   B_SPLINE_SURFACE_WITH_KNOTS ((6, 6), (4, 4), (0., 1.), (0., 1.), .UNSPECIFIED.)
   SURFACE ()
   GEOMETRIC_REPRESENTATION_ITEM ()
   RATIONAL_B_SPLINE_SURFACE (((5., 5., 5., 5.), (1., 1., 1., 1.), (1., 1., 1., 1.), (1., 1., 1., 1.), (1., 1., 1., 1.), (5., 5., 5., 5.)))
   REPRESENTATION_ITEM ('')
);
#227 = ADVANCED_FACE ('', (#201), #226, .T.);
#228 = CARTESIAN_POINT ('', (-9.18485099360515E-17, 5.62409918498197E-33, -5.62409918498197E-33));
#229 = VERTEX_POINT ('', #228);
#230 = CARTESIAN_POINT ('', (2.46519032881566E-32, 1.5, -3.67394039744206E-16));
#231 = CARTESIAN_POINT ('', (-9.18485099360515E-17, 5.62409918498197E-33, -5.62409918498197E-33));
#232 = B_SPLINE_CURVE_WITH_KNOTS ('', 1, (#230, #231), .UNSPECIFIED., .F., .U., (2, 2), (0., 1.), .UNSPECIFIED.);
#233 = EDGE_CURVE ('', #181, #229, #232, .T.);
#234 = ORIENTED_EDGE ('', *, *, #233, .F.);
#235 = ORIENTED_EDGE ('', *, *, #198, .T.);
#236 = ORIENTED_EDGE ('', *, *, #233, .T.);
#237 = EDGE_LOOP ('', (#234, #235, #236));
#238 = FACE_OUTER_BOUND ('', #237, .T.);
#239 = CARTESIAN_POINT ('', (2.46519032881566E-32, 1.5, -3.67394039744206E-16));
#240 = CARTESIAN_POINT ('', (-9.18485099360515E-17, 5.62409918498197E-33, -5.62409918498197E-33));
#241 = CARTESIAN_POINT ('', (-3.67394039744206E-16, 1.5, 6.));
#242 = CARTESIAN_POINT ('', (-9.18485099360515E-17, 5.62409918498197E-33, -5.62409918498197E-33));
#243 = CARTESIAN_POINT ('', (-5.51091059616309E-16, -4.5, 3.));
#244 = CARTESIAN_POINT ('', (-9.18485099360515E-17, 5.62409918498197E-33, -5.62409918498197E-33));
#245 = CARTESIAN_POINT ('', (-1.83697019872103E-16, -4.5, -3.));
#246 = CARTESIAN_POINT ('', (-9.18485099360515E-17, 5.62409918498197E-33, -5.62409918498197E-33));
#247 = CARTESIAN_POINT ('', (3.67394039744206E-16, 1.5, -6.));
#248 = CARTESIAN_POINT ('', (-9.18485099360515E-17, 5.62409918498197E-33, -5.62409918498197E-33));
#249 = CARTESIAN_POINT ('', (2.46519032881566E-32, 1.5, -3.67394039744206E-16));
#250 = CARTESIAN_POINT ('', (-9.18485099360515E-17, 5.62409918498197E-33, -5.62409918498197E-33));
#251 = (
   BOUNDED_SURFACE ()
   B_SPLINE_SURFACE (5, 1, ((#239, #240), (#241, #242), (#243, #244), (#245, #246), (#247, #248), (#249, #250)), .UNSPECIFIED., .T., .F., .U.)
   B_SPLINE_SURFACE_WITH_KNOTS ((6, 6), (2, 2), (0., 1.), (0., 1.), .UNSPECIFIED.)
   SURFACE ()
   GEOMETRIC_REPRESENTATION_ITEM ()
   RATIONAL_B_SPLINE_SURFACE (((5., 5.), (1., 1.), (1., 1.), (1., 1.), (1., 1.), (5., 5.)))
   REPRESENTATION_ITEM ('')
);
#252 = ADVANCED_FACE ('', (#238), #251, .T.);
#253 = CLOSED_SHELL ('', (#58, #106, #154, #179, #227, #252));
#254 = MANIFOLD_SOLID_BREP ('', #253);
#255 = (
   LENGTH_UNIT ()
   NAMED_UNIT (*)
   SI_UNIT (.MILLI., .METRE.)
);
#256 = (
   NAMED_UNIT (*)
   SI_UNIT ($, .STERADIAN.)
   SOLID_ANGLE_UNIT ()
);
#257 = (
   NAMED_UNIT (*)
   SI_UNIT ($, .RADIAN.)
   PLANE_ANGLE_UNIT ()
);
#258 = UNCERTAINTY_MEASURE_WITH_UNIT (LENGTH_MEASURE(0.001), #255, 'DISTANCE_ACCURACY_VALUE', '');
#259 = (
   GEOMETRIC_REPRESENTATION_CONTEXT (3)
   GLOBAL_UNCERTAINTY_ASSIGNED_CONTEXT ((#258))
   GLOBAL_UNIT_ASSIGNED_CONTEXT ((#255, #256, #257))
   REPRESENTATION_CONTEXT ('', '3D')
);
#260 = SHAPE_REPRESENTATION ('', (), #259);
#261 = APPLICATION_CONTEXT ('configuration controlled 3D designs of mechanical parts and assemblies');
#262 = APPLICATION_PROTOCOL_DEFINITION ('International Standard', 'config_control_design', 1997, #261);
#263 = MECHANICAL_CONTEXT ('', #261, 'mechanical');
#264 = PRODUCT ('', '', '', (#263));
#265 = PERSON_AND_ORGANIZATION_ROLE ('design_owner');
#266 = PERSON ('', '', $, $, $, $);
#267 = ORGANIZATION ($, '', '');
#268 = PERSON_AND_ORGANIZATION (#266, #267);
#269 = CC_DESIGN_PERSON_AND_ORGANIZATION_ASSIGNMENT (#268, #265, (#264));
#270 = PRODUCT_RELATED_PRODUCT_CATEGORY ('detail', $, (#264));
#271 = PRODUCT_DEFINITION_FORMATION_WITH_SPECIFIED_SOURCE ('', '', #264, .NOT_KNOWN.);
#272 = APPROVAL_STATUS ('approved');
#273 = APPROVAL (#272, '');
#274 = CALENDAR_DATE (2023, 29, 3);
#275 = COORDINATED_UNIVERSAL_TIME_OFFSET (0, $, .AHEAD.);
#276 = LOCAL_TIME (13, 9, 8., #275);
#277 = DATE_AND_TIME (#274, #276);
#278 = APPROVAL_DATE_TIME (#277, #273);
#279 = APPROVAL_ROLE ('');
#280 = PERSON ('', '', $, $, $, $);
#281 = ORGANIZATION ($, '', '');
#282 = PERSON_AND_ORGANIZATION (#280, #281);
#283 = APPROVAL_PERSON_ORGANIZATION (#282, #273, #279);
#284 = CC_DESIGN_APPROVAL (#273, (#271));
#285 = PERSON_AND_ORGANIZATION_ROLE ('creator');
#286 = PERSON ('', '', $, $, $, $);
#287 = ORGANIZATION ($, '', '');
#288 = PERSON_AND_ORGANIZATION (#286, #287);
#289 = CC_DESIGN_PERSON_AND_ORGANIZATION_ASSIGNMENT (#288, #285, (#271));
#290 = PERSON_AND_ORGANIZATION_ROLE ('part_supplier');
#291 = PERSON ('', '', $, $, $, $);
#292 = ORGANIZATION ($, '', '');
#293 = PERSON_AND_ORGANIZATION (#291, #292);
#294 = CC_DESIGN_PERSON_AND_ORGANIZATION_ASSIGNMENT (#293, #290, (#271));
#295 = SECURITY_CLASSIFICATION_LEVEL ('unclassified');
#296 = SECURITY_CLASSIFICATION ('', '', #295);
#297 = APPROVAL_STATUS ('approved');
#298 = APPROVAL (#297, '');
#299 = CALENDAR_DATE (2023, 29, 3);
#300 = COORDINATED_UNIVERSAL_TIME_OFFSET (0, $, .AHEAD.);
#301 = LOCAL_TIME (13, 9, 8., #300);
#302 = DATE_AND_TIME (#299, #301);
#303 = APPROVAL_DATE_TIME (#302, #298);
#304 = APPROVAL_ROLE ('');
#305 = PERSON ('', '', $, $, $, $);
#306 = ORGANIZATION ($, '', '');
#307 = PERSON_AND_ORGANIZATION (#305, #306);
#308 = APPROVAL_PERSON_ORGANIZATION (#307, #298, #304);
#309 = CC_DESIGN_APPROVAL (#298, (#296));
#310 = DATE_TIME_ROLE ('classification_date');
#311 = CALENDAR_DATE (2023, 29, 3);
#312 = COORDINATED_UNIVERSAL_TIME_OFFSET (0, $, .AHEAD.);
#313 = LOCAL_TIME (13, 9, 8., #312);
#314 = DATE_AND_TIME (#311, #313);
#315 = CC_DESIGN_DATE_AND_TIME_ASSIGNMENT (#314, #310, (#296));
#316 = PERSON_AND_ORGANIZATION_ROLE ('classification_officer');
#317 = PERSON ('', '', $, $, $, $);
#318 = ORGANIZATION ($, '', '');
#319 = PERSON_AND_ORGANIZATION (#317, #318);
#320 = CC_DESIGN_PERSON_AND_ORGANIZATION_ASSIGNMENT (#319, #316, (#296));
#321 = CC_DESIGN_SECURITY_CLASSIFICATION (#296, (#271));
#322 = DESIGN_CONTEXT ('', #261, 'design');
#323 = PRODUCT_DEFINITION ('', '', #271, #322);
#324 = APPROVAL_STATUS ('approved');
#325 = APPROVAL (#324, '');
#326 = CALENDAR_DATE (2023, 29, 3);
#327 = COORDINATED_UNIVERSAL_TIME_OFFSET (0, $, .AHEAD.);
#328 = LOCAL_TIME (13, 9, 8., #327);
#329 = DATE_AND_TIME (#326, #328);
#330 = APPROVAL_DATE_TIME (#329, #325);
#331 = APPROVAL_ROLE ('');
#332 = PERSON ('', '', $, $, $, $);
#333 = ORGANIZATION ($, '', '');
#334 = PERSON_AND_ORGANIZATION (#332, #333);
#335 = APPROVAL_PERSON_ORGANIZATION (#334, #325, #331);
#336 = CC_DESIGN_APPROVAL (#325, (#323));
#337 = DATE_TIME_ROLE ('creation_date');
#338 = CALENDAR_DATE (2023, 29, 3);
#339 = COORDINATED_UNIVERSAL_TIME_OFFSET (0, $, .AHEAD.);
#340 = LOCAL_TIME (13, 9, 8., #339);
#341 = DATE_AND_TIME (#338, #340);
#342 = CC_DESIGN_DATE_AND_TIME_ASSIGNMENT (#341, #337, (#323));
#343 = PERSON_AND_ORGANIZATION_ROLE ('creator');
#344 = PERSON ('', '', $, $, $, $);
#345 = ORGANIZATION ($, '', '');
#346 = PERSON_AND_ORGANIZATION (#344, #345);
#347 = CC_DESIGN_PERSON_AND_ORGANIZATION_ASSIGNMENT (#346, #343, (#323));
#348 = PRODUCT_DEFINITION_SHAPE ('', '', #323);
#349 = SHAPE_DEFINITION_REPRESENTATION (#348, #260);
#350 = SHAPE_REPRESENTATION_RELATIONSHIP ('', '', #260, #351);
#351 = ADVANCED_BREP_SHAPE_REPRESENTATION ('', (#254), #259);
ENDSEC;
END-ISO-10303-21;
