ISO-10303-21;
HEADER;
FILE_DESCRIPTION ((), '1');
FILE_NAME ('C:\\Users\\kevin\\137V5 range\\137V5 1003-1.0RALCC.STP', '2021-12-07T15:15:02', ('Unknown'), ('m.a.ford europe'), 'OneCNC-XR8 Mill 3D Expert', 'OneCNC-XR8 Mill 3D Expert', '');
FILE_SCHEMA (('CONFIG_CONTROL_DESIGN'));
ENDSEC;

DATA;
#1 = CARTESIAN_POINT ('', (-32., 5., 0.));
#2 = CARTESIAN_POINT ('', (-32., 0., 0.));
#3 = B_SPLINE_CURVE_WITH_KNOTS ('', 1, (#1, #2), .UNSPECIFIED., .F., .U., (2, 2), (0., 1.), .UNSPECIFIED.);
#4 = GEOMETRIC_CURVE_SET ('', (#3, #7, #10, #13, #16, #20));
#5 = CARTESIAN_POINT ('', (-75., 4.75, 0.));
#6 = CARTESIAN_POINT ('', (-75., 0., 0.));
#7 = B_SPLINE_CURVE_WITH_KNOTS ('', 1, (#5, #6), .UNSPECIFIED., .F., .U., (2, 2), (0., 1.), .UNSPECIFIED.);
#8 = CARTESIAN_POINT ('', (-74.75, 5., 0.));
#9 = CARTESIAN_POINT ('', (-75., 4.75, 0.));
#10 = B_SPLINE_CURVE_WITH_KNOTS ('', 1, (#8, #9), .UNSPECIFIED., .F., .U., (2, 2), (0., 1.), .UNSPECIFIED.);
#11 = CARTESIAN_POINT ('', (-1., 5., 0.));
#12 = CARTESIAN_POINT ('', (-74.75, 5., 0.));
#13 = B_SPLINE_CURVE_WITH_KNOTS ('', 1, (#11, #12), .UNSPECIFIED., .F., .U., (2, 2), (0., 1.), .UNSPECIFIED.);
#14 = CARTESIAN_POINT ('', (0., 0., 0.));
#15 = CARTESIAN_POINT ('', (0., 4., 0.));
#16 = B_SPLINE_CURVE_WITH_KNOTS ('', 1, (#14, #15), .UNSPECIFIED., .F., .U., (2, 2), (0., 1.), .UNSPECIFIED.);
#17 = CARTESIAN_POINT ('', (0., 4., 0.));
#18 = CARTESIAN_POINT ('', (0., 5., 0.));
#19 = CARTESIAN_POINT ('', (-1., 5., 0.));
#20 = (
   BOUNDED_CURVE ()
   B_SPLINE_CURVE (2, (#17, #18, #19), .UNSPECIFIED., .F., .U.)
   B_SPLINE_CURVE_WITH_KNOTS ((3, 3), (0., 1.), .UNSPECIFIED.)
   CURVE ()
   GEOMETRIC_REPRESENTATION_ITEM ()
   RATIONAL_B_SPLINE_CURVE ((1., 0.707106781186548, 1.))
   REPRESENTATION_ITEM ('')
);
#21 = CARTESIAN_POINT ('', (-74.75, 5., -1.22464679914735E-15));
#22 = VERTEX_POINT ('', #21);
#23 = CARTESIAN_POINT ('', (-75., 4.75, -1.16341445918998E-15));
#24 = VERTEX_POINT ('', #23);
#25 = CARTESIAN_POINT ('', (-74.75, 5., -1.22464679914735E-15));
#26 = CARTESIAN_POINT ('', (-74.8333333333336, 4.91666666666667, -1.20423601916156E-15));
#27 = CARTESIAN_POINT ('', (-74.9166666666664, 4.83333333333336, -1.18382523917578E-15));
#28 = CARTESIAN_POINT ('', (-75., 4.75, -1.16341445918998E-15));
#29 = B_SPLINE_CURVE_WITH_KNOTS ('', 3, (#25, #26, #27, #28), .UNSPECIFIED., .F., .U., (4, 4), (0., 1.), .UNSPECIFIED.);
#30 = EDGE_CURVE ('', #22, #24, #29, .T.);
#31 = ORIENTED_EDGE ('', *, *, #30, .F.);
#32 = CARTESIAN_POINT ('', (-74.75, 5., -1.22464679914735E-15));
#33 = CARTESIAN_POINT ('', (-74.75, 4.99999999999999, 20.));
#34 = CARTESIAN_POINT ('', (-74.75, -15., 9.99999999999998));
#35 = CARTESIAN_POINT ('', (-74.75, -15., -10.));
#36 = CARTESIAN_POINT ('', (-74.75, 5.00000000000001, -20.));
#37 = CARTESIAN_POINT ('', (-74.75, 5., -1.22464679914735E-15));
#38 = (
   BOUNDED_CURVE ()
   B_SPLINE_CURVE (5, (#32, #33, #34, #35, #36, #37), .UNSPECIFIED., .T., .U.)
   B_SPLINE_CURVE_WITH_KNOTS ((6, 6), (0., 1.), .UNSPECIFIED.)
   CURVE ()
   GEOMETRIC_REPRESENTATION_ITEM ()
   RATIONAL_B_SPLINE_CURVE ((5., 1., 1., 1., 1., 5.))
   REPRESENTATION_ITEM ('')
);
#39 = EDGE_CURVE ('', #22, #22, #38, .T.);
#40 = ORIENTED_EDGE ('', *, *, #39, .T.);
#41 = ORIENTED_EDGE ('', *, *, #30, .T.);
#42 = CARTESIAN_POINT ('', (-75., 4.75, -1.16341445918998E-15));
#43 = CARTESIAN_POINT ('', (-75., 4.74999999999999, 19.));
#44 = CARTESIAN_POINT ('', (-75., -14.25, 9.49999999999998));
#45 = CARTESIAN_POINT ('', (-75., -14.25, -9.50000000000001));
#46 = CARTESIAN_POINT ('', (-75., 4.75000000000001, -19.));
#47 = CARTESIAN_POINT ('', (-75., 4.75, -1.16341445918998E-15));
#48 = (
   BOUNDED_CURVE ()
   B_SPLINE_CURVE (5, (#42, #43, #44, #45, #46, #47), .UNSPECIFIED., .T., .U.)
   B_SPLINE_CURVE_WITH_KNOTS ((6, 6), (0., 1.), .UNSPECIFIED.)
   CURVE ()
   GEOMETRIC_REPRESENTATION_ITEM ()
   RATIONAL_B_SPLINE_CURVE ((5., 1., 1., 1., 1., 5.))
   REPRESENTATION_ITEM ('')
);
#49 = EDGE_CURVE ('', #24, #24, #48, .T.);
#50 = ORIENTED_EDGE ('', *, *, #49, .F.);
#51 = EDGE_LOOP ('', (#31, #40, #41, #50));
#52 = FACE_OUTER_BOUND ('', #51, .F.);
#53 = CARTESIAN_POINT ('', (-74.75, 5., -1.22464679914735E-15));
#54 = CARTESIAN_POINT ('', (-74.8333333333336, 4.91666666666667, -1.20423601916156E-15));
#55 = CARTESIAN_POINT ('', (-74.9166666666664, 4.83333333333336, -1.18382523917578E-15));
#56 = CARTESIAN_POINT ('', (-75., 4.75, -1.16341445918998E-15));
#57 = CARTESIAN_POINT ('', (-74.75, 4.99999999999999, 20.));
#58 = CARTESIAN_POINT ('', (-74.8333333333336, 4.91666666666665, 19.6666666666666));
#59 = CARTESIAN_POINT ('', (-74.9166666666664, 4.83333333333334, 19.3333333333334));
#60 = CARTESIAN_POINT ('', (-75., 4.74999999999999, 19.));
#61 = CARTESIAN_POINT ('', (-74.75, -15., 9.99999999999998));
#62 = CARTESIAN_POINT ('', (-74.8333333333336, -14.75, 9.83333333333331));
#63 = CARTESIAN_POINT ('', (-74.9166666666664, -14.5000000000001, 9.66666666666669));
#64 = CARTESIAN_POINT ('', (-75., -14.25, 9.49999999999998));
#65 = CARTESIAN_POINT ('', (-74.75, -15., -10.));
#66 = CARTESIAN_POINT ('', (-74.8333333333336, -14.75, -9.83333333333334));
#67 = CARTESIAN_POINT ('', (-74.9166666666664, -14.5, -9.66666666666672));
#68 = CARTESIAN_POINT ('', (-75., -14.25, -9.50000000000001));
#69 = CARTESIAN_POINT ('', (-74.75, 5.00000000000001, -20.));
#70 = CARTESIAN_POINT ('', (-74.8333333333336, 4.91666666666668, -19.6666666666666));
#71 = CARTESIAN_POINT ('', (-74.9166666666664, 4.83333333333337, -19.3333333333334));
#72 = CARTESIAN_POINT ('', (-75., 4.75000000000001, -19.));
#73 = CARTESIAN_POINT ('', (-74.75, 5., -1.22464679914735E-15));
#74 = CARTESIAN_POINT ('', (-74.8333333333336, 4.91666666666667, -1.20423601916156E-15));
#75 = CARTESIAN_POINT ('', (-74.9166666666664, 4.83333333333336, -1.18382523917578E-15));
#76 = CARTESIAN_POINT ('', (-75., 4.75, -1.16341445918998E-15));
#77 = (
   BOUNDED_SURFACE ()
   B_SPLINE_SURFACE (5, 3, ((#53, #54, #55, #56), (#57, #58, #59, #60), (#61, #62, #63, #64), (#65, #66, #67, #68), (#69, #70, #71, #72), (#73, #74, #75, #76)), .UNSPECIFIED., .T., .F., .U.)
   B_SPLINE_SURFACE_WITH_KNOTS ((6, 6), (4, 4), (0., 1.), (0., 1.), .UNSPECIFIED.)
   SURFACE ()
   GEOMETRIC_REPRESENTATION_ITEM ()
   RATIONAL_B_SPLINE_SURFACE (((5., 5., 5., 5.), (1., 1., 1., 1.), (1., 1., 1., 1.), (1., 1., 1., 1.), (1., 1., 1., 1.), (5., 5., 5., 5.)))
   REPRESENTATION_ITEM ('')
);
#78 = ADVANCED_FACE ('', (#52), #77, .F.);
#79 = CARTESIAN_POINT ('', (-75., 4.59242549680257E-15, -4.59242549680257E-15));
#80 = VERTEX_POINT ('', #79);
#81 = CARTESIAN_POINT ('', (-75., 4.75, -1.16341445918998E-15));
#82 = CARTESIAN_POINT ('', (-75., 3.16666666666666, -7.75609639459987E-16));
#83 = CARTESIAN_POINT ('', (-75., 1.58333333333333, -3.87804819729995E-16));
#84 = CARTESIAN_POINT ('', (-75., 4.59242549680257E-15, -4.59242549680257E-15));
#85 = B_SPLINE_CURVE_WITH_KNOTS ('', 3, (#81, #82, #83, #84), .UNSPECIFIED., .F., .U., (4, 4), (0., 1.), .UNSPECIFIED.);
#86 = EDGE_CURVE ('', #24, #80, #85, .T.);
#87 = ORIENTED_EDGE ('', *, *, #86, .F.);
#88 = ORIENTED_EDGE ('', *, *, #49, .T.);
#89 = ORIENTED_EDGE ('', *, *, #86, .T.);
#90 = EDGE_LOOP ('', (#87, #88, #89));
#91 = FACE_OUTER_BOUND ('', #90, .F.);
#92 = CARTESIAN_POINT ('', (-75., 4.75, -1.16341445918998E-15));
#93 = CARTESIAN_POINT ('', (-75., 3.16666666666666, -7.75609639459987E-16));
#94 = CARTESIAN_POINT ('', (-75., 1.58333333333333, -3.87804819729995E-16));
#95 = CARTESIAN_POINT ('', (-75., 4.59242549680257E-15, -4.59242549680257E-15));
#96 = CARTESIAN_POINT ('', (-75., 4.74999999999999, 19.));
#97 = CARTESIAN_POINT ('', (-75., 3.16666666666664, 12.6666666666666));
#98 = CARTESIAN_POINT ('', (-75., 1.58333333333332, 6.33333333333331));
#99 = CARTESIAN_POINT ('', (-75., 4.59242549680257E-15, -4.59242549680257E-15));
#100 = CARTESIAN_POINT ('', (-75., -14.25, 9.49999999999998));
#101 = CARTESIAN_POINT ('', (-75., -9.49999999999996, 6.33333333333329));
#102 = CARTESIAN_POINT ('', (-75., -4.74999999999999, 3.16666666666664));
#103 = CARTESIAN_POINT ('', (-75., 4.59242549680257E-15, -4.59242549680257E-15));
#104 = CARTESIAN_POINT ('', (-75., -14.25, -9.50000000000001));
#105 = CARTESIAN_POINT ('', (-75., -9.49999999999994, -6.33333333333332));
#106 = CARTESIAN_POINT ('', (-75., -4.74999999999997, -3.16666666666667));
#107 = CARTESIAN_POINT ('', (-75., 4.59242549680257E-15, -4.59242549680257E-15));
#108 = CARTESIAN_POINT ('', (-75., 4.75000000000001, -19.));
#109 = CARTESIAN_POINT ('', (-75., 3.16666666666667, -12.6666666666666));
#110 = CARTESIAN_POINT ('', (-75., 1.58333333333335, -6.33333333333331));
#111 = CARTESIAN_POINT ('', (-75., 4.59242549680257E-15, -4.59242549680257E-15));
#112 = CARTESIAN_POINT ('', (-75., 4.75, -1.16341445918998E-15));
#113 = CARTESIAN_POINT ('', (-75., 3.16666666666666, -7.75609639459987E-16));
#114 = CARTESIAN_POINT ('', (-75., 1.58333333333333, -3.87804819729995E-16));
#115 = CARTESIAN_POINT ('', (-75., 4.59242549680257E-15, -4.59242549680257E-15));
#116 = (
   BOUNDED_SURFACE ()
   B_SPLINE_SURFACE (5, 3, ((#92, #93, #94, #95), (#96, #97, #98, #99), (#100, #101, #102, #103), (#104, #105, #106, #107), (#108, #109, #110, #111), (#112, #113, #114, #115)), .UNSPECIFIED., .T., .F., .U.)
   B_SPLINE_SURFACE_WITH_KNOTS ((6, 6), (4, 4), (0., 1.), (0., 1.), .UNSPECIFIED.)
   SURFACE ()
   GEOMETRIC_REPRESENTATION_ITEM ()
   RATIONAL_B_SPLINE_SURFACE (((5., 5., 5., 5.), (1., 1., 1., 1.), (1., 1., 1., 1.), (1., 1., 1., 1.), (1., 1., 1., 1.), (5., 5., 5., 5.)))
   REPRESENTATION_ITEM ('')
);
#117 = ADVANCED_FACE ('', (#91), #116, .F.);
#118 = CARTESIAN_POINT ('', (-1., 5., -1.22464679914735E-15));
#119 = VERTEX_POINT ('', #118);
#120 = CARTESIAN_POINT ('', (-1., 5., -1.22464679914735E-15));
#121 = CARTESIAN_POINT ('', (-25.5833333333333, 5., -1.22464679914735E-15));
#122 = CARTESIAN_POINT ('', (-50.1666666666664, 5., -1.22464679914735E-15));
#123 = CARTESIAN_POINT ('', (-74.75, 5., -1.22464679914735E-15));
#124 = B_SPLINE_CURVE_WITH_KNOTS ('', 3, (#120, #121, #122, #123), .UNSPECIFIED., .F., .U., (4, 4), (0., 1.), .UNSPECIFIED.);
#125 = EDGE_CURVE ('', #119, #22, #124, .T.);
#126 = ORIENTED_EDGE ('', *, *, #125, .F.);
#127 = CARTESIAN_POINT ('', (-1., 5., -1.22464679914735E-15));
#128 = CARTESIAN_POINT ('', (-1., 5., 20.));
#129 = CARTESIAN_POINT ('', (-1., -15., 10.));
#130 = CARTESIAN_POINT ('', (-1., -15., -10.));
#131 = CARTESIAN_POINT ('', (-0.999999999999999, 5., -20.));
#132 = CARTESIAN_POINT ('', (-1., 5., -1.22464679914735E-15));
#133 = (
   BOUNDED_CURVE ()
   B_SPLINE_CURVE (5, (#127, #128, #129, #130, #131, #132), .UNSPECIFIED., .T., .U.)
   B_SPLINE_CURVE_WITH_KNOTS ((6, 6), (0., 1.), .UNSPECIFIED.)
   CURVE ()
   GEOMETRIC_REPRESENTATION_ITEM ()
   RATIONAL_B_SPLINE_CURVE ((5., 1., 1., 1., 1., 5.))
   REPRESENTATION_ITEM ('')
);
#134 = EDGE_CURVE ('', #119, #119, #133, .T.);
#135 = ORIENTED_EDGE ('', *, *, #134, .T.);
#136 = ORIENTED_EDGE ('', *, *, #125, .T.);
#137 = ORIENTED_EDGE ('', *, *, #39, .F.);
#138 = EDGE_LOOP ('', (#126, #135, #136, #137));
#139 = FACE_OUTER_BOUND ('', #138, .F.);
#140 = CARTESIAN_POINT ('', (-1., 5., -1.22464679914735E-15));
#141 = CARTESIAN_POINT ('', (-25.5833333333333, 5., -1.22464679914735E-15));
#142 = CARTESIAN_POINT ('', (-50.1666666666664, 5., -1.22464679914735E-15));
#143 = CARTESIAN_POINT ('', (-74.75, 5., -1.22464679914735E-15));
#144 = CARTESIAN_POINT ('', (-1., 5., 20.));
#145 = CARTESIAN_POINT ('', (-25.5833333333333, 5., 20.));
#146 = CARTESIAN_POINT ('', (-50.1666666666664, 4.99999999999999, 20.));
#147 = CARTESIAN_POINT ('', (-74.75, 4.99999999999999, 20.));
#148 = CARTESIAN_POINT ('', (-1., -15., 10.));
#149 = CARTESIAN_POINT ('', (-25.5833333333333, -15., 9.99999999999999));
#150 = CARTESIAN_POINT ('', (-50.1666666666664, -15., 9.99999999999999));
#151 = CARTESIAN_POINT ('', (-74.75, -15., 9.99999999999998));
#152 = CARTESIAN_POINT ('', (-1., -15., -10.));
#153 = CARTESIAN_POINT ('', (-25.5833333333333, -15., -10.));
#154 = CARTESIAN_POINT ('', (-50.1666666666664, -15., -10.));
#155 = CARTESIAN_POINT ('', (-74.75, -15., -10.));
#156 = CARTESIAN_POINT ('', (-0.999999999999999, 5., -20.));
#157 = CARTESIAN_POINT ('', (-25.5833333333333, 5., -20.));
#158 = CARTESIAN_POINT ('', (-50.1666666666664, 5.00000000000001, -20.));
#159 = CARTESIAN_POINT ('', (-74.75, 5.00000000000001, -20.));
#160 = CARTESIAN_POINT ('', (-1., 5., -1.22464679914735E-15));
#161 = CARTESIAN_POINT ('', (-25.5833333333333, 5., -1.22464679914735E-15));
#162 = CARTESIAN_POINT ('', (-50.1666666666664, 5., -1.22464679914735E-15));
#163 = CARTESIAN_POINT ('', (-74.75, 5., -1.22464679914735E-15));
#164 = (
   BOUNDED_SURFACE ()
   B_SPLINE_SURFACE (5, 3, ((#140, #141, #142, #143), (#144, #145, #146, #147), (#148, #149, #150, #151), (#152, #153, #154, #155), (#156, #157, #158, #159), (#160, #161, #162, #163)), .UNSPECIFIED., .T., .F., .U.)
   B_SPLINE_SURFACE_WITH_KNOTS ((6, 6), (4, 4), (0., 1.), (0., 1.), .UNSPECIFIED.)
   SURFACE ()
   GEOMETRIC_REPRESENTATION_ITEM ()
   RATIONAL_B_SPLINE_SURFACE (((5., 5., 5., 5.), (1., 1., 1., 1.), (1., 1., 1., 1.), (1., 1., 1., 1.), (1., 1., 1., 1.), (5., 5., 5., 5.)))
   REPRESENTATION_ITEM ('')
);
#165 = ADVANCED_FACE ('', (#139), #164, .F.);
#166 = CARTESIAN_POINT ('', (4.93038065763132E-32, 4., -9.79717439317883E-16));
#167 = VERTEX_POINT ('', #166);
#168 = CARTESIAN_POINT ('', (4.93038065763132E-32, 4., -9.79717439317883E-16));
#169 = CARTESIAN_POINT ('', (4.93038065763132E-32, 4.10925537777972, -1.0064772890554E-15));
#170 = CARTESIAN_POINT ('', (-0.0405284603756879, 4.35374193361113, -1.0663592246621E-15));
#171 = CARTESIAN_POINT ('', (-0.220054300201926, 4.65969993063218, -1.14129732100717E-15));
#172 = CARTESIAN_POINT ('', (-0.545397966132821, 4.92419438240462, -1.20607977775824E-15));
#173 = CARTESIAN_POINT ('', (-0.823979860049297, 5.00000000000001, -1.22464679914735E-15));
#174 = CARTESIAN_POINT ('', (-1., 5., -1.22464679914735E-15));
#175 = B_SPLINE_CURVE_WITH_KNOTS ('', 3, (#168, #169, #170, #171, #172, #173, #174), .UNSPECIFIED., .F., .U., (4, 1, 1, 1, 4), (0., 0.208662401196191, 0.467060336615637, 0.66382629571742, 1.), .UNSPECIFIED.);
#176 = EDGE_CURVE ('', #167, #119, #175, .T.);
#177 = ORIENTED_EDGE ('', *, *, #176, .F.);
#178 = CARTESIAN_POINT ('', (4.93038065763132E-32, 4., -9.79717439317883E-16));
#179 = CARTESIAN_POINT ('', (-9.79717439317882E-16, 4., 16.));
#180 = CARTESIAN_POINT ('', (-1.46957615897682E-15, -12., 8.));
#181 = CARTESIAN_POINT ('', (-4.89858719658942E-16, -12., -8.));
#182 = CARTESIAN_POINT ('', (9.79717439317882E-16, 4., -16.));
#183 = CARTESIAN_POINT ('', (4.93038065763132E-32, 4., -9.79717439317883E-16));
#184 = (
   BOUNDED_CURVE ()
   B_SPLINE_CURVE (5, (#178, #179, #180, #181, #182, #183), .UNSPECIFIED., .T., .U.)
   B_SPLINE_CURVE_WITH_KNOTS ((6, 6), (0., 1.), .UNSPECIFIED.)
   CURVE ()
   GEOMETRIC_REPRESENTATION_ITEM ()
   RATIONAL_B_SPLINE_CURVE ((5., 1., 1., 1., 1., 5.))
   REPRESENTATION_ITEM ('')
);
#185 = EDGE_CURVE ('', #167, #167, #184, .T.);
#186 = ORIENTED_EDGE ('', *, *, #185, .T.);
#187 = ORIENTED_EDGE ('', *, *, #176, .T.);
#188 = ORIENTED_EDGE ('', *, *, #134, .F.);
#189 = EDGE_LOOP ('', (#177, #186, #187, #188));
#190 = FACE_OUTER_BOUND ('', #189, .F.);
#191 = CARTESIAN_POINT ('', (4.93038065763132E-32, 4., -9.79717439317883E-16));
#192 = CARTESIAN_POINT ('', (4.93038065763132E-32, 4.10925537777972, -1.0064772890554E-15));
#193 = CARTESIAN_POINT ('', (-0.0405284603756879, 4.35374193361113, -1.0663592246621E-15));
#194 = CARTESIAN_POINT ('', (-0.220054300201926, 4.65969993063218, -1.14129732100717E-15));
#195 = CARTESIAN_POINT ('', (-0.545397966132821, 4.92419438240462, -1.20607977775824E-15));
#196 = CARTESIAN_POINT ('', (-0.823979860049297, 5.00000000000001, -1.22464679914735E-15));
#197 = CARTESIAN_POINT ('', (-1., 5., -1.22464679914735E-15));
#198 = CARTESIAN_POINT ('', (-9.79717439317882E-16, 4., 16.));
#199 = CARTESIAN_POINT ('', (-1.0064772890554E-15, 4.10925537777973, 16.4370215111189));
#200 = CARTESIAN_POINT ('', (-0.040528460375689, 4.35374193361114, 17.4149677344445));
#201 = CARTESIAN_POINT ('', (-0.220054300201927, 4.65969993063219, 18.6387997225287));
#202 = CARTESIAN_POINT ('', (-0.545397966132822, 4.92419438240463, 19.6967775296185));
#203 = CARTESIAN_POINT ('', (-0.823979860049299, 5.00000000000001, 20.));
#204 = CARTESIAN_POINT ('', (-1., 5., 20.));
#205 = CARTESIAN_POINT ('', (-1.46957615897682E-15, -12., 8.));
#206 = CARTESIAN_POINT ('', (-1.5097159335831E-15, -12.3277661333392, 8.21851075555945));
#207 = CARTESIAN_POINT ('', (-0.0405284603756895, -13.0612258008334, 8.70748386722227));
#208 = CARTESIAN_POINT ('', (-0.220054300201928, -13.9790997918966, 9.31939986126437));
#209 = CARTESIAN_POINT ('', (-0.545397966132823, -14.7725831472139, 9.84838876480925));
#210 = CARTESIAN_POINT ('', (-0.823979860049299, -15., 10.));
#211 = CARTESIAN_POINT ('', (-1., -15., 10.));
#212 = CARTESIAN_POINT ('', (-4.89858719658942E-16, -12., -8.));
#213 = CARTESIAN_POINT ('', (-5.03238644527699E-16, -12.3277661333392, -8.21851075555945));
#214 = CARTESIAN_POINT ('', (-0.0405284603756885, -13.0612258008334, -8.70748386722226));
#215 = CARTESIAN_POINT ('', (-0.220054300201927, -13.9790997918966, -9.31939986126437));
#216 = CARTESIAN_POINT ('', (-0.545397966132822, -14.7725831472139, -9.84838876480924));
#217 = CARTESIAN_POINT ('', (-0.823979860049298, -15., -10.));
#218 = CARTESIAN_POINT ('', (-1., -15., -10.));
#219 = CARTESIAN_POINT ('', (9.79717439317882E-16, 4., -16.));
#220 = CARTESIAN_POINT ('', (1.0064772890554E-15, 4.10925537777972, -16.4370215111189));
#221 = CARTESIAN_POINT ('', (-0.0405284603756869, 4.35374193361113, -17.4149677344445));
#222 = CARTESIAN_POINT ('', (-0.220054300201925, 4.65969993063218, -18.6387997225287));
#223 = CARTESIAN_POINT ('', (-0.54539796613282, 4.92419438240462, -19.6967775296185));
#224 = CARTESIAN_POINT ('', (-0.823979860049296, 5., -20.));
#225 = CARTESIAN_POINT ('', (-0.999999999999999, 5., -20.));
#226 = CARTESIAN_POINT ('', (4.93038065763132E-32, 4., -9.79717439317883E-16));
#227 = CARTESIAN_POINT ('', (4.93038065763132E-32, 4.10925537777972, -1.0064772890554E-15));
#228 = CARTESIAN_POINT ('', (-0.0405284603756879, 4.35374193361113, -1.0663592246621E-15));
#229 = CARTESIAN_POINT ('', (-0.220054300201926, 4.65969993063218, -1.14129732100717E-15));
#230 = CARTESIAN_POINT ('', (-0.545397966132821, 4.92419438240462, -1.20607977775824E-15));
#231 = CARTESIAN_POINT ('', (-0.823979860049297, 5.00000000000001, -1.22464679914735E-15));
#232 = CARTESIAN_POINT ('', (-1., 5., -1.22464679914735E-15));
#233 = (
   BOUNDED_SURFACE ()
   B_SPLINE_SURFACE (5, 3, ((#191, #192, #193, #194, #195, #196, #197), (#198, #199, #200, #201, #202, #203, #204), (#205, #206, #207, #208, #209, #210, #211), (#212, #213, #214, #215, #216, #217, #218), (#219, #220, #221, #222, #223, #224, #225), (#226, #227, #228, #229, #230, #231, #232)), .UNSPECIFIED., .T., .F., .U.)
   B_SPLINE_SURFACE_WITH_KNOTS ((6, 6), (4, 1, 1, 1, 4), (0., 1.), (0., 0.208662401196191, 0.467060336615637, 0.66382629571742, 1.), .UNSPECIFIED.)
   SURFACE ()
   GEOMETRIC_REPRESENTATION_ITEM ()
   RATIONAL_B_SPLINE_SURFACE (((5., 5., 5., 5., 5., 5., 5.), (1., 1., 1., 1., 1., 1., 1.), (1., 1., 1., 1., 1., 1., 1.), (1., 1., 1., 1., 1., 1., 1.), (1., 1., 1., 1., 1., 1., 1.), (5., 5., 5., 5., 5., 5., 5.)))
   REPRESENTATION_ITEM ('')
);
#234 = ADVANCED_FACE ('', (#190), #233, .F.);
#235 = CARTESIAN_POINT ('', (0., 0., 0.));
#236 = VERTEX_POINT ('', #235);
#237 = CARTESIAN_POINT ('', (0., 0., 0.));
#238 = CARTESIAN_POINT ('', (2.46519032881566E-32, 1.33333333333333, -3.26572479772627E-16));
#239 = CARTESIAN_POINT ('', (4.93038065763132E-32, 2.66666666666667, -6.53144959545257E-16));
#240 = CARTESIAN_POINT ('', (4.93038065763132E-32, 4., -9.79717439317883E-16));
#241 = B_SPLINE_CURVE_WITH_KNOTS ('', 3, (#237, #238, #239, #240), .UNSPECIFIED., .F., .U., (4, 4), (0., 1.), .UNSPECIFIED.);
#242 = EDGE_CURVE ('', #236, #167, #241, .T.);
#243 = ORIENTED_EDGE ('', *, *, #242, .F.);
#244 = ORIENTED_EDGE ('', *, *, #242, .T.);
#245 = ORIENTED_EDGE ('', *, *, #185, .F.);
#246 = EDGE_LOOP ('', (#243, #244, #245));
#247 = FACE_OUTER_BOUND ('', #246, .F.);
#248 = CARTESIAN_POINT ('', (0., 0., 0.));
#249 = CARTESIAN_POINT ('', (2.46519032881566E-32, 1.33333333333333, -3.26572479772627E-16));
#250 = CARTESIAN_POINT ('', (4.93038065763132E-32, 2.66666666666667, -6.53144959545257E-16));
#251 = CARTESIAN_POINT ('', (4.93038065763132E-32, 4., -9.79717439317883E-16));
#252 = CARTESIAN_POINT ('', (0., 0., 0.));
#253 = CARTESIAN_POINT ('', (-3.26572479772627E-16, 1.33333333333333, 5.33333333333333));
#254 = CARTESIAN_POINT ('', (-6.53144959545257E-16, 2.66666666666668, 10.6666666666667));
#255 = CARTESIAN_POINT ('', (-9.79717439317882E-16, 4., 16.));
#256 = CARTESIAN_POINT ('', (0., 0., 0.));
#257 = CARTESIAN_POINT ('', (-4.89858719658941E-16, -4., 2.66666666666667));
#258 = CARTESIAN_POINT ('', (-9.79717439317886E-16, -8.00000000000002, 5.33333333333335));
#259 = CARTESIAN_POINT ('', (-1.46957615897682E-15, -12., 8.));
#260 = CARTESIAN_POINT ('', (0., 0., 0.));
#261 = CARTESIAN_POINT ('', (-1.63286239886314E-16, -4., -2.66666666666667));
#262 = CARTESIAN_POINT ('', (-3.26572479772629E-16, -8.00000000000003, -5.33333333333335));
#263 = CARTESIAN_POINT ('', (-4.89858719658942E-16, -12., -8.));
#264 = CARTESIAN_POINT ('', (0., 0., 0.));
#265 = CARTESIAN_POINT ('', (3.26572479772627E-16, 1.33333333333333, -5.33333333333333));
#266 = CARTESIAN_POINT ('', (6.53144959545257E-16, 2.66666666666667, -10.6666666666667));
#267 = CARTESIAN_POINT ('', (9.79717439317882E-16, 4., -16.));
#268 = CARTESIAN_POINT ('', (0., 0., 0.));
#269 = CARTESIAN_POINT ('', (2.46519032881566E-32, 1.33333333333333, -3.26572479772627E-16));
#270 = CARTESIAN_POINT ('', (4.93038065763132E-32, 2.66666666666667, -6.53144959545257E-16));
#271 = CARTESIAN_POINT ('', (4.93038065763132E-32, 4., -9.79717439317883E-16));
#272 = (
   BOUNDED_SURFACE ()
   B_SPLINE_SURFACE (5, 3, ((#248, #249, #250, #251), (#252, #253, #254, #255), (#256, #257, #258, #259), (#260, #261, #262, #263), (#264, #265, #266, #267), (#268, #269, #270, #271)), .UNSPECIFIED., .T., .F., .U.)
   B_SPLINE_SURFACE_WITH_KNOTS ((6, 6), (4, 4), (0., 1.), (0., 1.), .UNSPECIFIED.)
   SURFACE ()
   GEOMETRIC_REPRESENTATION_ITEM ()
   RATIONAL_B_SPLINE_SURFACE (((5., 5., 5., 5.), (1., 1., 1., 1.), (1., 1., 1., 1.), (1., 1., 1., 1.), (1., 1., 1., 1.), (5., 5., 5., 5.)))
   REPRESENTATION_ITEM ('')
);
#273 = ADVANCED_FACE ('', (#247), #272, .F.);
#274 = CLOSED_SHELL ('', (#78, #117, #165, #234, #273));
#275 = MANIFOLD_SOLID_BREP ('', #274);
#276 = (
   LENGTH_UNIT ()
   NAMED_UNIT (*)
   SI_UNIT (.MILLI., .METRE.)
);
#277 = (
   NAMED_UNIT (*)
   SI_UNIT ($, .STERADIAN.)
   SOLID_ANGLE_UNIT ()
);
#278 = (
   NAMED_UNIT (*)
   SI_UNIT ($, .RADIAN.)
   PLANE_ANGLE_UNIT ()
);
#279 = UNCERTAINTY_MEASURE_WITH_UNIT (LENGTH_MEASURE(0.001), #276, 'DISTANCE_ACCURACY_VALUE', '');
#280 = (
   GEOMETRIC_REPRESENTATION_CONTEXT (3)
   GLOBAL_UNCERTAINTY_ASSIGNED_CONTEXT ((#279))
   GLOBAL_UNIT_ASSIGNED_CONTEXT ((#276, #277, #278))
   REPRESENTATION_CONTEXT ('', '3D')
);
#281 = SHAPE_REPRESENTATION ('', (), #280);
#282 = APPLICATION_CONTEXT ('configuration controlled 3D designs of mechanical parts and assemblies');
#283 = APPLICATION_PROTOCOL_DEFINITION ('International Standard', 'config_control_design', 1997, #282);
#284 = MECHANICAL_CONTEXT ('', #282, 'mechanical');
#285 = PRODUCT ('', '', '', (#284));
#286 = PERSON_AND_ORGANIZATION_ROLE ('design_owner');
#287 = PERSON ('', '', $, $, $, $);
#288 = ORGANIZATION ($, '', '');
#289 = PERSON_AND_ORGANIZATION (#287, #288);
#290 = CC_DESIGN_PERSON_AND_ORGANIZATION_ASSIGNMENT (#289, #286, (#285));
#291 = PRODUCT_RELATED_PRODUCT_CATEGORY ('detail', $, (#285));
#292 = PRODUCT_DEFINITION_FORMATION_WITH_SPECIFIED_SOURCE ('', '', #285, .NOT_KNOWN.);
#293 = APPROVAL_STATUS ('approved');
#294 = APPROVAL (#293, '');
#295 = CALENDAR_DATE (2021, 7, 12);
#296 = COORDINATED_UNIVERSAL_TIME_OFFSET (0, $, .AHEAD.);
#297 = LOCAL_TIME (15, 15, 2., #296);
#298 = DATE_AND_TIME (#295, #297);
#299 = APPROVAL_DATE_TIME (#298, #294);
#300 = APPROVAL_ROLE ('');
#301 = PERSON ('', '', $, $, $, $);
#302 = ORGANIZATION ($, '', '');
#303 = PERSON_AND_ORGANIZATION (#301, #302);
#304 = APPROVAL_PERSON_ORGANIZATION (#303, #294, #300);
#305 = CC_DESIGN_APPROVAL (#294, (#292));
#306 = PERSON_AND_ORGANIZATION_ROLE ('creator');
#307 = PERSON ('', '', $, $, $, $);
#308 = ORGANIZATION ($, '', '');
#309 = PERSON_AND_ORGANIZATION (#307, #308);
#310 = CC_DESIGN_PERSON_AND_ORGANIZATION_ASSIGNMENT (#309, #306, (#292));
#311 = PERSON_AND_ORGANIZATION_ROLE ('part_supplier');
#312 = PERSON ('', '', $, $, $, $);
#313 = ORGANIZATION ($, '', '');
#314 = PERSON_AND_ORGANIZATION (#312, #313);
#315 = CC_DESIGN_PERSON_AND_ORGANIZATION_ASSIGNMENT (#314, #311, (#292));
#316 = SECURITY_CLASSIFICATION_LEVEL ('unclassified');
#317 = SECURITY_CLASSIFICATION ('', '', #316);
#318 = APPROVAL_STATUS ('approved');
#319 = APPROVAL (#318, '');
#320 = CALENDAR_DATE (2021, 7, 12);
#321 = COORDINATED_UNIVERSAL_TIME_OFFSET (0, $, .AHEAD.);
#322 = LOCAL_TIME (15, 15, 2., #321);
#323 = DATE_AND_TIME (#320, #322);
#324 = APPROVAL_DATE_TIME (#323, #319);
#325 = APPROVAL_ROLE ('');
#326 = PERSON ('', '', $, $, $, $);
#327 = ORGANIZATION ($, '', '');
#328 = PERSON_AND_ORGANIZATION (#326, #327);
#329 = APPROVAL_PERSON_ORGANIZATION (#328, #319, #325);
#330 = CC_DESIGN_APPROVAL (#319, (#317));
#331 = DATE_TIME_ROLE ('classification_date');
#332 = CALENDAR_DATE (2021, 7, 12);
#333 = COORDINATED_UNIVERSAL_TIME_OFFSET (0, $, .AHEAD.);
#334 = LOCAL_TIME (15, 15, 2., #333);
#335 = DATE_AND_TIME (#332, #334);
#336 = CC_DESIGN_DATE_AND_TIME_ASSIGNMENT (#335, #331, (#317));
#337 = PERSON_AND_ORGANIZATION_ROLE ('classification_officer');
#338 = PERSON ('', '', $, $, $, $);
#339 = ORGANIZATION ($, '', '');
#340 = PERSON_AND_ORGANIZATION (#338, #339);
#341 = CC_DESIGN_PERSON_AND_ORGANIZATION_ASSIGNMENT (#340, #337, (#317));
#342 = CC_DESIGN_SECURITY_CLASSIFICATION (#317, (#292));
#343 = DESIGN_CONTEXT ('', #282, 'design');
#344 = PRODUCT_DEFINITION ('', '', #292, #343);
#345 = APPROVAL_STATUS ('approved');
#346 = APPROVAL (#345, '');
#347 = CALENDAR_DATE (2021, 7, 12);
#348 = COORDINATED_UNIVERSAL_TIME_OFFSET (0, $, .AHEAD.);
#349 = LOCAL_TIME (15, 15, 2., #348);
#350 = DATE_AND_TIME (#347, #349);
#351 = APPROVAL_DATE_TIME (#350, #346);
#352 = APPROVAL_ROLE ('');
#353 = PERSON ('', '', $, $, $, $);
#354 = ORGANIZATION ($, '', '');
#355 = PERSON_AND_ORGANIZATION (#353, #354);
#356 = APPROVAL_PERSON_ORGANIZATION (#355, #346, #352);
#357 = CC_DESIGN_APPROVAL (#346, (#344));
#358 = DATE_TIME_ROLE ('creation_date');
#359 = CALENDAR_DATE (2021, 7, 12);
#360 = COORDINATED_UNIVERSAL_TIME_OFFSET (0, $, .AHEAD.);
#361 = LOCAL_TIME (15, 15, 2., #360);
#362 = DATE_AND_TIME (#359, #361);
#363 = CC_DESIGN_DATE_AND_TIME_ASSIGNMENT (#362, #358, (#344));
#364 = PERSON_AND_ORGANIZATION_ROLE ('creator');
#365 = PERSON ('', '', $, $, $, $);
#366 = ORGANIZATION ($, '', '');
#367 = PERSON_AND_ORGANIZATION (#365, #366);
#368 = CC_DESIGN_PERSON_AND_ORGANIZATION_ASSIGNMENT (#367, #364, (#344));
#369 = PRODUCT_DEFINITION_SHAPE ('', '', #344);
#370 = SHAPE_DEFINITION_REPRESENTATION (#369, #281);
#371 = SHAPE_REPRESENTATION_RELATIONSHIP ('', '', #281, #372);
#372 = GEOMETRICALLY_BOUNDED_WIREFRAME_SHAPE_REPRESENTATION ('', (#4), #280);
#373 = SHAPE_REPRESENTATION_RELATIONSHIP ('', '', #281, #374);
#374 = ADVANCED_BREP_SHAPE_REPRESENTATION ('', (#275), #280);
ENDSEC;
END-ISO-10303-21;
