ISO-10303-21;
HEADER;
FILE_DESCRIPTION ((), '1');
FILE_NAME ('C:\\Users\\kevin\\137V5 range\\137V5 1203-1.0RALCC.STP', '2021-12-07T15:16:47', ('Unknown'), ('m.a.ford europe'), 'OneCNC-XR8 Mill 3D Expert', 'OneCNC-XR8 Mill 3D Expert', '');
FILE_SCHEMA (('CONFIG_CONTROL_DESIGN'));
ENDSEC;

DATA;
#1 = CARTESIAN_POINT ('', (-124.75, 6., -1.46957615897682E-15));
#2 = VERTEX_POINT ('', #1);
#3 = CARTESIAN_POINT ('', (-125., 5.75, -1.40834381901945E-15));
#4 = VERTEX_POINT ('', #3);
#5 = CARTESIAN_POINT ('', (-124.75, 6., -1.46957615897682E-15));
#6 = CARTESIAN_POINT ('', (-124.833333333334, 5.91666666666666, -1.44916537899103E-15));
#7 = CARTESIAN_POINT ('', (-124.916666666666, 5.83333333333334, -1.42875459900524E-15));
#8 = CARTESIAN_POINT ('', (-125., 5.75, -1.40834381901945E-15));
#9 = B_SPLINE_CURVE_WITH_KNOTS ('', 3, (#5, #6, #7, #8), .UNSPECIFIED., .F., .U., (4, 4), (0., 1.), .UNSPECIFIED.);
#10 = EDGE_CURVE ('', #2, #4, #9, .T.);
#11 = ORIENTED_EDGE ('', *, *, #10, .F.);
#12 = CARTESIAN_POINT ('', (-124.75, 6., -1.46957615897682E-15));
#13 = CARTESIAN_POINT ('', (-124.75, 5.99999999999997, 24.));
#14 = CARTESIAN_POINT ('', (-124.75, -18., 12.));
#15 = CARTESIAN_POINT ('', (-124.75, -18., -12.));
#16 = CARTESIAN_POINT ('', (-124.75, 6.00000000000002, -24.));
#17 = CARTESIAN_POINT ('', (-124.75, 6., -1.46957615897682E-15));
#18 = (
   BOUNDED_CURVE ()
   B_SPLINE_CURVE (5, (#12, #13, #14, #15, #16, #17), .UNSPECIFIED., .T., .U.)
   B_SPLINE_CURVE_WITH_KNOTS ((6, 6), (0., 1.), .UNSPECIFIED.)
   CURVE ()
   GEOMETRIC_REPRESENTATION_ITEM ()
   RATIONAL_B_SPLINE_CURVE ((5., 1., 1., 1., 1., 5.))
   REPRESENTATION_ITEM ('')
);
#19 = EDGE_CURVE ('', #2, #2, #18, .T.);
#20 = ORIENTED_EDGE ('', *, *, #19, .T.);
#21 = ORIENTED_EDGE ('', *, *, #10, .T.);
#22 = CARTESIAN_POINT ('', (-125., 5.75, -1.40834381901945E-15));
#23 = CARTESIAN_POINT ('', (-125., 5.74999999999998, 23.));
#24 = CARTESIAN_POINT ('', (-125., -17.25, 11.5));
#25 = CARTESIAN_POINT ('', (-125., -17.25, -11.5));
#26 = CARTESIAN_POINT ('', (-125., 5.75000000000002, -23.));
#27 = CARTESIAN_POINT ('', (-125., 5.75, -1.40834381901945E-15));
#28 = (
   BOUNDED_CURVE ()
   B_SPLINE_CURVE (5, (#22, #23, #24, #25, #26, #27), .UNSPECIFIED., .T., .U.)
   B_SPLINE_CURVE_WITH_KNOTS ((6, 6), (0., 1.), .UNSPECIFIED.)
   CURVE ()
   GEOMETRIC_REPRESENTATION_ITEM ()
   RATIONAL_B_SPLINE_CURVE ((5., 1., 1., 1., 1., 5.))
   REPRESENTATION_ITEM ('')
);
#29 = EDGE_CURVE ('', #4, #4, #28, .T.);
#30 = ORIENTED_EDGE ('', *, *, #29, .F.);
#31 = EDGE_LOOP ('', (#11, #20, #21, #30));
#32 = FACE_OUTER_BOUND ('', #31, .F.);
#33 = CARTESIAN_POINT ('', (-124.75, 6., -1.46957615897682E-15));
#34 = CARTESIAN_POINT ('', (-124.833333333334, 5.91666666666666, -1.44916537899103E-15));
#35 = CARTESIAN_POINT ('', (-124.916666666666, 5.83333333333334, -1.42875459900524E-15));
#36 = CARTESIAN_POINT ('', (-125., 5.75, -1.40834381901945E-15));
#37 = CARTESIAN_POINT ('', (-124.75, 5.99999999999997, 24.));
#38 = CARTESIAN_POINT ('', (-124.833333333334, 5.91666666666663, 23.6666666666666));
#39 = CARTESIAN_POINT ('', (-124.916666666666, 5.83333333333332, 23.3333333333333));
#40 = CARTESIAN_POINT ('', (-125., 5.74999999999998, 23.));
#41 = CARTESIAN_POINT ('', (-124.75, -18., 12.));
#42 = CARTESIAN_POINT ('', (-124.833333333334, -17.7499999999999, 11.8333333333333));
#43 = CARTESIAN_POINT ('', (-124.916666666666, -17.5, 11.6666666666666));
#44 = CARTESIAN_POINT ('', (-125., -17.25, 11.5));
#45 = CARTESIAN_POINT ('', (-124.75, -18., -12.));
#46 = CARTESIAN_POINT ('', (-124.833333333334, -17.7499999999999, -11.8333333333333));
#47 = CARTESIAN_POINT ('', (-124.916666666666, -17.5, -11.6666666666667));
#48 = CARTESIAN_POINT ('', (-125., -17.25, -11.5));
#49 = CARTESIAN_POINT ('', (-124.75, 6.00000000000002, -24.));
#50 = CARTESIAN_POINT ('', (-124.833333333334, 5.91666666666668, -23.6666666666666));
#51 = CARTESIAN_POINT ('', (-124.916666666666, 5.83333333333337, -23.3333333333333));
#52 = CARTESIAN_POINT ('', (-125., 5.75000000000002, -23.));
#53 = CARTESIAN_POINT ('', (-124.75, 6., -1.46957615897682E-15));
#54 = CARTESIAN_POINT ('', (-124.833333333334, 5.91666666666666, -1.44916537899103E-15));
#55 = CARTESIAN_POINT ('', (-124.916666666666, 5.83333333333334, -1.42875459900524E-15));
#56 = CARTESIAN_POINT ('', (-125., 5.75, -1.40834381901945E-15));
#57 = (
   BOUNDED_SURFACE ()
   B_SPLINE_SURFACE (5, 3, ((#33, #34, #35, #36), (#37, #38, #39, #40), (#41, #42, #43, #44), (#45, #46, #47, #48), (#49, #50, #51, #52), (#53, #54, #55, #56)), .UNSPECIFIED., .T., .F., .U.)
   B_SPLINE_SURFACE_WITH_KNOTS ((6, 6), (4, 4), (0., 1.), (0., 1.), .UNSPECIFIED.)
   SURFACE ()
   GEOMETRIC_REPRESENTATION_ITEM ()
   RATIONAL_B_SPLINE_SURFACE (((5., 5., 5., 5.), (1., 1., 1., 1.), (1., 1., 1., 1.), (1., 1., 1., 1.), (1., 1., 1., 1.), (5., 5., 5., 5.)))
   REPRESENTATION_ITEM ('')
);
#58 = ADVANCED_FACE ('', (#32), #57, .F.);
#59 = CARTESIAN_POINT ('', (-125., 7.65404249467096E-15, -7.65404249467096E-15));
#60 = VERTEX_POINT ('', #59);
#61 = CARTESIAN_POINT ('', (-125., 5.75, -1.40834381901945E-15));
#62 = CARTESIAN_POINT ('', (-125., 3.83333333333334, -9.38895879346304E-16));
#63 = CARTESIAN_POINT ('', (-125., 1.91666666666667, -4.6944793967315E-16));
#64 = CARTESIAN_POINT ('', (-125., 7.65404249467096E-15, -7.65404249467096E-15));
#65 = B_SPLINE_CURVE_WITH_KNOTS ('', 3, (#61, #62, #63, #64), .UNSPECIFIED., .F., .U., (4, 4), (0., 1.), .UNSPECIFIED.);
#66 = EDGE_CURVE ('', #4, #60, #65, .T.);
#67 = ORIENTED_EDGE ('', *, *, #66, .F.);
#68 = ORIENTED_EDGE ('', *, *, #29, .T.);
#69 = ORIENTED_EDGE ('', *, *, #66, .T.);
#70 = EDGE_LOOP ('', (#67, #68, #69));
#71 = FACE_OUTER_BOUND ('', #70, .F.);
#72 = CARTESIAN_POINT ('', (-125., 5.75, -1.40834381901945E-15));
#73 = CARTESIAN_POINT ('', (-125., 3.83333333333334, -9.38895879346304E-16));
#74 = CARTESIAN_POINT ('', (-125., 1.91666666666667, -4.6944793967315E-16));
#75 = CARTESIAN_POINT ('', (-125., 7.65404249467096E-15, -7.65404249467096E-15));
#76 = CARTESIAN_POINT ('', (-125., 5.74999999999998, 23.));
#77 = CARTESIAN_POINT ('', (-125., 3.83333333333331, 15.3333333333333));
#78 = CARTESIAN_POINT ('', (-125., 1.91666666666664, 7.66666666666663));
#79 = CARTESIAN_POINT ('', (-125., 7.65404249467096E-15, -7.65404249467096E-15));
#80 = CARTESIAN_POINT ('', (-125., -17.25, 11.5));
#81 = CARTESIAN_POINT ('', (-125., -11.5, 7.66666666666663));
#82 = CARTESIAN_POINT ('', (-125., -5.74999999999998, 3.83333333333329));
#83 = CARTESIAN_POINT ('', (-125., 7.65404249467096E-15, -7.65404249467096E-15));
#84 = CARTESIAN_POINT ('', (-125., -17.25, -11.5));
#85 = CARTESIAN_POINT ('', (-125., -11.5, -7.66666666666669));
#86 = CARTESIAN_POINT ('', (-125., -5.74999999999995, -3.83333333333335));
#87 = CARTESIAN_POINT ('', (-125., 7.65404249467096E-15, -7.65404249467096E-15));
#88 = CARTESIAN_POINT ('', (-125., 5.75000000000002, -23.));
#89 = CARTESIAN_POINT ('', (-125., 3.83333333333337, -15.3333333333333));
#90 = CARTESIAN_POINT ('', (-125., 1.9166666666667, -7.66666666666664));
#91 = CARTESIAN_POINT ('', (-125., 7.65404249467096E-15, -7.65404249467096E-15));
#92 = CARTESIAN_POINT ('', (-125., 5.75, -1.40834381901945E-15));
#93 = CARTESIAN_POINT ('', (-125., 3.83333333333334, -9.38895879346304E-16));
#94 = CARTESIAN_POINT ('', (-125., 1.91666666666667, -4.6944793967315E-16));
#95 = CARTESIAN_POINT ('', (-125., 7.65404249467096E-15, -7.65404249467096E-15));
#96 = (
   BOUNDED_SURFACE ()
   B_SPLINE_SURFACE (5, 3, ((#72, #73, #74, #75), (#76, #77, #78, #79), (#80, #81, #82, #83), (#84, #85, #86, #87), (#88, #89, #90, #91), (#92, #93, #94, #95)), .UNSPECIFIED., .T., .F., .U.)
   B_SPLINE_SURFACE_WITH_KNOTS ((6, 6), (4, 4), (0., 1.), (0., 1.), .UNSPECIFIED.)
   SURFACE ()
   GEOMETRIC_REPRESENTATION_ITEM ()
   RATIONAL_B_SPLINE_SURFACE (((5., 5., 5., 5.), (1., 1., 1., 1.), (1., 1., 1., 1.), (1., 1., 1., 1.), (1., 1., 1., 1.), (5., 5., 5., 5.)))
   REPRESENTATION_ITEM ('')
);
#97 = ADVANCED_FACE ('', (#71), #96, .F.);
#98 = CARTESIAN_POINT ('', (-1., 6., -1.46957615897682E-15));
#99 = VERTEX_POINT ('', #98);
#100 = CARTESIAN_POINT ('', (-1., 6., -1.46957615897682E-15));
#101 = CARTESIAN_POINT ('', (-42.25, 5.99999999999999, -1.46957615897682E-15));
#102 = CARTESIAN_POINT ('', (-83.5000000000001, 6., -1.46957615897682E-15));
#103 = CARTESIAN_POINT ('', (-124.75, 6., -1.46957615897682E-15));
#104 = B_SPLINE_CURVE_WITH_KNOTS ('', 3, (#100, #101, #102, #103), .UNSPECIFIED., .F., .U., (4, 4), (0., 1.), .UNSPECIFIED.);
#105 = EDGE_CURVE ('', #99, #2, #104, .T.);
#106 = ORIENTED_EDGE ('', *, *, #105, .F.);
#107 = CARTESIAN_POINT ('', (-1., 6., -1.46957615897682E-15));
#108 = CARTESIAN_POINT ('', (-1., 6.00000000000001, 24.));
#109 = CARTESIAN_POINT ('', (-1., -18., 12.));
#110 = CARTESIAN_POINT ('', (-1., -18., -12.));
#111 = CARTESIAN_POINT ('', (-0.999999999999998, 5.99999999999999, -24.));
#112 = CARTESIAN_POINT ('', (-1., 6., -1.46957615897682E-15));
#113 = (
   BOUNDED_CURVE ()
   B_SPLINE_CURVE (5, (#107, #108, #109, #110, #111, #112), .UNSPECIFIED., .T., .U.)
   B_SPLINE_CURVE_WITH_KNOTS ((6, 6), (0., 1.), .UNSPECIFIED.)
   CURVE ()
   GEOMETRIC_REPRESENTATION_ITEM ()
   RATIONAL_B_SPLINE_CURVE ((5., 1., 1., 1., 1., 5.))
   REPRESENTATION_ITEM ('')
);
#114 = EDGE_CURVE ('', #99, #99, #113, .T.);
#115 = ORIENTED_EDGE ('', *, *, #114, .T.);
#116 = ORIENTED_EDGE ('', *, *, #105, .T.);
#117 = ORIENTED_EDGE ('', *, *, #19, .F.);
#118 = EDGE_LOOP ('', (#106, #115, #116, #117));
#119 = FACE_OUTER_BOUND ('', #118, .F.);
#120 = CARTESIAN_POINT ('', (-1., 6., -1.46957615897682E-15));
#121 = CARTESIAN_POINT ('', (-42.25, 5.99999999999999, -1.46957615897682E-15));
#122 = CARTESIAN_POINT ('', (-83.5000000000001, 6., -1.46957615897682E-15));
#123 = CARTESIAN_POINT ('', (-124.75, 6., -1.46957615897682E-15));
#124 = CARTESIAN_POINT ('', (-1., 6.00000000000001, 24.));
#125 = CARTESIAN_POINT ('', (-42.25, 5.99999999999999, 24.));
#126 = CARTESIAN_POINT ('', (-83.5000000000001, 5.99999999999999, 24.));
#127 = CARTESIAN_POINT ('', (-124.75, 5.99999999999997, 24.));
#128 = CARTESIAN_POINT ('', (-1., -18., 12.));
#129 = CARTESIAN_POINT ('', (-42.25, -18., 12.));
#130 = CARTESIAN_POINT ('', (-83.5000000000001, -18., 12.));
#131 = CARTESIAN_POINT ('', (-124.75, -18., 12.));
#132 = CARTESIAN_POINT ('', (-1., -18., -12.));
#133 = CARTESIAN_POINT ('', (-42.25, -18., -12.));
#134 = CARTESIAN_POINT ('', (-83.5000000000001, -18., -12.));
#135 = CARTESIAN_POINT ('', (-124.75, -18., -12.));
#136 = CARTESIAN_POINT ('', (-0.999999999999999, 5.99999999999999, -24.));
#137 = CARTESIAN_POINT ('', (-42.25, 6., -24.));
#138 = CARTESIAN_POINT ('', (-83.5000000000001, 6.00000000000002, -24.));
#139 = CARTESIAN_POINT ('', (-124.75, 6.00000000000002, -24.));
#140 = CARTESIAN_POINT ('', (-1., 6., -1.46957615897682E-15));
#141 = CARTESIAN_POINT ('', (-42.25, 5.99999999999999, -1.46957615897682E-15));
#142 = CARTESIAN_POINT ('', (-83.5000000000001, 6., -1.46957615897682E-15));
#143 = CARTESIAN_POINT ('', (-124.75, 6., -1.46957615897682E-15));
#144 = (
   BOUNDED_SURFACE ()
   B_SPLINE_SURFACE (5, 3, ((#120, #121, #122, #123), (#124, #125, #126, #127), (#128, #129, #130, #131), (#132, #133, #134, #135), (#136, #137, #138, #139), (#140, #141, #142, #143)), .UNSPECIFIED., .T., .F., .U.)
   B_SPLINE_SURFACE_WITH_KNOTS ((6, 6), (4, 4), (0., 1.), (0., 1.), .UNSPECIFIED.)
   SURFACE ()
   GEOMETRIC_REPRESENTATION_ITEM ()
   RATIONAL_B_SPLINE_SURFACE (((5., 5., 5., 5.), (1., 1., 1., 1.), (1., 1., 1., 1.), (1., 1., 1., 1.), (1., 1., 1., 1.), (5., 5., 5., 5.)))
   REPRESENTATION_ITEM ('')
);
#145 = ADVANCED_FACE ('', (#119), #144, .F.);
#146 = CARTESIAN_POINT ('', (9.86076131526265E-32, 5., -1.22464679914735E-15));
#147 = VERTEX_POINT ('', #146);
#148 = CARTESIAN_POINT ('', (9.86076131526265E-32, 5., -1.22464679914735E-15));
#149 = CARTESIAN_POINT ('', (9.86076131526265E-32, 5.1760201399507, -1.26775929934257E-15));
#150 = CARTESIAN_POINT ('', (-0.0758056175953778, 5.45460203386718, -1.33599218427962E-15));
#151 = CARTESIAN_POINT ('', (-0.340300069367816, 5.77994569979808, -1.41567840010065E-15));
#152 = CARTESIAN_POINT ('', (-0.64625806638888, 5.95947153962432, -1.45964954912213E-15));
#153 = CARTESIAN_POINT ('', (-0.890744622220274, 6., -1.46957615897682E-15));
#154 = CARTESIAN_POINT ('', (-1., 6., -1.46957615897682E-15));
#155 = B_SPLINE_CURVE_WITH_KNOTS ('', 3, (#148, #149, #150, #151, #152, #153, #154), .UNSPECIFIED., .F., .U., (4, 1, 1, 1, 4), (0., 0.33617370428258, 0.532939663384363, 0.791337598803809, 1.), .UNSPECIFIED.);
#156 = EDGE_CURVE ('', #147, #99, #155, .T.);
#157 = ORIENTED_EDGE ('', *, *, #156, .F.);
#158 = CARTESIAN_POINT ('', (9.86076131526265E-32, 5., -1.22464679914735E-15));
#159 = CARTESIAN_POINT ('', (-1.22464679914735E-15, 5.00000000000001, 20.));
#160 = CARTESIAN_POINT ('', (-1.83697019872103E-15, -15., 10.));
#161 = CARTESIAN_POINT ('', (-6.12323399573677E-16, -15., -10.));
#162 = CARTESIAN_POINT ('', (1.22464679914735E-15, 4.99999999999999, -20.));
#163 = CARTESIAN_POINT ('', (9.86076131526265E-32, 5., -1.22464679914735E-15));
#164 = (
   BOUNDED_CURVE ()
   B_SPLINE_CURVE (5, (#158, #159, #160, #161, #162, #163), .UNSPECIFIED., .T., .U.)
   B_SPLINE_CURVE_WITH_KNOTS ((6, 6), (0., 1.), .UNSPECIFIED.)
   CURVE ()
   GEOMETRIC_REPRESENTATION_ITEM ()
   RATIONAL_B_SPLINE_CURVE ((5., 1., 1., 1., 1., 5.))
   REPRESENTATION_ITEM ('')
);
#165 = EDGE_CURVE ('', #147, #147, #164, .T.);
#166 = ORIENTED_EDGE ('', *, *, #165, .T.);
#167 = ORIENTED_EDGE ('', *, *, #156, .T.);
#168 = ORIENTED_EDGE ('', *, *, #114, .F.);
#169 = EDGE_LOOP ('', (#157, #166, #167, #168));
#170 = FACE_OUTER_BOUND ('', #169, .F.);
#171 = CARTESIAN_POINT ('', (9.86076131526265E-32, 5., -1.22464679914735E-15));
#172 = CARTESIAN_POINT ('', (9.86076131526265E-32, 5.1760201399507, -1.26775929934257E-15));
#173 = CARTESIAN_POINT ('', (-0.0758056175953778, 5.45460203386718, -1.33599218427962E-15));
#174 = CARTESIAN_POINT ('', (-0.340300069367816, 5.77994569979808, -1.41567840010065E-15));
#175 = CARTESIAN_POINT ('', (-0.64625806638888, 5.95947153962432, -1.45964954912213E-15));
#176 = CARTESIAN_POINT ('', (-0.890744622220274, 6., -1.46957615897682E-15));
#177 = CARTESIAN_POINT ('', (-1., 6., -1.46957615897682E-15));
#178 = CARTESIAN_POINT ('', (-1.22464679914735E-15, 5.00000000000001, 20.));
#179 = CARTESIAN_POINT ('', (-1.26775929934257E-15, 5.1760201399507, 20.7040805598028));
#180 = CARTESIAN_POINT ('', (-0.0758056175953791, 5.45460203386718, 21.8184081354687));
#181 = CARTESIAN_POINT ('', (-0.340300069367817, 5.77994569979809, 23.1197827991923));
#182 = CARTESIAN_POINT ('', (-0.646258066388881, 5.95947153962433, 23.8378861584973));
#183 = CARTESIAN_POINT ('', (-0.890744622220275, 6.00000000000001, 24.));
#184 = CARTESIAN_POINT ('', (-1., 6.00000000000001, 24.));
#185 = CARTESIAN_POINT ('', (-1.83697019872103E-15, -15., 10.));
#186 = CARTESIAN_POINT ('', (-1.90163894901386E-15, -15.5280604198521, 10.3520402799014));
#187 = CARTESIAN_POINT ('', (-0.0758056175953798, -16.3638061016015, 10.9092040677344));
#188 = CARTESIAN_POINT ('', (-0.340300069367818, -17.3398370993942, 11.5598913995962));
#189 = CARTESIAN_POINT ('', (-0.646258066388882, -17.878414618873, 11.9189430792486));
#190 = CARTESIAN_POINT ('', (-0.890744622220276, -18., 12.));
#191 = CARTESIAN_POINT ('', (-1., -18., 12.));
#192 = CARTESIAN_POINT ('', (-6.12323399573677E-16, -15., -10.));
#193 = CARTESIAN_POINT ('', (-6.33879649671286E-16, -15.5280604198521, -10.3520402799014));
#194 = CARTESIAN_POINT ('', (-0.0758056175953784, -16.3638061016015, -10.9092040677343));
#195 = CARTESIAN_POINT ('', (-0.340300069367817, -17.3398370993943, -11.5598913995962));
#196 = CARTESIAN_POINT ('', (-0.64625806638888, -17.878414618873, -11.9189430792486));
#197 = CARTESIAN_POINT ('', (-0.890744622220275, -18., -12.));
#198 = CARTESIAN_POINT ('', (-1., -18., -12.));
#199 = CARTESIAN_POINT ('', (1.22464679914735E-15, 4.99999999999999, -20.));
#200 = CARTESIAN_POINT ('', (1.26775929934257E-15, 5.17602013995069, -20.7040805598028));
#201 = CARTESIAN_POINT ('', (-0.0758056175953764, 5.45460203386717, -21.8184081354687));
#202 = CARTESIAN_POINT ('', (-0.340300069367815, 5.77994569979808, -23.1197827991923));
#203 = CARTESIAN_POINT ('', (-0.646258066388878, 5.95947153962432, -23.8378861584973));
#204 = CARTESIAN_POINT ('', (-0.890744622220272, 5.99999999999999, -24.));
#205 = CARTESIAN_POINT ('', (-0.999999999999998, 5.99999999999999, -24.));
#206 = CARTESIAN_POINT ('', (9.86076131526265E-32, 5., -1.22464679914735E-15));
#207 = CARTESIAN_POINT ('', (9.86076131526265E-32, 5.1760201399507, -1.26775929934257E-15));
#208 = CARTESIAN_POINT ('', (-0.0758056175953778, 5.45460203386718, -1.33599218427962E-15));
#209 = CARTESIAN_POINT ('', (-0.340300069367816, 5.77994569979808, -1.41567840010065E-15));
#210 = CARTESIAN_POINT ('', (-0.64625806638888, 5.95947153962432, -1.45964954912213E-15));
#211 = CARTESIAN_POINT ('', (-0.890744622220274, 6., -1.46957615897682E-15));
#212 = CARTESIAN_POINT ('', (-1., 6., -1.46957615897682E-15));
#213 = (
   BOUNDED_SURFACE ()
   B_SPLINE_SURFACE (5, 3, ((#171, #172, #173, #174, #175, #176, #177), (#178, #179, #180, #181, #182, #183, #184), (#185, #186, #187, #188, #189, #190, #191), (#192, #193, #194, #195, #196, #197, #198), (#199, #200, #201, #202, #203, #204, #205), (#206, #207, #208, #209, #210, #211, #212)), .UNSPECIFIED., .T., .F., .U.)
   B_SPLINE_SURFACE_WITH_KNOTS ((6, 6), (4, 1, 1, 1, 4), (0., 1.), (0., 0.33617370428258, 0.532939663384363, 0.791337598803809, 1.), .UNSPECIFIED.)
   SURFACE ()
   GEOMETRIC_REPRESENTATION_ITEM ()
   RATIONAL_B_SPLINE_SURFACE (((5., 5., 5., 5., 5., 5., 5.), (1., 1., 1., 1., 1., 1., 1.), (1., 1., 1., 1., 1., 1., 1.), (1., 1., 1., 1., 1., 1., 1.), (1., 1., 1., 1., 1., 1., 1.), (5., 5., 5., 5., 5., 5., 5.)))
   REPRESENTATION_ITEM ('')
);
#214 = ADVANCED_FACE ('', (#170), #213, .F.);
#215 = CARTESIAN_POINT ('', (0., 0., 0.));
#216 = VERTEX_POINT ('', #215);
#217 = CARTESIAN_POINT ('', (0., 0., 0.));
#218 = CARTESIAN_POINT ('', (1.23259516440783E-32, 1.66666666666667, -4.08215599715784E-16));
#219 = CARTESIAN_POINT ('', (4.93038065763132E-32, 3.33333333333334, -8.16431199431571E-16));
#220 = CARTESIAN_POINT ('', (9.86076131526265E-32, 5., -1.22464679914735E-15));
#221 = B_SPLINE_CURVE_WITH_KNOTS ('', 3, (#217, #218, #219, #220), .UNSPECIFIED., .F., .U., (4, 4), (0., 1.), .UNSPECIFIED.);
#222 = EDGE_CURVE ('', #216, #147, #221, .T.);
#223 = ORIENTED_EDGE ('', *, *, #222, .F.);
#224 = ORIENTED_EDGE ('', *, *, #222, .T.);
#225 = ORIENTED_EDGE ('', *, *, #165, .F.);
#226 = EDGE_LOOP ('', (#223, #224, #225));
#227 = FACE_OUTER_BOUND ('', #226, .F.);
#228 = CARTESIAN_POINT ('', (0., 0., 0.));
#229 = CARTESIAN_POINT ('', (1.23259516440783E-32, 1.66666666666667, -4.08215599715784E-16));
#230 = CARTESIAN_POINT ('', (4.93038065763132E-32, 3.33333333333334, -8.16431199431571E-16));
#231 = CARTESIAN_POINT ('', (9.86076131526265E-32, 5., -1.22464679914735E-15));
#232 = CARTESIAN_POINT ('', (0., 0., 0.));
#233 = CARTESIAN_POINT ('', (-4.08215599715784E-16, 1.66666666666667, 6.66666666666667));
#234 = CARTESIAN_POINT ('', (-8.16431199431571E-16, 3.33333333333335, 13.3333333333334));
#235 = CARTESIAN_POINT ('', (-1.22464679914735E-15, 5.00000000000001, 20.));
#236 = CARTESIAN_POINT ('', (0., 0., 0.));
#237 = CARTESIAN_POINT ('', (-6.12323399573677E-16, -5., 3.33333333333333));
#238 = CARTESIAN_POINT ('', (-1.22464679914736E-15, -10., 6.66666666666669));
#239 = CARTESIAN_POINT ('', (-1.83697019872103E-15, -15., 10.));
#240 = CARTESIAN_POINT ('', (0., 0., 0.));
#241 = CARTESIAN_POINT ('', (-2.04107799857892E-16, -5., -3.33333333333333));
#242 = CARTESIAN_POINT ('', (-4.08215599715786E-16, -10., -6.66666666666668));
#243 = CARTESIAN_POINT ('', (-6.12323399573677E-16, -15., -10.));
#244 = CARTESIAN_POINT ('', (0., 0., 0.));
#245 = CARTESIAN_POINT ('', (4.08215599715784E-16, 1.66666666666667, -6.66666666666667));
#246 = CARTESIAN_POINT ('', (8.16431199431571E-16, 3.33333333333334, -13.3333333333334));
#247 = CARTESIAN_POINT ('', (1.22464679914735E-15, 4.99999999999999, -20.));
#248 = CARTESIAN_POINT ('', (0., 0., 0.));
#249 = CARTESIAN_POINT ('', (1.23259516440783E-32, 1.66666666666667, -4.08215599715784E-16));
#250 = CARTESIAN_POINT ('', (4.93038065763132E-32, 3.33333333333334, -8.16431199431571E-16));
#251 = CARTESIAN_POINT ('', (9.86076131526265E-32, 5., -1.22464679914735E-15));
#252 = (
   BOUNDED_SURFACE ()
   B_SPLINE_SURFACE (5, 3, ((#228, #229, #230, #231), (#232, #233, #234, #235), (#236, #237, #238, #239), (#240, #241, #242, #243), (#244, #245, #246, #247), (#248, #249, #250, #251)), .UNSPECIFIED., .T., .F., .U.)
   B_SPLINE_SURFACE_WITH_KNOTS ((6, 6), (4, 4), (0., 1.), (0., 1.), .UNSPECIFIED.)
   SURFACE ()
   GEOMETRIC_REPRESENTATION_ITEM ()
   RATIONAL_B_SPLINE_SURFACE (((5., 5., 5., 5.), (1., 1., 1., 1.), (1., 1., 1., 1.), (1., 1., 1., 1.), (1., 1., 1., 1.), (5., 5., 5., 5.)))
   REPRESENTATION_ITEM ('')
);
#253 = ADVANCED_FACE ('', (#227), #252, .F.);
#254 = CLOSED_SHELL ('', (#58, #97, #145, #214, #253));
#255 = MANIFOLD_SOLID_BREP ('', #254);
#256 = (
   LENGTH_UNIT ()
   NAMED_UNIT (*)
   SI_UNIT (.MILLI., .METRE.)
);
#257 = (
   NAMED_UNIT (*)
   SI_UNIT ($, .STERADIAN.)
   SOLID_ANGLE_UNIT ()
);
#258 = (
   NAMED_UNIT (*)
   SI_UNIT ($, .RADIAN.)
   PLANE_ANGLE_UNIT ()
);
#259 = UNCERTAINTY_MEASURE_WITH_UNIT (LENGTH_MEASURE(0.001), #256, 'DISTANCE_ACCURACY_VALUE', '');
#260 = (
   GEOMETRIC_REPRESENTATION_CONTEXT (3)
   GLOBAL_UNCERTAINTY_ASSIGNED_CONTEXT ((#259))
   GLOBAL_UNIT_ASSIGNED_CONTEXT ((#256, #257, #258))
   REPRESENTATION_CONTEXT ('', '3D')
);
#261 = SHAPE_REPRESENTATION ('', (), #260);
#262 = APPLICATION_CONTEXT ('configuration controlled 3D designs of mechanical parts and assemblies');
#263 = APPLICATION_PROTOCOL_DEFINITION ('International Standard', 'config_control_design', 1997, #262);
#264 = MECHANICAL_CONTEXT ('', #262, 'mechanical');
#265 = PRODUCT ('', '', '', (#264));
#266 = PERSON_AND_ORGANIZATION_ROLE ('design_owner');
#267 = PERSON ('', '', $, $, $, $);
#268 = ORGANIZATION ($, '', '');
#269 = PERSON_AND_ORGANIZATION (#267, #268);
#270 = CC_DESIGN_PERSON_AND_ORGANIZATION_ASSIGNMENT (#269, #266, (#265));
#271 = PRODUCT_RELATED_PRODUCT_CATEGORY ('detail', $, (#265));
#272 = PRODUCT_DEFINITION_FORMATION_WITH_SPECIFIED_SOURCE ('', '', #265, .NOT_KNOWN.);
#273 = APPROVAL_STATUS ('approved');
#274 = APPROVAL (#273, '');
#275 = CALENDAR_DATE (2021, 7, 12);
#276 = COORDINATED_UNIVERSAL_TIME_OFFSET (0, $, .AHEAD.);
#277 = LOCAL_TIME (15, 16, 47., #276);
#278 = DATE_AND_TIME (#275, #277);
#279 = APPROVAL_DATE_TIME (#278, #274);
#280 = APPROVAL_ROLE ('');
#281 = PERSON ('', '', $, $, $, $);
#282 = ORGANIZATION ($, '', '');
#283 = PERSON_AND_ORGANIZATION (#281, #282);
#284 = APPROVAL_PERSON_ORGANIZATION (#283, #274, #280);
#285 = CC_DESIGN_APPROVAL (#274, (#272));
#286 = PERSON_AND_ORGANIZATION_ROLE ('creator');
#287 = PERSON ('', '', $, $, $, $);
#288 = ORGANIZATION ($, '', '');
#289 = PERSON_AND_ORGANIZATION (#287, #288);
#290 = CC_DESIGN_PERSON_AND_ORGANIZATION_ASSIGNMENT (#289, #286, (#272));
#291 = PERSON_AND_ORGANIZATION_ROLE ('part_supplier');
#292 = PERSON ('', '', $, $, $, $);
#293 = ORGANIZATION ($, '', '');
#294 = PERSON_AND_ORGANIZATION (#292, #293);
#295 = CC_DESIGN_PERSON_AND_ORGANIZATION_ASSIGNMENT (#294, #291, (#272));
#296 = SECURITY_CLASSIFICATION_LEVEL ('unclassified');
#297 = SECURITY_CLASSIFICATION ('', '', #296);
#298 = APPROVAL_STATUS ('approved');
#299 = APPROVAL (#298, '');
#300 = CALENDAR_DATE (2021, 7, 12);
#301 = COORDINATED_UNIVERSAL_TIME_OFFSET (0, $, .AHEAD.);
#302 = LOCAL_TIME (15, 16, 47., #301);
#303 = DATE_AND_TIME (#300, #302);
#304 = APPROVAL_DATE_TIME (#303, #299);
#305 = APPROVAL_ROLE ('');
#306 = PERSON ('', '', $, $, $, $);
#307 = ORGANIZATION ($, '', '');
#308 = PERSON_AND_ORGANIZATION (#306, #307);
#309 = APPROVAL_PERSON_ORGANIZATION (#308, #299, #305);
#310 = CC_DESIGN_APPROVAL (#299, (#297));
#311 = DATE_TIME_ROLE ('classification_date');
#312 = CALENDAR_DATE (2021, 7, 12);
#313 = COORDINATED_UNIVERSAL_TIME_OFFSET (0, $, .AHEAD.);
#314 = LOCAL_TIME (15, 16, 47., #313);
#315 = DATE_AND_TIME (#312, #314);
#316 = CC_DESIGN_DATE_AND_TIME_ASSIGNMENT (#315, #311, (#297));
#317 = PERSON_AND_ORGANIZATION_ROLE ('classification_officer');
#318 = PERSON ('', '', $, $, $, $);
#319 = ORGANIZATION ($, '', '');
#320 = PERSON_AND_ORGANIZATION (#318, #319);
#321 = CC_DESIGN_PERSON_AND_ORGANIZATION_ASSIGNMENT (#320, #317, (#297));
#322 = CC_DESIGN_SECURITY_CLASSIFICATION (#297, (#272));
#323 = DESIGN_CONTEXT ('', #262, 'design');
#324 = PRODUCT_DEFINITION ('', '', #272, #323);
#325 = APPROVAL_STATUS ('approved');
#326 = APPROVAL (#325, '');
#327 = CALENDAR_DATE (2021, 7, 12);
#328 = COORDINATED_UNIVERSAL_TIME_OFFSET (0, $, .AHEAD.);
#329 = LOCAL_TIME (15, 16, 47., #328);
#330 = DATE_AND_TIME (#327, #329);
#331 = APPROVAL_DATE_TIME (#330, #326);
#332 = APPROVAL_ROLE ('');
#333 = PERSON ('', '', $, $, $, $);
#334 = ORGANIZATION ($, '', '');
#335 = PERSON_AND_ORGANIZATION (#333, #334);
#336 = APPROVAL_PERSON_ORGANIZATION (#335, #326, #332);
#337 = CC_DESIGN_APPROVAL (#326, (#324));
#338 = DATE_TIME_ROLE ('creation_date');
#339 = CALENDAR_DATE (2021, 7, 12);
#340 = COORDINATED_UNIVERSAL_TIME_OFFSET (0, $, .AHEAD.);
#341 = LOCAL_TIME (15, 16, 47., #340);
#342 = DATE_AND_TIME (#339, #341);
#343 = CC_DESIGN_DATE_AND_TIME_ASSIGNMENT (#342, #338, (#324));
#344 = PERSON_AND_ORGANIZATION_ROLE ('creator');
#345 = PERSON ('', '', $, $, $, $);
#346 = ORGANIZATION ($, '', '');
#347 = PERSON_AND_ORGANIZATION (#345, #346);
#348 = CC_DESIGN_PERSON_AND_ORGANIZATION_ASSIGNMENT (#347, #344, (#324));
#349 = PRODUCT_DEFINITION_SHAPE ('', '', #324);
#350 = SHAPE_DEFINITION_REPRESENTATION (#349, #261);
#351 = SHAPE_REPRESENTATION_RELATIONSHIP ('', '', #261, #352);
#352 = ADVANCED_BREP_SHAPE_REPRESENTATION ('', (#255), #260);
ENDSEC;
END-ISO-10303-21;
