ISO-10303-21;
HEADER;
FILE_DESCRIPTION ((), '1');
FILE_NAME ('C:\\Users\\kevin\\137V5 range\\137V5 1603-1.0RALCC.STP', '2021-12-07T15:23:55', ('Unknown'), ('m.a.ford europe'), 'OneCNC-XR8 Mill 3D Expert', 'OneCNC-XR8 Mill 3D Expert', '');
FILE_SCHEMA (('CONFIG_CONTROL_DESIGN'));
ENDSEC;

DATA;
#1 = CARTESIAN_POINT ('', (-103.75, 8., -1.95943487863576E-15));
#2 = VERTEX_POINT ('', #1);
#3 = CARTESIAN_POINT ('', (-104., 7.75, -1.8982025386784E-15));
#4 = VERTEX_POINT ('', #3);
#5 = CARTESIAN_POINT ('', (-103.75, 8., -1.95943487863576E-15));
#6 = CARTESIAN_POINT ('', (-103.833333333333, 7.91666666666665, -1.93902409864997E-15));
#7 = CARTESIAN_POINT ('', (-103.916666666667, 7.83333333333333, -1.91861331866419E-15));
#8 = CARTESIAN_POINT ('', (-104., 7.75, -1.8982025386784E-15));
#9 = B_SPLINE_CURVE_WITH_KNOTS ('', 3, (#5, #6, #7, #8), .UNSPECIFIED., .F., .U., (4, 4), (0., 1.), .UNSPECIFIED.);
#10 = EDGE_CURVE ('', #2, #4, #9, .T.);
#11 = ORIENTED_EDGE ('', *, *, #10, .F.);
#12 = CARTESIAN_POINT ('', (-103.75, 8., -1.95943487863576E-15));
#13 = CARTESIAN_POINT ('', (-103.75, 7.99999999999998, 32.));
#14 = CARTESIAN_POINT ('', (-103.75, -24., 16.));
#15 = CARTESIAN_POINT ('', (-103.75, -24., -16.));
#16 = CARTESIAN_POINT ('', (-103.75, 8.00000000000002, -32.));
#17 = CARTESIAN_POINT ('', (-103.75, 8., -1.95943487863576E-15));
#18 = (
   BOUNDED_CURVE ()
   B_SPLINE_CURVE (5, (#12, #13, #14, #15, #16, #17), .UNSPECIFIED., .T., .U.)
   B_SPLINE_CURVE_WITH_KNOTS ((6, 6), (0., 1.), .UNSPECIFIED.)
   CURVE ()
   GEOMETRIC_REPRESENTATION_ITEM ()
   RATIONAL_B_SPLINE_CURVE ((5., 1., 1., 1., 1., 5.))
   REPRESENTATION_ITEM ('')
);
#19 = EDGE_CURVE ('', #2, #2, #18, .T.);
#20 = ORIENTED_EDGE ('', *, *, #19, .T.);
#21 = ORIENTED_EDGE ('', *, *, #10, .T.);
#22 = CARTESIAN_POINT ('', (-104., 7.75, -1.8982025386784E-15));
#23 = CARTESIAN_POINT ('', (-104., 7.74999999999998, 31.));
#24 = CARTESIAN_POINT ('', (-104., -23.25, 15.5));
#25 = CARTESIAN_POINT ('', (-104., -23.25, -15.5));
#26 = CARTESIAN_POINT ('', (-104., 7.75000000000002, -31.));
#27 = CARTESIAN_POINT ('', (-104., 7.75, -1.8982025386784E-15));
#28 = (
   BOUNDED_CURVE ()
   B_SPLINE_CURVE (5, (#22, #23, #24, #25, #26, #27), .UNSPECIFIED., .T., .U.)
   B_SPLINE_CURVE_WITH_KNOTS ((6, 6), (0., 1.), .UNSPECIFIED.)
   CURVE ()
   GEOMETRIC_REPRESENTATION_ITEM ()
   RATIONAL_B_SPLINE_CURVE ((5., 1., 1., 1., 1., 5.))
   REPRESENTATION_ITEM ('')
);
#29 = EDGE_CURVE ('', #4, #4, #28, .T.);
#30 = ORIENTED_EDGE ('', *, *, #29, .F.);
#31 = EDGE_LOOP ('', (#11, #20, #21, #30));
#32 = FACE_OUTER_BOUND ('', #31, .F.);
#33 = CARTESIAN_POINT ('', (-103.75, 8., -1.95943487863576E-15));
#34 = CARTESIAN_POINT ('', (-103.833333333333, 7.91666666666665, -1.93902409864997E-15));
#35 = CARTESIAN_POINT ('', (-103.916666666667, 7.83333333333333, -1.91861331866419E-15));
#36 = CARTESIAN_POINT ('', (-104., 7.75, -1.8982025386784E-15));
#37 = CARTESIAN_POINT ('', (-103.75, 7.99999999999998, 32.));
#38 = CARTESIAN_POINT ('', (-103.833333333333, 7.91666666666663, 31.6666666666666));
#39 = CARTESIAN_POINT ('', (-103.916666666667, 7.83333333333332, 31.3333333333333));
#40 = CARTESIAN_POINT ('', (-104., 7.74999999999998, 31.));
#41 = CARTESIAN_POINT ('', (-103.75, -24., 16.));
#42 = CARTESIAN_POINT ('', (-103.833333333333, -23.7499999999999, 15.8333333333333));
#43 = CARTESIAN_POINT ('', (-103.916666666667, -23.5, 15.6666666666666));
#44 = CARTESIAN_POINT ('', (-104., -23.25, 15.5));
#45 = CARTESIAN_POINT ('', (-103.75, -24., -16.));
#46 = CARTESIAN_POINT ('', (-103.833333333333, -23.7499999999999, -15.8333333333333));
#47 = CARTESIAN_POINT ('', (-103.916666666667, -23.5, -15.6666666666667));
#48 = CARTESIAN_POINT ('', (-104., -23.25, -15.5));
#49 = CARTESIAN_POINT ('', (-103.75, 8.00000000000002, -32.));
#50 = CARTESIAN_POINT ('', (-103.833333333333, 7.91666666666666, -31.6666666666666));
#51 = CARTESIAN_POINT ('', (-103.916666666667, 7.83333333333335, -31.3333333333333));
#52 = CARTESIAN_POINT ('', (-104., 7.75000000000002, -31.));
#53 = CARTESIAN_POINT ('', (-103.75, 8., -1.95943487863576E-15));
#54 = CARTESIAN_POINT ('', (-103.833333333333, 7.91666666666665, -1.93902409864997E-15));
#55 = CARTESIAN_POINT ('', (-103.916666666667, 7.83333333333333, -1.91861331866419E-15));
#56 = CARTESIAN_POINT ('', (-104., 7.75, -1.8982025386784E-15));
#57 = (
   BOUNDED_SURFACE ()
   B_SPLINE_SURFACE (5, 3, ((#33, #34, #35, #36), (#37, #38, #39, #40), (#41, #42, #43, #44), (#45, #46, #47, #48), (#49, #50, #51, #52), (#53, #54, #55, #56)), .UNSPECIFIED., .T., .F., .U.)
   B_SPLINE_SURFACE_WITH_KNOTS ((6, 6), (4, 4), (0., 1.), (0., 1.), .UNSPECIFIED.)
   SURFACE ()
   GEOMETRIC_REPRESENTATION_ITEM ()
   RATIONAL_B_SPLINE_SURFACE (((5., 5., 5., 5.), (1., 1., 1., 1.), (1., 1., 1., 1.), (1., 1., 1., 1.), (1., 1., 1., 1.), (5., 5., 5., 5.)))
   REPRESENTATION_ITEM ('')
);
#58 = ADVANCED_FACE ('', (#32), #57, .F.);
#59 = CARTESIAN_POINT ('', (-104., 6.36816335556624E-15, -6.36816335556624E-15));
#60 = VERTEX_POINT ('', #59);
#61 = CARTESIAN_POINT ('', (-104., 7.75, -1.8982025386784E-15));
#62 = CARTESIAN_POINT ('', (-104., 5.16666666666667, -1.26546835911893E-15));
#63 = CARTESIAN_POINT ('', (-104., 2.58333333333333, -6.32734179559463E-16));
#64 = CARTESIAN_POINT ('', (-104., 6.36816335556624E-15, -6.36816335556624E-15));
#65 = B_SPLINE_CURVE_WITH_KNOTS ('', 3, (#61, #62, #63, #64), .UNSPECIFIED., .F., .U., (4, 4), (0., 1.), .UNSPECIFIED.);
#66 = EDGE_CURVE ('', #4, #60, #65, .T.);
#67 = ORIENTED_EDGE ('', *, *, #66, .F.);
#68 = ORIENTED_EDGE ('', *, *, #29, .T.);
#69 = ORIENTED_EDGE ('', *, *, #66, .T.);
#70 = EDGE_LOOP ('', (#67, #68, #69));
#71 = FACE_OUTER_BOUND ('', #70, .F.);
#72 = CARTESIAN_POINT ('', (-104., 7.75, -1.8982025386784E-15));
#73 = CARTESIAN_POINT ('', (-104., 5.16666666666667, -1.26546835911893E-15));
#74 = CARTESIAN_POINT ('', (-104., 2.58333333333333, -6.32734179559463E-16));
#75 = CARTESIAN_POINT ('', (-104., 6.36816335556624E-15, -6.36816335556624E-15));
#76 = CARTESIAN_POINT ('', (-104., 7.74999999999998, 31.));
#77 = CARTESIAN_POINT ('', (-104., 5.16666666666665, 20.6666666666666));
#78 = CARTESIAN_POINT ('', (-104., 2.58333333333331, 10.3333333333333));
#79 = CARTESIAN_POINT ('', (-104., 6.36816335556624E-15, -6.36816335556624E-15));
#80 = CARTESIAN_POINT ('', (-104., -23.25, 15.5));
#81 = CARTESIAN_POINT ('', (-104., -15.5, 10.3333333333333));
#82 = CARTESIAN_POINT ('', (-104., -7.74999999999999, 5.16666666666663));
#83 = CARTESIAN_POINT ('', (-104., 6.36816335556624E-15, -6.36816335556624E-15));
#84 = CARTESIAN_POINT ('', (-104., -23.25, -15.5));
#85 = CARTESIAN_POINT ('', (-104., -15.5, -10.3333333333333));
#86 = CARTESIAN_POINT ('', (-104., -7.74999999999996, -5.16666666666668));
#87 = CARTESIAN_POINT ('', (-104., 6.36816335556624E-15, -6.36816335556624E-15));
#88 = CARTESIAN_POINT ('', (-104., 7.75000000000002, -31.));
#89 = CARTESIAN_POINT ('', (-104., 5.16666666666669, -20.6666666666667));
#90 = CARTESIAN_POINT ('', (-104., 2.58333333333336, -10.3333333333333));
#91 = CARTESIAN_POINT ('', (-104., 6.36816335556624E-15, -6.36816335556624E-15));
#92 = CARTESIAN_POINT ('', (-104., 7.75, -1.8982025386784E-15));
#93 = CARTESIAN_POINT ('', (-104., 5.16666666666667, -1.26546835911893E-15));
#94 = CARTESIAN_POINT ('', (-104., 2.58333333333333, -6.32734179559463E-16));
#95 = CARTESIAN_POINT ('', (-104., 6.36816335556624E-15, -6.36816335556624E-15));
#96 = (
   BOUNDED_SURFACE ()
   B_SPLINE_SURFACE (5, 3, ((#72, #73, #74, #75), (#76, #77, #78, #79), (#80, #81, #82, #83), (#84, #85, #86, #87), (#88, #89, #90, #91), (#92, #93, #94, #95)), .UNSPECIFIED., .T., .F., .U.)
   B_SPLINE_SURFACE_WITH_KNOTS ((6, 6), (4, 4), (0., 1.), (0., 1.), .UNSPECIFIED.)
   SURFACE ()
   GEOMETRIC_REPRESENTATION_ITEM ()
   RATIONAL_B_SPLINE_SURFACE (((5., 5., 5., 5.), (1., 1., 1., 1.), (1., 1., 1., 1.), (1., 1., 1., 1.), (1., 1., 1., 1.), (5., 5., 5., 5.)))
   REPRESENTATION_ITEM ('')
);
#97 = ADVANCED_FACE ('', (#71), #96, .F.);
#98 = CARTESIAN_POINT ('', (-1., 8., -1.95943487863577E-15));
#99 = VERTEX_POINT ('', #98);
#100 = CARTESIAN_POINT ('', (-1., 8., -1.95943487863577E-15));
#101 = CARTESIAN_POINT ('', (-35.25, 8., -1.95943487863576E-15));
#102 = CARTESIAN_POINT ('', (-69.5, 8., -1.95943487863576E-15));
#103 = CARTESIAN_POINT ('', (-103.75, 8., -1.95943487863576E-15));
#104 = B_SPLINE_CURVE_WITH_KNOTS ('', 3, (#100, #101, #102, #103), .UNSPECIFIED., .F., .U., (4, 4), (0., 1.), .UNSPECIFIED.);
#105 = EDGE_CURVE ('', #99, #2, #104, .T.);
#106 = ORIENTED_EDGE ('', *, *, #105, .F.);
#107 = CARTESIAN_POINT ('', (-1., 8., -1.95943487863577E-15));
#108 = CARTESIAN_POINT ('', (-1., 8.00000000000001, 32.));
#109 = CARTESIAN_POINT ('', (-1., -24., 16.));
#110 = CARTESIAN_POINT ('', (-1., -24., -16.));
#111 = CARTESIAN_POINT ('', (-0.999999999999998, 7.99999999999999, -32.));
#112 = CARTESIAN_POINT ('', (-1., 8., -1.95943487863577E-15));
#113 = (
   BOUNDED_CURVE ()
   B_SPLINE_CURVE (5, (#107, #108, #109, #110, #111, #112), .UNSPECIFIED., .T., .U.)
   B_SPLINE_CURVE_WITH_KNOTS ((6, 6), (0., 1.), .UNSPECIFIED.)
   CURVE ()
   GEOMETRIC_REPRESENTATION_ITEM ()
   RATIONAL_B_SPLINE_CURVE ((5., 1., 1., 1., 1., 5.))
   REPRESENTATION_ITEM ('')
);
#114 = EDGE_CURVE ('', #99, #99, #113, .T.);
#115 = ORIENTED_EDGE ('', *, *, #114, .T.);
#116 = ORIENTED_EDGE ('', *, *, #105, .T.);
#117 = ORIENTED_EDGE ('', *, *, #19, .F.);
#118 = EDGE_LOOP ('', (#106, #115, #116, #117));
#119 = FACE_OUTER_BOUND ('', #118, .F.);
#120 = CARTESIAN_POINT ('', (-1., 8., -1.95943487863577E-15));
#121 = CARTESIAN_POINT ('', (-35.25, 8., -1.95943487863576E-15));
#122 = CARTESIAN_POINT ('', (-69.5, 8., -1.95943487863576E-15));
#123 = CARTESIAN_POINT ('', (-103.75, 8., -1.95943487863576E-15));
#124 = CARTESIAN_POINT ('', (-1., 8.00000000000001, 32.));
#125 = CARTESIAN_POINT ('', (-35.25, 8., 32.));
#126 = CARTESIAN_POINT ('', (-69.5, 7.99999999999999, 32.));
#127 = CARTESIAN_POINT ('', (-103.75, 7.99999999999998, 32.));
#128 = CARTESIAN_POINT ('', (-1., -24., 16.));
#129 = CARTESIAN_POINT ('', (-35.25, -24., 16.));
#130 = CARTESIAN_POINT ('', (-69.5, -24., 16.));
#131 = CARTESIAN_POINT ('', (-103.75, -24., 16.));
#132 = CARTESIAN_POINT ('', (-1., -24., -16.));
#133 = CARTESIAN_POINT ('', (-35.25, -24., -16.));
#134 = CARTESIAN_POINT ('', (-69.5, -24., -16.));
#135 = CARTESIAN_POINT ('', (-103.75, -24., -16.));
#136 = CARTESIAN_POINT ('', (-0.999999999999998, 7.99999999999999, -32.));
#137 = CARTESIAN_POINT ('', (-35.25, 8., -32.));
#138 = CARTESIAN_POINT ('', (-69.5, 8.00000000000001, -32.));
#139 = CARTESIAN_POINT ('', (-103.75, 8.00000000000002, -32.));
#140 = CARTESIAN_POINT ('', (-1., 8., -1.95943487863577E-15));
#141 = CARTESIAN_POINT ('', (-35.25, 8., -1.95943487863576E-15));
#142 = CARTESIAN_POINT ('', (-69.5, 8., -1.95943487863576E-15));
#143 = CARTESIAN_POINT ('', (-103.75, 8., -1.95943487863576E-15));
#144 = (
   BOUNDED_SURFACE ()
   B_SPLINE_SURFACE (5, 3, ((#120, #121, #122, #123), (#124, #125, #126, #127), (#128, #129, #130, #131), (#132, #133, #134, #135), (#136, #137, #138, #139), (#140, #141, #142, #143)), .UNSPECIFIED., .T., .F., .U.)
   B_SPLINE_SURFACE_WITH_KNOTS ((6, 6), (4, 4), (0., 1.), (0., 1.), .UNSPECIFIED.)
   SURFACE ()
   GEOMETRIC_REPRESENTATION_ITEM ()
   RATIONAL_B_SPLINE_SURFACE (((5., 5., 5., 5.), (1., 1., 1., 1.), (1., 1., 1., 1.), (1., 1., 1., 1.), (1., 1., 1., 1.), (5., 5., 5., 5.)))
   REPRESENTATION_ITEM ('')
);
#145 = ADVANCED_FACE ('', (#119), #144, .F.);
#146 = CARTESIAN_POINT ('', (4.93038065763132E-32, 7., -1.71450551880629E-15));
#147 = VERTEX_POINT ('', #146);
#148 = CARTESIAN_POINT ('', (4.93038065763132E-32, 7., -1.71450551880629E-15));
#149 = CARTESIAN_POINT ('', (4.93038065763132E-32, 7.10925537777972, -1.74126536854381E-15));
#150 = CARTESIAN_POINT ('', (-0.0405284603756879, 7.35374193361111, -1.8011473041505E-15));
#151 = CARTESIAN_POINT ('', (-0.220054300201926, 7.6596999306322, -1.87608540049558E-15));
#152 = CARTESIAN_POINT ('', (-0.545397966132822, 7.92419438240462, -1.94086785724665E-15));
#153 = CARTESIAN_POINT ('', (-0.823979860049297, 8., -1.95943487863576E-15));
#154 = CARTESIAN_POINT ('', (-1., 8., -1.95943487863577E-15));
#155 = B_SPLINE_CURVE_WITH_KNOTS ('', 3, (#148, #149, #150, #151, #152, #153, #154), .UNSPECIFIED., .F., .U., (4, 1, 1, 1, 4), (0., 0.208662401196191, 0.467060336615637, 0.66382629571742, 1.), .UNSPECIFIED.);
#156 = EDGE_CURVE ('', #147, #99, #155, .T.);
#157 = ORIENTED_EDGE ('', *, *, #156, .F.);
#158 = CARTESIAN_POINT ('', (4.93038065763132E-32, 7., -1.71450551880629E-15));
#159 = CARTESIAN_POINT ('', (-1.71450551880629E-15, 7.00000000000001, 28.));
#160 = CARTESIAN_POINT ('', (-2.57175827820944E-15, -21., 14.));
#161 = CARTESIAN_POINT ('', (-8.57252759403148E-16, -21., -14.));
#162 = CARTESIAN_POINT ('', (1.71450551880629E-15, 6.99999999999999, -28.));
#163 = CARTESIAN_POINT ('', (4.93038065763132E-32, 7., -1.71450551880629E-15));
#164 = (
   BOUNDED_CURVE ()
   B_SPLINE_CURVE (5, (#158, #159, #160, #161, #162, #163), .UNSPECIFIED., .T., .U.)
   B_SPLINE_CURVE_WITH_KNOTS ((6, 6), (0., 1.), .UNSPECIFIED.)
   CURVE ()
   GEOMETRIC_REPRESENTATION_ITEM ()
   RATIONAL_B_SPLINE_CURVE ((5., 1., 1., 1., 1., 5.))
   REPRESENTATION_ITEM ('')
);
#165 = EDGE_CURVE ('', #147, #147, #164, .T.);
#166 = ORIENTED_EDGE ('', *, *, #165, .T.);
#167 = ORIENTED_EDGE ('', *, *, #156, .T.);
#168 = ORIENTED_EDGE ('', *, *, #114, .F.);
#169 = EDGE_LOOP ('', (#157, #166, #167, #168));
#170 = FACE_OUTER_BOUND ('', #169, .F.);
#171 = CARTESIAN_POINT ('', (4.93038065763132E-32, 7., -1.71450551880629E-15));
#172 = CARTESIAN_POINT ('', (4.93038065763132E-32, 7.10925537777972, -1.74126536854381E-15));
#173 = CARTESIAN_POINT ('', (-0.0405284603756879, 7.35374193361111, -1.8011473041505E-15));
#174 = CARTESIAN_POINT ('', (-0.220054300201926, 7.6596999306322, -1.87608540049558E-15));
#175 = CARTESIAN_POINT ('', (-0.545397966132822, 7.92419438240462, -1.94086785724665E-15));
#176 = CARTESIAN_POINT ('', (-0.823979860049297, 8., -1.95943487863576E-15));
#177 = CARTESIAN_POINT ('', (-1., 8., -1.95943487863577E-15));
#178 = CARTESIAN_POINT ('', (-1.71450551880629E-15, 7.00000000000001, 28.));
#179 = CARTESIAN_POINT ('', (-1.74126536854381E-15, 7.10925537777973, 28.4370215111189));
#180 = CARTESIAN_POINT ('', (-0.0405284603756897, 7.35374193361111, 29.4149677344444));
#181 = CARTESIAN_POINT ('', (-0.220054300201928, 7.6596999306322, 30.6387997225288));
#182 = CARTESIAN_POINT ('', (-0.545397966132823, 7.92419438240463, 31.6967775296185));
#183 = CARTESIAN_POINT ('', (-0.823979860049299, 8.00000000000001, 32.));
#184 = CARTESIAN_POINT ('', (-1., 8.00000000000001, 32.));
#185 = CARTESIAN_POINT ('', (-2.57175827820944E-15, -21., 14.));
#186 = CARTESIAN_POINT ('', (-2.61189805281571E-15, -21.3277661333392, 14.2185107555594));
#187 = CARTESIAN_POINT ('', (-0.0405284603756906, -22.0612258008333, 14.7074838672222));
#188 = CARTESIAN_POINT ('', (-0.220054300201929, -22.9790997918966, 15.3193998612644));
#189 = CARTESIAN_POINT ('', (-0.545397966132824, -23.7725831472139, 15.8483887648092));
#190 = CARTESIAN_POINT ('', (-0.8239798600493, -24., 16.));
#191 = CARTESIAN_POINT ('', (-1., -24., 16.));
#192 = CARTESIAN_POINT ('', (-8.57252759403148E-16, -21., -14.));
#193 = CARTESIAN_POINT ('', (-8.70632684271905E-16, -21.3277661333392, -14.2185107555594));
#194 = CARTESIAN_POINT ('', (-0.0405284603756888, -22.0612258008333, -14.7074838672222));
#195 = CARTESIAN_POINT ('', (-0.220054300201927, -22.9790997918966, -15.3193998612644));
#196 = CARTESIAN_POINT ('', (-0.545397966132822, -23.7725831472139, -15.8483887648092));
#197 = CARTESIAN_POINT ('', (-0.823979860049298, -24., -16.));
#198 = CARTESIAN_POINT ('', (-1., -24., -16.));
#199 = CARTESIAN_POINT ('', (1.71450551880629E-15, 6.99999999999999, -28.));
#200 = CARTESIAN_POINT ('', (1.74126536854381E-15, 7.10925537777971, -28.4370215111189));
#201 = CARTESIAN_POINT ('', (-0.0405284603756861, 7.3537419336111, -29.4149677344444));
#202 = CARTESIAN_POINT ('', (-0.220054300201924, 7.65969993063219, -30.6387997225288));
#203 = CARTESIAN_POINT ('', (-0.54539796613282, 7.92419438240461, -31.6967775296185));
#204 = CARTESIAN_POINT ('', (-0.823979860049295, 7.99999999999999, -32.));
#205 = CARTESIAN_POINT ('', (-0.999999999999998, 7.99999999999999, -32.));
#206 = CARTESIAN_POINT ('', (4.93038065763132E-32, 7., -1.71450551880629E-15));
#207 = CARTESIAN_POINT ('', (4.93038065763132E-32, 7.10925537777972, -1.74126536854381E-15));
#208 = CARTESIAN_POINT ('', (-0.0405284603756879, 7.35374193361111, -1.8011473041505E-15));
#209 = CARTESIAN_POINT ('', (-0.220054300201926, 7.6596999306322, -1.87608540049558E-15));
#210 = CARTESIAN_POINT ('', (-0.545397966132822, 7.92419438240462, -1.94086785724665E-15));
#211 = CARTESIAN_POINT ('', (-0.823979860049297, 8., -1.95943487863576E-15));
#212 = CARTESIAN_POINT ('', (-1., 8., -1.95943487863577E-15));
#213 = (
   BOUNDED_SURFACE ()
   B_SPLINE_SURFACE (5, 3, ((#171, #172, #173, #174, #175, #176, #177), (#178, #179, #180, #181, #182, #183, #184), (#185, #186, #187, #188, #189, #190, #191), (#192, #193, #194, #195, #196, #197, #198), (#199, #200, #201, #202, #203, #204, #205), (#206, #207, #208, #209, #210, #211, #212)), .UNSPECIFIED., .T., .F., .U.)
   B_SPLINE_SURFACE_WITH_KNOTS ((6, 6), (4, 1, 1, 1, 4), (0., 1.), (0., 0.208662401196191, 0.467060336615637, 0.66382629571742, 1.), .UNSPECIFIED.)
   SURFACE ()
   GEOMETRIC_REPRESENTATION_ITEM ()
   RATIONAL_B_SPLINE_SURFACE (((5., 5., 5., 5., 5., 5., 5.), (1., 1., 1., 1., 1., 1., 1.), (1., 1., 1., 1., 1., 1., 1.), (1., 1., 1., 1., 1., 1., 1.), (1., 1., 1., 1., 1., 1., 1.), (5., 5., 5., 5., 5., 5., 5.)))
   REPRESENTATION_ITEM ('')
);
#214 = ADVANCED_FACE ('', (#170), #213, .F.);
#215 = CARTESIAN_POINT ('', (0., 0., 0.));
#216 = VERTEX_POINT ('', #215);
#217 = CARTESIAN_POINT ('', (0., 0., 0.));
#218 = CARTESIAN_POINT ('', (2.46519032881566E-32, 2.33333333333333, -5.71501839602098E-16));
#219 = CARTESIAN_POINT ('', (4.93038065763132E-32, 4.66666666666666, -1.1430036792042E-15));
#220 = CARTESIAN_POINT ('', (4.93038065763132E-32, 7., -1.71450551880629E-15));
#221 = B_SPLINE_CURVE_WITH_KNOTS ('', 3, (#217, #218, #219, #220), .UNSPECIFIED., .F., .U., (4, 4), (0., 1.), .UNSPECIFIED.);
#222 = EDGE_CURVE ('', #216, #147, #221, .T.);
#223 = ORIENTED_EDGE ('', *, *, #222, .F.);
#224 = ORIENTED_EDGE ('', *, *, #222, .T.);
#225 = ORIENTED_EDGE ('', *, *, #165, .F.);
#226 = EDGE_LOOP ('', (#223, #224, #225));
#227 = FACE_OUTER_BOUND ('', #226, .F.);
#228 = CARTESIAN_POINT ('', (0., 0., 0.));
#229 = CARTESIAN_POINT ('', (2.46519032881566E-32, 2.33333333333333, -5.71501839602098E-16));
#230 = CARTESIAN_POINT ('', (4.93038065763132E-32, 4.66666666666666, -1.1430036792042E-15));
#231 = CARTESIAN_POINT ('', (4.93038065763132E-32, 7., -1.71450551880629E-15));
#232 = CARTESIAN_POINT ('', (0., 0., 0.));
#233 = CARTESIAN_POINT ('', (-5.71501839602098E-16, 2.33333333333334, 9.33333333333333));
#234 = CARTESIAN_POINT ('', (-1.1430036792042E-15, 4.66666666666667, 18.6666666666667));
#235 = CARTESIAN_POINT ('', (-1.71450551880629E-15, 7.00000000000001, 28.));
#236 = CARTESIAN_POINT ('', (0., 0., 0.));
#237 = CARTESIAN_POINT ('', (-8.57252759403147E-16, -7., 4.66666666666667));
#238 = CARTESIAN_POINT ('', (-1.71450551880629E-15, -14., 9.33333333333333));
#239 = CARTESIAN_POINT ('', (-2.57175827820944E-15, -21., 14.));
#240 = CARTESIAN_POINT ('', (0., 0., 0.));
#241 = CARTESIAN_POINT ('', (-2.85750919801049E-16, -7., -4.66666666666666));
#242 = CARTESIAN_POINT ('', (-5.71501839602098E-16, -14., -9.33333333333332));
#243 = CARTESIAN_POINT ('', (-8.57252759403148E-16, -21., -14.));
#244 = CARTESIAN_POINT ('', (0., 0., 0.));
#245 = CARTESIAN_POINT ('', (5.71501839602098E-16, 2.33333333333333, -9.33333333333333));
#246 = CARTESIAN_POINT ('', (1.14300367920419E-15, 4.66666666666666, -18.6666666666667));
#247 = CARTESIAN_POINT ('', (1.71450551880629E-15, 6.99999999999999, -28.));
#248 = CARTESIAN_POINT ('', (0., 0., 0.));
#249 = CARTESIAN_POINT ('', (2.46519032881566E-32, 2.33333333333333, -5.71501839602098E-16));
#250 = CARTESIAN_POINT ('', (4.93038065763132E-32, 4.66666666666666, -1.1430036792042E-15));
#251 = CARTESIAN_POINT ('', (4.93038065763132E-32, 7., -1.71450551880629E-15));
#252 = (
   BOUNDED_SURFACE ()
   B_SPLINE_SURFACE (5, 3, ((#228, #229, #230, #231), (#232, #233, #234, #235), (#236, #237, #238, #239), (#240, #241, #242, #243), (#244, #245, #246, #247), (#248, #249, #250, #251)), .UNSPECIFIED., .T., .F., .U.)
   B_SPLINE_SURFACE_WITH_KNOTS ((6, 6), (4, 4), (0., 1.), (0., 1.), .UNSPECIFIED.)
   SURFACE ()
   GEOMETRIC_REPRESENTATION_ITEM ()
   RATIONAL_B_SPLINE_SURFACE (((5., 5., 5., 5.), (1., 1., 1., 1.), (1., 1., 1., 1.), (1., 1., 1., 1.), (1., 1., 1., 1.), (5., 5., 5., 5.)))
   REPRESENTATION_ITEM ('')
);
#253 = ADVANCED_FACE ('', (#227), #252, .F.);
#254 = CLOSED_SHELL ('', (#58, #97, #145, #214, #253));
#255 = MANIFOLD_SOLID_BREP ('', #254);
#256 = (
   LENGTH_UNIT ()
   NAMED_UNIT (*)
   SI_UNIT (.MILLI., .METRE.)
);
#257 = (
   NAMED_UNIT (*)
   SI_UNIT ($, .STERADIAN.)
   SOLID_ANGLE_UNIT ()
);
#258 = (
   NAMED_UNIT (*)
   SI_UNIT ($, .RADIAN.)
   PLANE_ANGLE_UNIT ()
);
#259 = UNCERTAINTY_MEASURE_WITH_UNIT (LENGTH_MEASURE(0.001), #256, 'DISTANCE_ACCURACY_VALUE', '');
#260 = (
   GEOMETRIC_REPRESENTATION_CONTEXT (3)
   GLOBAL_UNCERTAINTY_ASSIGNED_CONTEXT ((#259))
   GLOBAL_UNIT_ASSIGNED_CONTEXT ((#256, #257, #258))
   REPRESENTATION_CONTEXT ('', '3D')
);
#261 = SHAPE_REPRESENTATION ('', (), #260);
#262 = APPLICATION_CONTEXT ('configuration controlled 3D designs of mechanical parts and assemblies');
#263 = APPLICATION_PROTOCOL_DEFINITION ('International Standard', 'config_control_design', 1997, #262);
#264 = MECHANICAL_CONTEXT ('', #262, 'mechanical');
#265 = PRODUCT ('', '', '', (#264));
#266 = PERSON_AND_ORGANIZATION_ROLE ('design_owner');
#267 = PERSON ('', '', $, $, $, $);
#268 = ORGANIZATION ($, '', '');
#269 = PERSON_AND_ORGANIZATION (#267, #268);
#270 = CC_DESIGN_PERSON_AND_ORGANIZATION_ASSIGNMENT (#269, #266, (#265));
#271 = PRODUCT_RELATED_PRODUCT_CATEGORY ('detail', $, (#265));
#272 = PRODUCT_DEFINITION_FORMATION_WITH_SPECIFIED_SOURCE ('', '', #265, .NOT_KNOWN.);
#273 = APPROVAL_STATUS ('approved');
#274 = APPROVAL (#273, '');
#275 = CALENDAR_DATE (2021, 7, 12);
#276 = COORDINATED_UNIVERSAL_TIME_OFFSET (0, $, .AHEAD.);
#277 = LOCAL_TIME (15, 23, 55., #276);
#278 = DATE_AND_TIME (#275, #277);
#279 = APPROVAL_DATE_TIME (#278, #274);
#280 = APPROVAL_ROLE ('');
#281 = PERSON ('', '', $, $, $, $);
#282 = ORGANIZATION ($, '', '');
#283 = PERSON_AND_ORGANIZATION (#281, #282);
#284 = APPROVAL_PERSON_ORGANIZATION (#283, #274, #280);
#285 = CC_DESIGN_APPROVAL (#274, (#272));
#286 = PERSON_AND_ORGANIZATION_ROLE ('creator');
#287 = PERSON ('', '', $, $, $, $);
#288 = ORGANIZATION ($, '', '');
#289 = PERSON_AND_ORGANIZATION (#287, #288);
#290 = CC_DESIGN_PERSON_AND_ORGANIZATION_ASSIGNMENT (#289, #286, (#272));
#291 = PERSON_AND_ORGANIZATION_ROLE ('part_supplier');
#292 = PERSON ('', '', $, $, $, $);
#293 = ORGANIZATION ($, '', '');
#294 = PERSON_AND_ORGANIZATION (#292, #293);
#295 = CC_DESIGN_PERSON_AND_ORGANIZATION_ASSIGNMENT (#294, #291, (#272));
#296 = SECURITY_CLASSIFICATION_LEVEL ('unclassified');
#297 = SECURITY_CLASSIFICATION ('', '', #296);
#298 = APPROVAL_STATUS ('approved');
#299 = APPROVAL (#298, '');
#300 = CALENDAR_DATE (2021, 7, 12);
#301 = COORDINATED_UNIVERSAL_TIME_OFFSET (0, $, .AHEAD.);
#302 = LOCAL_TIME (15, 23, 55., #301);
#303 = DATE_AND_TIME (#300, #302);
#304 = APPROVAL_DATE_TIME (#303, #299);
#305 = APPROVAL_ROLE ('');
#306 = PERSON ('', '', $, $, $, $);
#307 = ORGANIZATION ($, '', '');
#308 = PERSON_AND_ORGANIZATION (#306, #307);
#309 = APPROVAL_PERSON_ORGANIZATION (#308, #299, #305);
#310 = CC_DESIGN_APPROVAL (#299, (#297));
#311 = DATE_TIME_ROLE ('classification_date');
#312 = CALENDAR_DATE (2021, 7, 12);
#313 = COORDINATED_UNIVERSAL_TIME_OFFSET (0, $, .AHEAD.);
#314 = LOCAL_TIME (15, 23, 55., #313);
#315 = DATE_AND_TIME (#312, #314);
#316 = CC_DESIGN_DATE_AND_TIME_ASSIGNMENT (#315, #311, (#297));
#317 = PERSON_AND_ORGANIZATION_ROLE ('classification_officer');
#318 = PERSON ('', '', $, $, $, $);
#319 = ORGANIZATION ($, '', '');
#320 = PERSON_AND_ORGANIZATION (#318, #319);
#321 = CC_DESIGN_PERSON_AND_ORGANIZATION_ASSIGNMENT (#320, #317, (#297));
#322 = CC_DESIGN_SECURITY_CLASSIFICATION (#297, (#272));
#323 = DESIGN_CONTEXT ('', #262, 'design');
#324 = PRODUCT_DEFINITION ('', '', #272, #323);
#325 = APPROVAL_STATUS ('approved');
#326 = APPROVAL (#325, '');
#327 = CALENDAR_DATE (2021, 7, 12);
#328 = COORDINATED_UNIVERSAL_TIME_OFFSET (0, $, .AHEAD.);
#329 = LOCAL_TIME (15, 23, 55., #328);
#330 = DATE_AND_TIME (#327, #329);
#331 = APPROVAL_DATE_TIME (#330, #326);
#332 = APPROVAL_ROLE ('');
#333 = PERSON ('', '', $, $, $, $);
#334 = ORGANIZATION ($, '', '');
#335 = PERSON_AND_ORGANIZATION (#333, #334);
#336 = APPROVAL_PERSON_ORGANIZATION (#335, #326, #332);
#337 = CC_DESIGN_APPROVAL (#326, (#324));
#338 = DATE_TIME_ROLE ('creation_date');
#339 = CALENDAR_DATE (2021, 7, 12);
#340 = COORDINATED_UNIVERSAL_TIME_OFFSET (0, $, .AHEAD.);
#341 = LOCAL_TIME (15, 23, 55., #340);
#342 = DATE_AND_TIME (#339, #341);
#343 = CC_DESIGN_DATE_AND_TIME_ASSIGNMENT (#342, #338, (#324));
#344 = PERSON_AND_ORGANIZATION_ROLE ('creator');
#345 = PERSON ('', '', $, $, $, $);
#346 = ORGANIZATION ($, '', '');
#347 = PERSON_AND_ORGANIZATION (#345, #346);
#348 = CC_DESIGN_PERSON_AND_ORGANIZATION_ASSIGNMENT (#347, #344, (#324));
#349 = PRODUCT_DEFINITION_SHAPE ('', '', #324);
#350 = SHAPE_DEFINITION_REPRESENTATION (#349, #261);
#351 = SHAPE_REPRESENTATION_RELATIONSHIP ('', '', #261, #352);
#352 = ADVANCED_BREP_SHAPE_REPRESENTATION ('', (#255), #260);
ENDSEC;
END-ISO-10303-21;
