ISO-10303-21;
HEADER;
FILE_DESCRIPTION ((), '1');
FILE_NAME ('C:\\Users\\kevin\\137V5 range\\137V5 2003-ALCC.STP', '2021-12-07T15:25:40', ('Unknown'), ('m.a.ford europe'), 'OneCNC-XR8 Mill 3D Expert', 'OneCNC-XR8 Mill 3D Expert', '');
FILE_SCHEMA (('CONFIG_CONTROL_DESIGN'));
ENDSEC;

DATA;
#1 = CARTESIAN_POINT ('', (-119.75, 10., -2.4492935982947E-15));
#2 = VERTEX_POINT ('', #1);
#3 = CARTESIAN_POINT ('', (-120., 9.75, -2.38806125833734E-15));
#4 = VERTEX_POINT ('', #3);
#5 = CARTESIAN_POINT ('', (-119.75, 10., -2.4492935982947E-15));
#6 = CARTESIAN_POINT ('', (-119.833333333334, 9.91666666666669, -2.42888281830892E-15));
#7 = CARTESIAN_POINT ('', (-119.916666666667, 9.83333333333332, -2.40847203832312E-15));
#8 = CARTESIAN_POINT ('', (-120., 9.75, -2.38806125833734E-15));
#9 = B_SPLINE_CURVE_WITH_KNOTS ('', 3, (#5, #6, #7, #8), .UNSPECIFIED., .F., .U., (4, 4), (0., 1.), .UNSPECIFIED.);
#10 = EDGE_CURVE ('', #2, #4, #9, .T.);
#11 = ORIENTED_EDGE ('', *, *, #10, .F.);
#12 = CARTESIAN_POINT ('', (-119.75, 10., -2.4492935982947E-15));
#13 = CARTESIAN_POINT ('', (-119.75, 9.99999999999998, 40.));
#14 = CARTESIAN_POINT ('', (-119.75, -30., 20.));
#15 = CARTESIAN_POINT ('', (-119.75, -30., -20.));
#16 = CARTESIAN_POINT ('', (-119.75, 10., -40.));
#17 = CARTESIAN_POINT ('', (-119.75, 10., -2.4492935982947E-15));
#18 = (
   BOUNDED_CURVE ()
   B_SPLINE_CURVE (5, (#12, #13, #14, #15, #16, #17), .UNSPECIFIED., .T., .U.)
   B_SPLINE_CURVE_WITH_KNOTS ((6, 6), (0., 1.), .UNSPECIFIED.)
   CURVE ()
   GEOMETRIC_REPRESENTATION_ITEM ()
   RATIONAL_B_SPLINE_CURVE ((5., 1., 1., 1., 1., 5.))
   REPRESENTATION_ITEM ('')
);
#19 = EDGE_CURVE ('', #2, #2, #18, .T.);
#20 = ORIENTED_EDGE ('', *, *, #19, .T.);
#21 = ORIENTED_EDGE ('', *, *, #10, .T.);
#22 = CARTESIAN_POINT ('', (-120., 9.75, -2.38806125833734E-15));
#23 = CARTESIAN_POINT ('', (-120., 9.74999999999998, 39.));
#24 = CARTESIAN_POINT ('', (-120., -29.25, 19.5));
#25 = CARTESIAN_POINT ('', (-120., -29.25, -19.5));
#26 = CARTESIAN_POINT ('', (-120., 9.75000000000002, -39.));
#27 = CARTESIAN_POINT ('', (-120., 9.75, -2.38806125833734E-15));
#28 = (
   BOUNDED_CURVE ()
   B_SPLINE_CURVE (5, (#22, #23, #24, #25, #26, #27), .UNSPECIFIED., .T., .U.)
   B_SPLINE_CURVE_WITH_KNOTS ((6, 6), (0., 1.), .UNSPECIFIED.)
   CURVE ()
   GEOMETRIC_REPRESENTATION_ITEM ()
   RATIONAL_B_SPLINE_CURVE ((5., 1., 1., 1., 1., 5.))
   REPRESENTATION_ITEM ('')
);
#29 = EDGE_CURVE ('', #4, #4, #28, .T.);
#30 = ORIENTED_EDGE ('', *, *, #29, .F.);
#31 = EDGE_LOOP ('', (#11, #20, #21, #30));
#32 = FACE_OUTER_BOUND ('', #31, .F.);
#33 = CARTESIAN_POINT ('', (-119.75, 10., -2.4492935982947E-15));
#34 = CARTESIAN_POINT ('', (-119.833333333334, 9.91666666666669, -2.42888281830892E-15));
#35 = CARTESIAN_POINT ('', (-119.916666666667, 9.83333333333332, -2.40847203832312E-15));
#36 = CARTESIAN_POINT ('', (-120., 9.75, -2.38806125833734E-15));
#37 = CARTESIAN_POINT ('', (-119.75, 9.99999999999998, 40.));
#38 = CARTESIAN_POINT ('', (-119.833333333334, 9.91666666666667, 39.6666666666667));
#39 = CARTESIAN_POINT ('', (-119.916666666667, 9.8333333333333, 39.3333333333333));
#40 = CARTESIAN_POINT ('', (-120., 9.74999999999998, 39.));
#41 = CARTESIAN_POINT ('', (-119.75, -30., 20.));
#42 = CARTESIAN_POINT ('', (-119.833333333334, -29.75, 19.8333333333333));
#43 = CARTESIAN_POINT ('', (-119.916666666667, -29.4999999999999, 19.6666666666666));
#44 = CARTESIAN_POINT ('', (-120., -29.25, 19.5));
#45 = CARTESIAN_POINT ('', (-119.75, -30., -20.));
#46 = CARTESIAN_POINT ('', (-119.833333333334, -29.75, -19.8333333333334));
#47 = CARTESIAN_POINT ('', (-119.916666666667, -29.4999999999999, -19.6666666666666));
#48 = CARTESIAN_POINT ('', (-120., -29.25, -19.5));
#49 = CARTESIAN_POINT ('', (-119.75, 10., -40.));
#50 = CARTESIAN_POINT ('', (-119.833333333334, 9.91666666666671, -39.6666666666667));
#51 = CARTESIAN_POINT ('', (-119.916666666667, 9.83333333333334, -39.3333333333333));
#52 = CARTESIAN_POINT ('', (-120., 9.75000000000002, -39.));
#53 = CARTESIAN_POINT ('', (-119.75, 10., -2.4492935982947E-15));
#54 = CARTESIAN_POINT ('', (-119.833333333334, 9.91666666666669, -2.42888281830892E-15));
#55 = CARTESIAN_POINT ('', (-119.916666666667, 9.83333333333332, -2.40847203832312E-15));
#56 = CARTESIAN_POINT ('', (-120., 9.75, -2.38806125833734E-15));
#57 = (
   BOUNDED_SURFACE ()
   B_SPLINE_SURFACE (5, 3, ((#33, #34, #35, #36), (#37, #38, #39, #40), (#41, #42, #43, #44), (#45, #46, #47, #48), (#49, #50, #51, #52), (#53, #54, #55, #56)), .UNSPECIFIED., .T., .F., .U.)
   B_SPLINE_SURFACE_WITH_KNOTS ((6, 6), (4, 4), (0., 1.), (0., 1.), .UNSPECIFIED.)
   SURFACE ()
   GEOMETRIC_REPRESENTATION_ITEM ()
   RATIONAL_B_SPLINE_SURFACE (((5., 5., 5., 5.), (1., 1., 1., 1.), (1., 1., 1., 1.), (1., 1., 1., 1.), (1., 1., 1., 1.), (5., 5., 5., 5.)))
   REPRESENTATION_ITEM ('')
);
#58 = ADVANCED_FACE ('', (#32), #57, .F.);
#59 = CARTESIAN_POINT ('', (-120., 7.34788079488412E-15, -7.34788079488412E-15));
#60 = VERTEX_POINT ('', #59);
#61 = CARTESIAN_POINT ('', (-120., 9.75, -2.38806125833734E-15));
#62 = CARTESIAN_POINT ('', (-120., 6.5, -1.59204083889156E-15));
#63 = CARTESIAN_POINT ('', (-120., 3.25, -7.96020419445775E-16));
#64 = CARTESIAN_POINT ('', (-120., 7.34788079488412E-15, -7.34788079488412E-15));
#65 = B_SPLINE_CURVE_WITH_KNOTS ('', 3, (#61, #62, #63, #64), .UNSPECIFIED., .F., .U., (4, 4), (0., 1.), .UNSPECIFIED.);
#66 = EDGE_CURVE ('', #4, #60, #65, .T.);
#67 = ORIENTED_EDGE ('', *, *, #66, .F.);
#68 = ORIENTED_EDGE ('', *, *, #29, .T.);
#69 = ORIENTED_EDGE ('', *, *, #66, .T.);
#70 = EDGE_LOOP ('', (#67, #68, #69));
#71 = FACE_OUTER_BOUND ('', #70, .F.);
#72 = CARTESIAN_POINT ('', (-120., 9.75, -2.38806125833734E-15));
#73 = CARTESIAN_POINT ('', (-120., 6.5, -1.59204083889156E-15));
#74 = CARTESIAN_POINT ('', (-120., 3.25, -7.96020419445775E-16));
#75 = CARTESIAN_POINT ('', (-120., 7.34788079488412E-15, -7.34788079488412E-15));
#76 = CARTESIAN_POINT ('', (-120., 9.74999999999998, 39.));
#77 = CARTESIAN_POINT ('', (-120., 6.49999999999998, 26.));
#78 = CARTESIAN_POINT ('', (-120., 3.24999999999997, 13.));
#79 = CARTESIAN_POINT ('', (-120., 7.34788079488412E-15, -7.34788079488412E-15));
#80 = CARTESIAN_POINT ('', (-120., -29.25, 19.5));
#81 = CARTESIAN_POINT ('', (-120., -19.5, 13.));
#82 = CARTESIAN_POINT ('', (-120., -9.74999999999998, 6.49999999999996));
#83 = CARTESIAN_POINT ('', (-120., 7.34788079488412E-15, -7.34788079488412E-15));
#84 = CARTESIAN_POINT ('', (-120., -29.25, -19.5));
#85 = CARTESIAN_POINT ('', (-120., -19.5, -13.));
#86 = CARTESIAN_POINT ('', (-120., -9.74999999999996, -6.50000000000001));
#87 = CARTESIAN_POINT ('', (-120., 7.34788079488412E-15, -7.34788079488412E-15));
#88 = CARTESIAN_POINT ('', (-120., 9.75000000000002, -39.));
#89 = CARTESIAN_POINT ('', (-120., 6.50000000000002, -26.));
#90 = CARTESIAN_POINT ('', (-120., 3.25000000000003, -13.));
#91 = CARTESIAN_POINT ('', (-120., 7.34788079488412E-15, -7.34788079488412E-15));
#92 = CARTESIAN_POINT ('', (-120., 9.75, -2.38806125833734E-15));
#93 = CARTESIAN_POINT ('', (-120., 6.5, -1.59204083889156E-15));
#94 = CARTESIAN_POINT ('', (-120., 3.25, -7.96020419445775E-16));
#95 = CARTESIAN_POINT ('', (-120., 7.34788079488412E-15, -7.34788079488412E-15));
#96 = (
   BOUNDED_SURFACE ()
   B_SPLINE_SURFACE (5, 3, ((#72, #73, #74, #75), (#76, #77, #78, #79), (#80, #81, #82, #83), (#84, #85, #86, #87), (#88, #89, #90, #91), (#92, #93, #94, #95)), .UNSPECIFIED., .T., .F., .U.)
   B_SPLINE_SURFACE_WITH_KNOTS ((6, 6), (4, 4), (0., 1.), (0., 1.), .UNSPECIFIED.)
   SURFACE ()
   GEOMETRIC_REPRESENTATION_ITEM ()
   RATIONAL_B_SPLINE_SURFACE (((5., 5., 5., 5.), (1., 1., 1., 1.), (1., 1., 1., 1.), (1., 1., 1., 1.), (1., 1., 1., 1.), (5., 5., 5., 5.)))
   REPRESENTATION_ITEM ('')
);
#97 = ADVANCED_FACE ('', (#71), #96, .F.);
#98 = CARTESIAN_POINT ('', (1.97215226305253E-31, 10., -2.44929359829471E-15));
#99 = VERTEX_POINT ('', #98);
#100 = CARTESIAN_POINT ('', (1.97215226305253E-31, 10., -2.44929359829471E-15));
#101 = CARTESIAN_POINT ('', (-39.9166666666666, 10., -2.44929359829471E-15));
#102 = CARTESIAN_POINT ('', (-79.8333333333335, 10., -2.4492935982947E-15));
#103 = CARTESIAN_POINT ('', (-119.75, 10., -2.4492935982947E-15));
#104 = B_SPLINE_CURVE_WITH_KNOTS ('', 3, (#100, #101, #102, #103), .UNSPECIFIED., .F., .U., (4, 4), (0., 1.), .UNSPECIFIED.);
#105 = EDGE_CURVE ('', #99, #2, #104, .T.);
#106 = ORIENTED_EDGE ('', *, *, #105, .F.);
#107 = CARTESIAN_POINT ('', (1.97215226305253E-31, 10., -2.44929359829471E-15));
#108 = CARTESIAN_POINT ('', (-2.44929359829471E-15, 10., 40.));
#109 = CARTESIAN_POINT ('', (-3.67394039744206E-15, -30., 20.));
#110 = CARTESIAN_POINT ('', (-1.22464679914735E-15, -30., -20.));
#111 = CARTESIAN_POINT ('', (2.44929359829471E-15, 9.99999999999999, -40.));
#112 = CARTESIAN_POINT ('', (1.97215226305253E-31, 10., -2.44929359829471E-15));
#113 = (
   BOUNDED_CURVE ()
   B_SPLINE_CURVE (5, (#107, #108, #109, #110, #111, #112), .UNSPECIFIED., .T., .U.)
   B_SPLINE_CURVE_WITH_KNOTS ((6, 6), (0., 1.), .UNSPECIFIED.)
   CURVE ()
   GEOMETRIC_REPRESENTATION_ITEM ()
   RATIONAL_B_SPLINE_CURVE ((5., 1., 1., 1., 1., 5.))
   REPRESENTATION_ITEM ('')
);
#114 = EDGE_CURVE ('', #99, #99, #113, .T.);
#115 = ORIENTED_EDGE ('', *, *, #114, .T.);
#116 = ORIENTED_EDGE ('', *, *, #105, .T.);
#117 = ORIENTED_EDGE ('', *, *, #19, .F.);
#118 = EDGE_LOOP ('', (#106, #115, #116, #117));
#119 = FACE_OUTER_BOUND ('', #118, .F.);
#120 = CARTESIAN_POINT ('', (1.97215226305253E-31, 10., -2.44929359829471E-15));
#121 = CARTESIAN_POINT ('', (-39.9166666666666, 10., -2.44929359829471E-15));
#122 = CARTESIAN_POINT ('', (-79.8333333333335, 10., -2.4492935982947E-15));
#123 = CARTESIAN_POINT ('', (-119.75, 10., -2.4492935982947E-15));
#124 = CARTESIAN_POINT ('', (-2.44929359829471E-15, 10., 40.));
#125 = CARTESIAN_POINT ('', (-39.9166666666666, 10., 40.));
#126 = CARTESIAN_POINT ('', (-79.8333333333335, 9.99999999999999, 40.));
#127 = CARTESIAN_POINT ('', (-119.75, 9.99999999999998, 40.));
#128 = CARTESIAN_POINT ('', (-3.67394039744206E-15, -30., 20.));
#129 = CARTESIAN_POINT ('', (-39.9166666666666, -30., 20.));
#130 = CARTESIAN_POINT ('', (-79.8333333333335, -30., 20.));
#131 = CARTESIAN_POINT ('', (-119.75, -30., 20.));
#132 = CARTESIAN_POINT ('', (-1.22464679914735E-15, -30., -20.));
#133 = CARTESIAN_POINT ('', (-39.9166666666666, -30., -20.));
#134 = CARTESIAN_POINT ('', (-79.8333333333335, -30., -20.));
#135 = CARTESIAN_POINT ('', (-119.75, -30., -20.));
#136 = CARTESIAN_POINT ('', (2.44929359829471E-15, 9.99999999999999, -40.));
#137 = CARTESIAN_POINT ('', (-39.9166666666666, 10., -40.));
#138 = CARTESIAN_POINT ('', (-79.8333333333335, 10., -40.));
#139 = CARTESIAN_POINT ('', (-119.75, 10., -40.));
#140 = CARTESIAN_POINT ('', (1.97215226305253E-31, 10., -2.44929359829471E-15));
#141 = CARTESIAN_POINT ('', (-39.9166666666666, 10., -2.44929359829471E-15));
#142 = CARTESIAN_POINT ('', (-79.8333333333335, 10., -2.4492935982947E-15));
#143 = CARTESIAN_POINT ('', (-119.75, 10., -2.4492935982947E-15));
#144 = (
   BOUNDED_SURFACE ()
   B_SPLINE_SURFACE (5, 3, ((#120, #121, #122, #123), (#124, #125, #126, #127), (#128, #129, #130, #131), (#132, #133, #134, #135), (#136, #137, #138, #139), (#140, #141, #142, #143)), .UNSPECIFIED., .T., .F., .U.)
   B_SPLINE_SURFACE_WITH_KNOTS ((6, 6), (4, 4), (0., 1.), (0., 1.), .UNSPECIFIED.)
   SURFACE ()
   GEOMETRIC_REPRESENTATION_ITEM ()
   RATIONAL_B_SPLINE_SURFACE (((5., 5., 5., 5.), (1., 1., 1., 1.), (1., 1., 1., 1.), (1., 1., 1., 1.), (1., 1., 1., 1.), (5., 5., 5., 5.)))
   REPRESENTATION_ITEM ('')
);
#145 = ADVANCED_FACE ('', (#119), #144, .F.);
#146 = CARTESIAN_POINT ('', (0., 0., 0.));
#147 = VERTEX_POINT ('', #146);
#148 = CARTESIAN_POINT ('', (0., 0., 0.));
#149 = CARTESIAN_POINT ('', (2.46519032881566E-32, 3.33333333333333, -8.16431199431569E-16));
#150 = CARTESIAN_POINT ('', (9.86076131526265E-32, 6.66666666666669, -1.63286239886314E-15));
#151 = CARTESIAN_POINT ('', (1.97215226305253E-31, 10., -2.44929359829471E-15));
#152 = B_SPLINE_CURVE_WITH_KNOTS ('', 3, (#148, #149, #150, #151), .UNSPECIFIED., .F., .U., (4, 4), (0., 1.), .UNSPECIFIED.);
#153 = EDGE_CURVE ('', #147, #99, #152, .T.);
#154 = ORIENTED_EDGE ('', *, *, #153, .F.);
#155 = ORIENTED_EDGE ('', *, *, #153, .T.);
#156 = ORIENTED_EDGE ('', *, *, #114, .F.);
#157 = EDGE_LOOP ('', (#154, #155, #156));
#158 = FACE_OUTER_BOUND ('', #157, .F.);
#159 = CARTESIAN_POINT ('', (0., 0., 0.));
#160 = CARTESIAN_POINT ('', (2.46519032881566E-32, 3.33333333333333, -8.16431199431569E-16));
#161 = CARTESIAN_POINT ('', (9.86076131526265E-32, 6.66666666666669, -1.63286239886314E-15));
#162 = CARTESIAN_POINT ('', (1.97215226305253E-31, 10., -2.44929359829471E-15));
#163 = CARTESIAN_POINT ('', (0., 0., 0.));
#164 = CARTESIAN_POINT ('', (-8.16431199431569E-16, 3.33333333333334, 13.3333333333333));
#165 = CARTESIAN_POINT ('', (-1.63286239886314E-15, 6.66666666666669, 26.6666666666667));
#166 = CARTESIAN_POINT ('', (-2.44929359829471E-15, 10., 40.));
#167 = CARTESIAN_POINT ('', (0., 0., 0.));
#168 = CARTESIAN_POINT ('', (-1.22464679914735E-15, -10., 6.66666666666667));
#169 = CARTESIAN_POINT ('', (-2.44929359829471E-15, -20.0000000000001, 13.3333333333334));
#170 = CARTESIAN_POINT ('', (-3.67394039744206E-15, -30., 20.));
#171 = CARTESIAN_POINT ('', (0., 0., 0.));
#172 = CARTESIAN_POINT ('', (-4.08215599715785E-16, -10., -6.66666666666666));
#173 = CARTESIAN_POINT ('', (-8.16431199431572E-16, -20.0000000000001, -13.3333333333334));
#174 = CARTESIAN_POINT ('', (-1.22464679914735E-15, -30., -20.));
#175 = CARTESIAN_POINT ('', (0., 0., 0.));
#176 = CARTESIAN_POINT ('', (8.16431199431569E-16, 3.33333333333333, -13.3333333333333));
#177 = CARTESIAN_POINT ('', (1.63286239886314E-15, 6.66666666666668, -26.6666666666667));
#178 = CARTESIAN_POINT ('', (2.44929359829471E-15, 9.99999999999999, -40.));
#179 = CARTESIAN_POINT ('', (0., 0., 0.));
#180 = CARTESIAN_POINT ('', (2.46519032881566E-32, 3.33333333333333, -8.16431199431569E-16));
#181 = CARTESIAN_POINT ('', (9.86076131526265E-32, 6.66666666666669, -1.63286239886314E-15));
#182 = CARTESIAN_POINT ('', (1.97215226305253E-31, 10., -2.44929359829471E-15));
#183 = (
   BOUNDED_SURFACE ()
   B_SPLINE_SURFACE (5, 3, ((#159, #160, #161, #162), (#163, #164, #165, #166), (#167, #168, #169, #170), (#171, #172, #173, #174), (#175, #176, #177, #178), (#179, #180, #181, #182)), .UNSPECIFIED., .T., .F., .U.)
   B_SPLINE_SURFACE_WITH_KNOTS ((6, 6), (4, 4), (0., 1.), (0., 1.), .UNSPECIFIED.)
   SURFACE ()
   GEOMETRIC_REPRESENTATION_ITEM ()
   RATIONAL_B_SPLINE_SURFACE (((5., 5., 5., 5.), (1., 1., 1., 1.), (1., 1., 1., 1.), (1., 1., 1., 1.), (1., 1., 1., 1.), (5., 5., 5., 5.)))
   REPRESENTATION_ITEM ('')
);
#184 = ADVANCED_FACE ('', (#158), #183, .F.);
#185 = CLOSED_SHELL ('', (#58, #97, #145, #184));
#186 = MANIFOLD_SOLID_BREP ('', #185);
#187 = (
   LENGTH_UNIT ()
   NAMED_UNIT (*)
   SI_UNIT (.MILLI., .METRE.)
);
#188 = (
   NAMED_UNIT (*)
   SI_UNIT ($, .STERADIAN.)
   SOLID_ANGLE_UNIT ()
);
#189 = (
   NAMED_UNIT (*)
   SI_UNIT ($, .RADIAN.)
   PLANE_ANGLE_UNIT ()
);
#190 = UNCERTAINTY_MEASURE_WITH_UNIT (LENGTH_MEASURE(0.001), #187, 'DISTANCE_ACCURACY_VALUE', '');
#191 = (
   GEOMETRIC_REPRESENTATION_CONTEXT (3)
   GLOBAL_UNCERTAINTY_ASSIGNED_CONTEXT ((#190))
   GLOBAL_UNIT_ASSIGNED_CONTEXT ((#187, #188, #189))
   REPRESENTATION_CONTEXT ('', '3D')
);
#192 = SHAPE_REPRESENTATION ('', (), #191);
#193 = APPLICATION_CONTEXT ('configuration controlled 3D designs of mechanical parts and assemblies');
#194 = APPLICATION_PROTOCOL_DEFINITION ('International Standard', 'config_control_design', 1997, #193);
#195 = MECHANICAL_CONTEXT ('', #193, 'mechanical');
#196 = PRODUCT ('', '', '', (#195));
#197 = PERSON_AND_ORGANIZATION_ROLE ('design_owner');
#198 = PERSON ('', '', $, $, $, $);
#199 = ORGANIZATION ($, '', '');
#200 = PERSON_AND_ORGANIZATION (#198, #199);
#201 = CC_DESIGN_PERSON_AND_ORGANIZATION_ASSIGNMENT (#200, #197, (#196));
#202 = PRODUCT_RELATED_PRODUCT_CATEGORY ('detail', $, (#196));
#203 = PRODUCT_DEFINITION_FORMATION_WITH_SPECIFIED_SOURCE ('', '', #196, .NOT_KNOWN.);
#204 = APPROVAL_STATUS ('approved');
#205 = APPROVAL (#204, '');
#206 = CALENDAR_DATE (2021, 7, 12);
#207 = COORDINATED_UNIVERSAL_TIME_OFFSET (0, $, .AHEAD.);
#208 = LOCAL_TIME (15, 25, 40., #207);
#209 = DATE_AND_TIME (#206, #208);
#210 = APPROVAL_DATE_TIME (#209, #205);
#211 = APPROVAL_ROLE ('');
#212 = PERSON ('', '', $, $, $, $);
#213 = ORGANIZATION ($, '', '');
#214 = PERSON_AND_ORGANIZATION (#212, #213);
#215 = APPROVAL_PERSON_ORGANIZATION (#214, #205, #211);
#216 = CC_DESIGN_APPROVAL (#205, (#203));
#217 = PERSON_AND_ORGANIZATION_ROLE ('creator');
#218 = PERSON ('', '', $, $, $, $);
#219 = ORGANIZATION ($, '', '');
#220 = PERSON_AND_ORGANIZATION (#218, #219);
#221 = CC_DESIGN_PERSON_AND_ORGANIZATION_ASSIGNMENT (#220, #217, (#203));
#222 = PERSON_AND_ORGANIZATION_ROLE ('part_supplier');
#223 = PERSON ('', '', $, $, $, $);
#224 = ORGANIZATION ($, '', '');
#225 = PERSON_AND_ORGANIZATION (#223, #224);
#226 = CC_DESIGN_PERSON_AND_ORGANIZATION_ASSIGNMENT (#225, #222, (#203));
#227 = SECURITY_CLASSIFICATION_LEVEL ('unclassified');
#228 = SECURITY_CLASSIFICATION ('', '', #227);
#229 = APPROVAL_STATUS ('approved');
#230 = APPROVAL (#229, '');
#231 = CALENDAR_DATE (2021, 7, 12);
#232 = COORDINATED_UNIVERSAL_TIME_OFFSET (0, $, .AHEAD.);
#233 = LOCAL_TIME (15, 25, 40., #232);
#234 = DATE_AND_TIME (#231, #233);
#235 = APPROVAL_DATE_TIME (#234, #230);
#236 = APPROVAL_ROLE ('');
#237 = PERSON ('', '', $, $, $, $);
#238 = ORGANIZATION ($, '', '');
#239 = PERSON_AND_ORGANIZATION (#237, #238);
#240 = APPROVAL_PERSON_ORGANIZATION (#239, #230, #236);
#241 = CC_DESIGN_APPROVAL (#230, (#228));
#242 = DATE_TIME_ROLE ('classification_date');
#243 = CALENDAR_DATE (2021, 7, 12);
#244 = COORDINATED_UNIVERSAL_TIME_OFFSET (0, $, .AHEAD.);
#245 = LOCAL_TIME (15, 25, 40., #244);
#246 = DATE_AND_TIME (#243, #245);
#247 = CC_DESIGN_DATE_AND_TIME_ASSIGNMENT (#246, #242, (#228));
#248 = PERSON_AND_ORGANIZATION_ROLE ('classification_officer');
#249 = PERSON ('', '', $, $, $, $);
#250 = ORGANIZATION ($, '', '');
#251 = PERSON_AND_ORGANIZATION (#249, #250);
#252 = CC_DESIGN_PERSON_AND_ORGANIZATION_ASSIGNMENT (#251, #248, (#228));
#253 = CC_DESIGN_SECURITY_CLASSIFICATION (#228, (#203));
#254 = DESIGN_CONTEXT ('', #193, 'design');
#255 = PRODUCT_DEFINITION ('', '', #203, #254);
#256 = APPROVAL_STATUS ('approved');
#257 = APPROVAL (#256, '');
#258 = CALENDAR_DATE (2021, 7, 12);
#259 = COORDINATED_UNIVERSAL_TIME_OFFSET (0, $, .AHEAD.);
#260 = LOCAL_TIME (15, 25, 40., #259);
#261 = DATE_AND_TIME (#258, #260);
#262 = APPROVAL_DATE_TIME (#261, #257);
#263 = APPROVAL_ROLE ('');
#264 = PERSON ('', '', $, $, $, $);
#265 = ORGANIZATION ($, '', '');
#266 = PERSON_AND_ORGANIZATION (#264, #265);
#267 = APPROVAL_PERSON_ORGANIZATION (#266, #257, #263);
#268 = CC_DESIGN_APPROVAL (#257, (#255));
#269 = DATE_TIME_ROLE ('creation_date');
#270 = CALENDAR_DATE (2021, 7, 12);
#271 = COORDINATED_UNIVERSAL_TIME_OFFSET (0, $, .AHEAD.);
#272 = LOCAL_TIME (15, 25, 40., #271);
#273 = DATE_AND_TIME (#270, #272);
#274 = CC_DESIGN_DATE_AND_TIME_ASSIGNMENT (#273, #269, (#255));
#275 = PERSON_AND_ORGANIZATION_ROLE ('creator');
#276 = PERSON ('', '', $, $, $, $);
#277 = ORGANIZATION ($, '', '');
#278 = PERSON_AND_ORGANIZATION (#276, #277);
#279 = CC_DESIGN_PERSON_AND_ORGANIZATION_ASSIGNMENT (#278, #275, (#255));
#280 = PRODUCT_DEFINITION_SHAPE ('', '', #255);
#281 = SHAPE_DEFINITION_REPRESENTATION (#280, #192);
#282 = SHAPE_REPRESENTATION_RELATIONSHIP ('', '', #192, #283);
#283 = ADVANCED_BREP_SHAPE_REPRESENTATION ('', (#186), #191);
ENDSEC;
END-ISO-10303-21;
