ISO-10303-21;
HEADER;
FILE_DESCRIPTION (('STEP'), '1');
FILE_NAME ('C:\\Users\\rob\\Downloads\\137V5 1203-1.0RALCC.STP', '2023-06-30T08:47:31', ('Unknown'), ('M A FORD'), 'OneCNC-XR9 Mill 3D Expert', 'OneCNC-XR9 Mill 3D Expert', '');
FILE_SCHEMA (('CONFIG_CONTROL_DESIGN'));
ENDSEC;

DATA;
#1 = CARTESIAN_POINT ('', (-1., 6., -1.46957615897682E-15));
#2 = CARTESIAN_POINT ('', (-0.000265794268285703, 5.99973420573171, -1.46951105815686E-15));
#3 = CARTESIAN_POINT ('', (2.22044604925031E-16, 5., -1.22464679914735E-15));
#4 = (
   BOUNDED_CURVE ()
   B_SPLINE_CURVE (2, (#1, #2, #3), .UNSPECIFIED., .F., .U.)
   B_SPLINE_CURVE_WITH_KNOTS ((3, 3), (0., 1.), .UNSPECIFIED.)
   CURVE ()
   GEOMETRIC_REPRESENTATION_ITEM ()
   RATIONAL_B_SPLINE_CURVE ((1., 0.707294751086751, 1.))
   REPRESENTATION_ITEM ('')
);
#5 = GEOMETRIC_CURVE_SET ('', (#4, #8));
#6 = CARTESIAN_POINT ('', (-87., 6., -2.27784304641407E-14));
#7 = CARTESIAN_POINT ('', (-1., 6., -1.46957615897682E-15));
#8 = B_SPLINE_CURVE_WITH_KNOTS ('', 1, (#6, #7), .UNSPECIFIED., .F., .U., (2, 2), (0., 1.), .UNSPECIFIED.);
#9 = CARTESIAN_POINT ('', (-1., 6., -1.46957615897682E-15));
#10 = VERTEX_POINT ('', #9);
#11 = CARTESIAN_POINT ('', (2.22044604925031E-16, 5., -1.22464679914735E-15));
#12 = VERTEX_POINT ('', #11);
#13 = CARTESIAN_POINT ('', (-1., 6., -1.46957615897682E-15));
#14 = CARTESIAN_POINT ('', (-0.890748871758202, 5.99997095395603, -1.46956904474787E-15));
#15 = CARTESIAN_POINT ('', (-0.646290135091984, 5.95939295851892, -1.45963030230229E-15));
#16 = CARTESIAN_POINT ('', (-0.340377964583121, 5.77985585039537, -1.41565639334396E-15));
#17 = CARTESIAN_POINT ('', (-0.0758950104077341, 5.45455164135338, -1.33597984167347E-15));
#18 = CARTESIAN_POINT ('', (-4.67949349310872E-5, 5.17601018038318, -1.26775685995207E-15));
#19 = CARTESIAN_POINT ('', (2.22044604925031E-16, 5., -1.22464679914735E-15));
#20 = B_SPLINE_CURVE_WITH_KNOTS ('', 3, (#13, #14, #15, #16, #17, #18, #19), .UNSPECIFIED., .F., .U., (4, 1, 1, 1, 4), (0., 0.208669447959291, 0.467061553897554, 0.663820888929545, 1.), .UNSPECIFIED.);
#21 = EDGE_CURVE ('', #10, #12, #20, .T.);
#22 = ORIENTED_EDGE ('', *, *, #21, .F.);
#23 = CARTESIAN_POINT ('', (-1., 6., -1.46957615897682E-15));
#24 = CARTESIAN_POINT ('', (-1., 6., 6.));
#25 = CARTESIAN_POINT ('', (-1., 1.83697019872102E-15, 6.));
#26 = CARTESIAN_POINT ('', (-1., -6., 6.));
#27 = CARTESIAN_POINT ('', (-1., -6., 2.20436423846523E-15));
#28 = CARTESIAN_POINT ('', (-1., -6., -6.));
#29 = CARTESIAN_POINT ('', (-1., -2.57175827820944E-15, -6.));
#30 = CARTESIAN_POINT ('', (-1., 6., -6.));
#31 = CARTESIAN_POINT ('', (-1., 6., -1.46957615897682E-15));
#32 = (
   BOUNDED_CURVE ()
   B_SPLINE_CURVE (2, (#23, #24, #25, #26, #27, #28, #29, #30, #31), .UNSPECIFIED., .T., .U.)
   B_SPLINE_CURVE_WITH_KNOTS ((3, 2, 2, 2, 3), (0., 0.25, 0.5, 0.75, 1.), .UNSPECIFIED.)
   CURVE ()
   GEOMETRIC_REPRESENTATION_ITEM ()
   RATIONAL_B_SPLINE_CURVE ((1., 0.707106781186548, 1., 0.707106781186548, 1., 0.707106781186548, 1., 0.707106781186548, 1.))
   REPRESENTATION_ITEM ('')
);
#33 = EDGE_CURVE ('', #10, #10, #32, .T.);
#34 = ORIENTED_EDGE ('', *, *, #33, .T.);
#35 = ORIENTED_EDGE ('', *, *, #21, .T.);
#36 = CARTESIAN_POINT ('', (2.22044604925031E-16, 5., -1.22464679914735E-15));
#37 = CARTESIAN_POINT ('', (2.22044604925031E-16, 5., 5.));
#38 = CARTESIAN_POINT ('', (2.22044604925031E-16, 1.53080849893419E-15, 5.));
#39 = CARTESIAN_POINT ('', (2.22044604925031E-16, -5., 5.));
#40 = CARTESIAN_POINT ('', (2.22044604925031E-16, -5., 1.83697019872103E-15));
#41 = CARTESIAN_POINT ('', (2.22044604925031E-16, -5., -5.));
#42 = CARTESIAN_POINT ('', (2.22044604925031E-16, -2.14313189850786E-15, -5.));
#43 = CARTESIAN_POINT ('', (2.22044604925031E-16, 5., -5.));
#44 = CARTESIAN_POINT ('', (2.22044604925031E-16, 5., -1.22464679914735E-15));
#45 = (
   BOUNDED_CURVE ()
   B_SPLINE_CURVE (2, (#36, #37, #38, #39, #40, #41, #42, #43, #44), .UNSPECIFIED., .T., .U.)
   B_SPLINE_CURVE_WITH_KNOTS ((3, 2, 2, 2, 3), (0., 0.25, 0.5, 0.75, 1.), .UNSPECIFIED.)
   CURVE ()
   GEOMETRIC_REPRESENTATION_ITEM ()
   RATIONAL_B_SPLINE_CURVE ((1., 0.707106781186548, 1., 0.707106781186548, 1., 0.707106781186548, 1., 0.707106781186548, 1.))
   REPRESENTATION_ITEM ('')
);
#46 = EDGE_CURVE ('', #12, #12, #45, .T.);
#47 = ORIENTED_EDGE ('', *, *, #46, .F.);
#48 = EDGE_LOOP ('', (#22, #34, #35, #47));
#49 = FACE_OUTER_BOUND ('', #48, .T.);
#50 = CARTESIAN_POINT ('', (-1., 6., -1.46957615897682E-15));
#51 = CARTESIAN_POINT ('', (-0.890748871758202, 5.99997095395603, -1.46956904474787E-15));
#52 = CARTESIAN_POINT ('', (-0.646290135091984, 5.95939295851892, -1.45963030230229E-15));
#53 = CARTESIAN_POINT ('', (-0.340377964583121, 5.77985585039537, -1.41565639334396E-15));
#54 = CARTESIAN_POINT ('', (-0.0758950104077341, 5.45455164135338, -1.33597984167347E-15));
#55 = CARTESIAN_POINT ('', (-4.67949349310872E-5, 5.17601018038318, -1.26775685995207E-15));
#56 = CARTESIAN_POINT ('', (2.22044604925031E-16, 5., -1.22464679914735E-15));
#57 = CARTESIAN_POINT ('', (-1., 6., 6.));
#58 = CARTESIAN_POINT ('', (-0.890748871758202, 5.99997095395603, 5.99997095395603));
#59 = CARTESIAN_POINT ('', (-0.646290135091984, 5.95939295851892, 5.95939295851891));
#60 = CARTESIAN_POINT ('', (-0.340377964583121, 5.77985585039537, 5.77985585039537));
#61 = CARTESIAN_POINT ('', (-0.0758950104077341, 5.45455164135338, 5.45455164135338));
#62 = CARTESIAN_POINT ('', (-4.67949349310871E-5, 5.17601018038318, 5.17601018038318));
#63 = CARTESIAN_POINT ('', (2.22044604925031E-16, 5., 5.));
#64 = CARTESIAN_POINT ('', (-1., 1.83697019872103E-15, 6.));
#65 = CARTESIAN_POINT ('', (-0.890748871758202, 1.83696130593484E-15, 5.99997095395603));
#66 = CARTESIAN_POINT ('', (-0.646290135091984, 1.82453787787787E-15, 5.95939295851892));
#67 = CARTESIAN_POINT ('', (-0.340377964583121, 1.76957049167995E-15, 5.77985585039537));
#68 = CARTESIAN_POINT ('', (-0.0758950104077341, 1.66997480209184E-15, 5.45455164135338));
#69 = CARTESIAN_POINT ('', (-4.67949349310872E-5, 1.58469607494009E-15, 5.17601018038318));
#70 = CARTESIAN_POINT ('', (2.22044604925031E-16, 1.53080849893419E-15, 5.));
#71 = CARTESIAN_POINT ('', (-1., -6., 6.));
#72 = CARTESIAN_POINT ('', (-0.890748871758202, -5.99997095395603, 5.99997095395603));
#73 = CARTESIAN_POINT ('', (-0.646290135091984, -5.95939295851891, 5.95939295851892));
#74 = CARTESIAN_POINT ('', (-0.340377964583121, -5.77985585039537, 5.77985585039537));
#75 = CARTESIAN_POINT ('', (-0.0758950104077341, -5.45455164135338, 5.45455164135338));
#76 = CARTESIAN_POINT ('', (-4.67949349310871E-5, -5.17601018038318, 5.17601018038318));
#77 = CARTESIAN_POINT ('', (2.22044604925031E-16, -5., 5.));
#78 = CARTESIAN_POINT ('', (-1., -6., 2.20436423846523E-15));
#79 = CARTESIAN_POINT ('', (-0.890748871758202, -5.99997095395603, 2.2043535671218E-15));
#80 = CARTESIAN_POINT ('', (-0.646290135091984, -5.95939295851892, 2.18944545345344E-15));
#81 = CARTESIAN_POINT ('', (-0.340377964583121, -5.77985585039537, 2.12348459001594E-15));
#82 = CARTESIAN_POINT ('', (-0.0758950104077341, -5.45455164135338, 2.00396976251021E-15));
#83 = CARTESIAN_POINT ('', (-4.67949349310872E-5, -5.17601018038318, 1.90163528992811E-15));
#84 = CARTESIAN_POINT ('', (2.22044604925031E-16, -5., 1.83697019872103E-15));
#85 = CARTESIAN_POINT ('', (-1., -6., -6.));
#86 = CARTESIAN_POINT ('', (-0.890748871758202, -5.99997095395603, -5.99997095395603));
#87 = CARTESIAN_POINT ('', (-0.646290135091984, -5.95939295851892, -5.95939295851891));
#88 = CARTESIAN_POINT ('', (-0.340377964583121, -5.77985585039537, -5.77985585039537));
#89 = CARTESIAN_POINT ('', (-0.0758950104077341, -5.45455164135338, -5.45455164135338));
#90 = CARTESIAN_POINT ('', (-4.67949349310871E-5, -5.17601018038318, -5.17601018038318));
#91 = CARTESIAN_POINT ('', (2.22044604925031E-16, -5., -5.));
#92 = CARTESIAN_POINT ('', (-1., -2.57175827820944E-15, -6.));
#93 = CARTESIAN_POINT ('', (-0.890748871758202, -2.57174582830877E-15, -5.99997095395603));
#94 = CARTESIAN_POINT ('', (-0.646290135091984, -2.55435302902901E-15, -5.95939295851892));
#95 = CARTESIAN_POINT ('', (-0.340377964583121, -2.47739868835193E-15, -5.77985585039537));
#96 = CARTESIAN_POINT ('', (-0.0758950104077341, -2.33796472292858E-15, -5.45455164135338));
#97 = CARTESIAN_POINT ('', (-4.67949349310872E-5, -2.21857450491613E-15, -5.17601018038318));
#98 = CARTESIAN_POINT ('', (2.22044604925031E-16, -2.14313189850786E-15, -5.));
#99 = CARTESIAN_POINT ('', (-1., 6., -6.));
#100 = CARTESIAN_POINT ('', (-0.890748871758202, 5.99997095395603, -5.99997095395603));
#101 = CARTESIAN_POINT ('', (-0.646290135091984, 5.95939295851891, -5.95939295851892));
#102 = CARTESIAN_POINT ('', (-0.340377964583121, 5.77985585039537, -5.77985585039537));
#103 = CARTESIAN_POINT ('', (-0.0758950104077341, 5.45455164135338, -5.45455164135338));
#104 = CARTESIAN_POINT ('', (-4.67949349310871E-5, 5.17601018038318, -5.17601018038318));
#105 = CARTESIAN_POINT ('', (2.22044604925031E-16, 5., -5.));
#106 = CARTESIAN_POINT ('', (-1., 6., -1.46957615897682E-15));
#107 = CARTESIAN_POINT ('', (-0.890748871758202, 5.99997095395603, -1.46956904474787E-15));
#108 = CARTESIAN_POINT ('', (-0.646290135091984, 5.95939295851892, -1.45963030230229E-15));
#109 = CARTESIAN_POINT ('', (-0.340377964583121, 5.77985585039537, -1.41565639334396E-15));
#110 = CARTESIAN_POINT ('', (-0.0758950104077341, 5.45455164135338, -1.33597984167347E-15));
#111 = CARTESIAN_POINT ('', (-4.67949349310872E-5, 5.17601018038318, -1.26775685995207E-15));
#112 = CARTESIAN_POINT ('', (2.22044604925031E-16, 5., -1.22464679914735E-15));
#113 = (
   BOUNDED_SURFACE ()
   B_SPLINE_SURFACE (2, 3, ((#50, #51, #52, #53, #54, #55, #56), (#57, #58, #59, #60, #61, #62, #63), (#64, #65, #66, #67, #68, #69, #70), (#71, #72, #73, #74, #75, #76, #77), (#78, #79, #80, #81, #82, #83, #84), (#85, #86, #87, #88, #89, #90, #91), (#92, #93, #94, #95, #96, #97, #98), (#99, #100, #101, #102, #103, #104, #105), (#106, #107, #108, #109, #110, #111, #112)), .UNSPECIFIED., .T., .F., .U.)
   B_SPLINE_SURFACE_WITH_KNOTS ((3, 2, 2, 2, 3), (4, 1, 1, 1, 4), (0., 0.25, 0.5, 0.75, 1.), (0., 0.208669447959291, 0.467061553897554, 0.663820888929545, 1.), .UNSPECIFIED.)
   GEOMETRIC_REPRESENTATION_ITEM ()
   RATIONAL_B_SPLINE_SURFACE (((1., 1., 1., 1., 1., 1., 1.), (0.707106781186548, 0.707106781186548, 0.707106781186548, 0.707106781186548, 0.707106781186548, 0.707106781186548, 0.707106781186548), (1., 1., 1., 1., 1., 1., 1.), (0.707106781186548, 0.707106781186548, 0.707106781186548, 0.707106781186548, 0.707106781186548, 0.707106781186548, 0.707106781186548), (1., 1., 1., 1., 1., 1., 1.), (0.707106781186548, 0.707106781186548, 0.707106781186548, 0.707106781186548, 0.707106781186548, 0.707106781186548, 0.707106781186548), (1., 1., 1., 1., 1., 1., 1.), (0.707106781186548, 0.707106781186548, 0.707106781186548, 0.707106781186548, 0.707106781186548, 0.707106781186548, 0.707106781186548), (1., 1., 1., 1., 1., 1., 1.)))
   REPRESENTATION_ITEM ('')
   SURFACE ()
);
#114 = ADVANCED_FACE ('', (#49), #113, .T.);
#115 = CARTESIAN_POINT ('', (-87., 6., -2.27784304641407E-14));
#116 = VERTEX_POINT ('', #115);
#117 = CARTESIAN_POINT ('', (-87., 6., -2.27784304641407E-14));
#118 = CARTESIAN_POINT ('', (-58.3333333333335, 6., -1.56754790290861E-14));
#119 = CARTESIAN_POINT ('', (-29.6666666666667, 6., -8.57252759403145E-15));
#120 = CARTESIAN_POINT ('', (-1., 6., -1.46957615897682E-15));
#121 = B_SPLINE_CURVE_WITH_KNOTS ('', 3, (#117, #118, #119, #120), .UNSPECIFIED., .F., .U., (4, 4), (0., 1.), .UNSPECIFIED.);
#122 = EDGE_CURVE ('', #116, #10, #121, .T.);
#123 = ORIENTED_EDGE ('', *, *, #122, .F.);
#124 = CARTESIAN_POINT ('', (-87., 6., -2.27784304641407E-14));
#125 = CARTESIAN_POINT ('', (-87., 6.00000000000002, 5.99999999999998));
#126 = CARTESIAN_POINT ('', (-87., 2.31458245038849E-14, 6.));
#127 = CARTESIAN_POINT ('', (-87., -5.99999999999998, 6.00000000000002));
#128 = CARTESIAN_POINT ('', (-87., -6., 2.35132185436291E-14));
#129 = CARTESIAN_POINT ('', (-87., -6.00000000000002, -5.99999999999998));
#130 = CARTESIAN_POINT ('', (-87., -2.38806125833733E-14, -6.));
#131 = CARTESIAN_POINT ('', (-87., 5.99999999999998, -6.00000000000002));
#132 = CARTESIAN_POINT ('', (-87., 6., -2.27784304641407E-14));
#133 = (
   BOUNDED_CURVE ()
   B_SPLINE_CURVE (2, (#124, #125, #126, #127, #128, #129, #130, #131, #132), .UNSPECIFIED., .T., .U.)
   B_SPLINE_CURVE_WITH_KNOTS ((3, 2, 2, 2, 3), (0., 0.25, 0.5, 0.75, 1.), .UNSPECIFIED.)
   CURVE ()
   GEOMETRIC_REPRESENTATION_ITEM ()
   RATIONAL_B_SPLINE_CURVE ((1., 0.707106781186548, 1., 0.707106781186548, 1., 0.707106781186548, 1., 0.707106781186548, 1.))
   REPRESENTATION_ITEM ('')
);
#134 = EDGE_CURVE ('', #116, #116, #133, .T.);
#135 = ORIENTED_EDGE ('', *, *, #134, .T.);
#136 = ORIENTED_EDGE ('', *, *, #122, .T.);
#137 = ORIENTED_EDGE ('', *, *, #33, .F.);
#138 = EDGE_LOOP ('', (#123, #135, #136, #137));
#139 = FACE_OUTER_BOUND ('', #138, .T.);
#140 = CARTESIAN_POINT ('', (-87., 6., -2.27784304641407E-14));
#141 = CARTESIAN_POINT ('', (-58.3333333333335, 6., -1.56754790290861E-14));
#142 = CARTESIAN_POINT ('', (-29.6666666666667, 6., -8.57252759403145E-15));
#143 = CARTESIAN_POINT ('', (-1., 6., -1.46957615897682E-15));
#144 = CARTESIAN_POINT ('', (-87., 6.00000000000002, 5.99999999999998));
#145 = CARTESIAN_POINT ('', (-58.3333333333335, 6.00000000000002, 5.99999999999998));
#146 = CARTESIAN_POINT ('', (-29.6666666666667, 6.00000000000001, 6.));
#147 = CARTESIAN_POINT ('', (-1., 6., 6.));
#148 = CARTESIAN_POINT ('', (-87., 2.31458245038849E-14, 6.));
#149 = CARTESIAN_POINT ('', (-58.3333333333335, 1.60428730688303E-14, 6.));
#150 = CARTESIAN_POINT ('', (-29.6666666666667, 8.93992163377566E-15, 6.));
#151 = CARTESIAN_POINT ('', (-1., 1.83697019872102E-15, 6.));
#152 = CARTESIAN_POINT ('', (-87., -5.99999999999998, 6.00000000000002));
#153 = CARTESIAN_POINT ('', (-58.3333333333335, -5.99999999999998, 6.00000000000002));
#154 = CARTESIAN_POINT ('', (-29.6666666666667, -6., 6.00000000000001));
#155 = CARTESIAN_POINT ('', (-1., -6., 6.));
#156 = CARTESIAN_POINT ('', (-87., -6., 2.35132185436291E-14));
#157 = CARTESIAN_POINT ('', (-58.3333333333335, -6., 1.64102671085745E-14));
#158 = CARTESIAN_POINT ('', (-29.6666666666667, -6., 9.30731567351987E-15));
#159 = CARTESIAN_POINT ('', (-1., -6., 2.20436423846523E-15));
#160 = CARTESIAN_POINT ('', (-87., -6.00000000000002, -5.99999999999998));
#161 = CARTESIAN_POINT ('', (-58.3333333333335, -6.00000000000002, -5.99999999999998));
#162 = CARTESIAN_POINT ('', (-29.6666666666667, -6.00000000000001, -6.));
#163 = CARTESIAN_POINT ('', (-1., -6., -6.));
#164 = CARTESIAN_POINT ('', (-87., -2.38806125833733E-14, -6.));
#165 = CARTESIAN_POINT ('', (-58.3333333333335, -1.67776611483187E-14, -6.));
#166 = CARTESIAN_POINT ('', (-29.6666666666667, -9.67470971326407E-15, -6.));
#167 = CARTESIAN_POINT ('', (-1., -2.57175827820944E-15, -6.));
#168 = CARTESIAN_POINT ('', (-87., 5.99999999999998, -6.00000000000002));
#169 = CARTESIAN_POINT ('', (-58.3333333333335, 5.99999999999998, -6.00000000000002));
#170 = CARTESIAN_POINT ('', (-29.6666666666667, 5.99999999999999, -6.00000000000001));
#171 = CARTESIAN_POINT ('', (-1., 6., -6.));
#172 = CARTESIAN_POINT ('', (-87., 6., -2.27784304641407E-14));
#173 = CARTESIAN_POINT ('', (-58.3333333333335, 6., -1.56754790290861E-14));
#174 = CARTESIAN_POINT ('', (-29.6666666666667, 6., -8.57252759403145E-15));
#175 = CARTESIAN_POINT ('', (-1., 6., -1.46957615897682E-15));
#176 = (
   BOUNDED_SURFACE ()
   B_SPLINE_SURFACE (2, 3, ((#140, #141, #142, #143), (#144, #145, #146, #147), (#148, #149, #150, #151), (#152, #153, #154, #155), (#156, #157, #158, #159), (#160, #161, #162, #163), (#164, #165, #166, #167), (#168, #169, #170, #171), (#172, #173, #174, #175)), .UNSPECIFIED., .T., .F., .U.)
   B_SPLINE_SURFACE_WITH_KNOTS ((3, 2, 2, 2, 3), (4, 4), (0., 0.25, 0.5, 0.75, 1.), (0., 1.), .UNSPECIFIED.)
   GEOMETRIC_REPRESENTATION_ITEM ()
   RATIONAL_B_SPLINE_SURFACE (((1., 1., 1., 1.), (0.707106781186548, 0.707106781186548, 0.707106781186548, 0.707106781186548), (1., 1., 1., 1.), (0.707106781186548, 0.707106781186548, 0.707106781186548, 0.707106781186548), (1., 1., 1., 1.), (0.707106781186548, 0.707106781186548, 0.707106781186548, 0.707106781186548), (1., 1., 1., 1.), (0.707106781186548, 0.707106781186548, 0.707106781186548, 0.707106781186548), (1., 1., 1., 1.)))
   REPRESENTATION_ITEM ('')
   SURFACE ()
);
#177 = ADVANCED_FACE ('', (#139), #176, .T.);
#178 = ORIENTED_EDGE ('', *, *, #134, .F.);
#179 = EDGE_LOOP ('', (#178));
#180 = FACE_OUTER_BOUND ('', #179, .T.);
#181 = CARTESIAN_POINT ('', (-87., -9.33380951166246, -9.33380951166246));
#182 = CARTESIAN_POINT ('', (-87., 9.33380951166246, -9.33380951166247));
#183 = CARTESIAN_POINT ('', (-87., -9.33380951166246, 9.33380951166246));
#184 = CARTESIAN_POINT ('', (-87., 9.33380951166246, 9.33380951166246));
#185 = B_SPLINE_SURFACE_WITH_KNOTS ('', 1, 1, ((#181, #182), (#183, #184)), .UNSPECIFIED., .F., .F., .U., (2, 2), (2, 2), (0., 1.), (0., 1.), .UNSPECIFIED.);
#186 = ADVANCED_FACE ('', (#180), #185, .T.);
#187 = ORIENTED_EDGE ('', *, *, #46, .T.);
#188 = EDGE_LOOP ('', (#187));
#189 = FACE_OUTER_BOUND ('', #188, .T.);
#190 = CARTESIAN_POINT ('', (2.22044604925031E-16, -7.77817459305203, -7.77817459305203));
#191 = CARTESIAN_POINT ('', (2.22044604925031E-16, -7.77817459305203, 7.77817459305203));
#192 = CARTESIAN_POINT ('', (2.22044604925031E-16, 7.77817459305203, -7.77817459305203));
#193 = CARTESIAN_POINT ('', (2.22044604925031E-16, 7.77817459305203, 7.77817459305203));
#194 = B_SPLINE_SURFACE_WITH_KNOTS ('', 1, 1, ((#190, #191), (#192, #193)), .UNSPECIFIED., .F., .F., .U., (2, 2), (2, 2), (0., 1.), (0., 1.), .UNSPECIFIED.);
#195 = ADVANCED_FACE ('', (#189), #194, .T.);
#196 = CLOSED_SHELL ('', (#114, #177, #186, #195));
#197 = MANIFOLD_SOLID_BREP ('', #196);
#198 = (
   LENGTH_UNIT ()
   NAMED_UNIT (*)
   SI_UNIT (.MILLI., .METRE.)
);
#199 = (
   NAMED_UNIT (*)
   SI_UNIT ($, .STERADIAN.)
   SOLID_ANGLE_UNIT ()
);
#200 = (
   NAMED_UNIT (*)
   PLANE_ANGLE_UNIT ()
   SI_UNIT ($, .RADIAN.)
);
#201 = UNCERTAINTY_MEASURE_WITH_UNIT (LENGTH_MEASURE(0.001), #198, 'DISTANCE_ACCURACY_VALUE', '');
#202 = (
   GEOMETRIC_REPRESENTATION_CONTEXT (3)
   GLOBAL_UNCERTAINTY_ASSIGNED_CONTEXT ((#201))
   GLOBAL_UNIT_ASSIGNED_CONTEXT ((#198, #199, #200))
   REPRESENTATION_CONTEXT ('', '3D')
);
#203 = SHAPE_REPRESENTATION ('', (), #202);
#204 = APPLICATION_CONTEXT ('configuration controlled 3D designs of mechanical parts and assemblies');
#205 = APPLICATION_PROTOCOL_DEFINITION ('International Standard', 'config_control_design', 1997, #204);
#206 = MECHANICAL_CONTEXT ('', #204, 'mechanical');
#207 = PRODUCT ('', '', '', (#206));
#208 = PERSON_AND_ORGANIZATION_ROLE ('design_owner');
#209 = PERSON ('#209', '', $, $, $, $);
#210 = ORGANIZATION ($, '', '');
#211 = PERSON_AND_ORGANIZATION (#209, #210);
#212 = CC_DESIGN_PERSON_AND_ORGANIZATION_ASSIGNMENT (#211, #208, (#207));
#213 = PRODUCT_RELATED_PRODUCT_CATEGORY ('detail', $, (#207));
#214 = PRODUCT_DEFINITION_FORMATION_WITH_SPECIFIED_SOURCE ('', '', #207, .NOT_KNOWN.);
#215 = APPROVAL_STATUS ('approved');
#216 = APPROVAL (#215, '');
#217 = CALENDAR_DATE (2023, 30, 6);
#218 = COORDINATED_UNIVERSAL_TIME_OFFSET (0, $, .AHEAD.);
#219 = LOCAL_TIME (8, 47, 31., #218);
#220 = DATE_AND_TIME (#217, #219);
#221 = APPROVAL_DATE_TIME (#220, #216);
#222 = APPROVAL_ROLE ('');
#223 = PERSON ('#223', '', $, $, $, $);
#224 = ORGANIZATION ($, '', '');
#225 = PERSON_AND_ORGANIZATION (#223, #224);
#226 = APPROVAL_PERSON_ORGANIZATION (#225, #216, #222);
#227 = CC_DESIGN_APPROVAL (#216, (#214));
#228 = PERSON_AND_ORGANIZATION_ROLE ('creator');
#229 = PERSON ('#229', '', $, $, $, $);
#230 = ORGANIZATION ($, '', '');
#231 = PERSON_AND_ORGANIZATION (#229, #230);
#232 = CC_DESIGN_PERSON_AND_ORGANIZATION_ASSIGNMENT (#231, #228, (#214));
#233 = PERSON_AND_ORGANIZATION_ROLE ('part_supplier');
#234 = PERSON ('#234', '', $, $, $, $);
#235 = ORGANIZATION ($, '', '');
#236 = PERSON_AND_ORGANIZATION (#234, #235);
#237 = CC_DESIGN_PERSON_AND_ORGANIZATION_ASSIGNMENT (#236, #233, (#214));
#238 = SECURITY_CLASSIFICATION_LEVEL ('unclassified');
#239 = SECURITY_CLASSIFICATION ('', '', #238);
#240 = APPROVAL_STATUS ('approved');
#241 = APPROVAL (#240, '');
#242 = CALENDAR_DATE (2023, 30, 6);
#243 = COORDINATED_UNIVERSAL_TIME_OFFSET (0, $, .AHEAD.);
#244 = LOCAL_TIME (8, 47, 31., #243);
#245 = DATE_AND_TIME (#242, #244);
#246 = APPROVAL_DATE_TIME (#245, #241);
#247 = APPROVAL_ROLE ('');
#248 = PERSON ('#248', '', $, $, $, $);
#249 = ORGANIZATION ($, '', '');
#250 = PERSON_AND_ORGANIZATION (#248, #249);
#251 = APPROVAL_PERSON_ORGANIZATION (#250, #241, #247);
#252 = CC_DESIGN_APPROVAL (#241, (#239));
#253 = DATE_TIME_ROLE ('classification_date');
#254 = CALENDAR_DATE (2023, 30, 6);
#255 = COORDINATED_UNIVERSAL_TIME_OFFSET (0, $, .AHEAD.);
#256 = LOCAL_TIME (8, 47, 31., #255);
#257 = DATE_AND_TIME (#254, #256);
#258 = CC_DESIGN_DATE_AND_TIME_ASSIGNMENT (#257, #253, (#239));
#259 = PERSON_AND_ORGANIZATION_ROLE ('classification_officer');
#260 = PERSON ('#260', '', $, $, $, $);
#261 = ORGANIZATION ($, '', '');
#262 = PERSON_AND_ORGANIZATION (#260, #261);
#263 = CC_DESIGN_PERSON_AND_ORGANIZATION_ASSIGNMENT (#262, #259, (#239));
#264 = CC_DESIGN_SECURITY_CLASSIFICATION (#239, (#214));
#265 = DESIGN_CONTEXT ('', #204, 'design');
#266 = APPROVAL_STATUS ('approved');
#267 = APPROVAL (#266, '');
#268 = CALENDAR_DATE (2023, 30, 6);
#269 = COORDINATED_UNIVERSAL_TIME_OFFSET (0, $, .AHEAD.);
#270 = LOCAL_TIME (8, 47, 31., #269);
#271 = DATE_AND_TIME (#268, #270);
#272 = APPROVAL_DATE_TIME (#271, #267);
#273 = APPROVAL_ROLE ('');
#274 = PERSON ('#274', '', $, $, $, $);
#275 = ORGANIZATION ($, '', '');
#276 = PERSON_AND_ORGANIZATION (#274, #275);
#277 = APPROVAL_PERSON_ORGANIZATION (#276, #267, #273);
#278 = CC_DESIGN_APPROVAL (#267, (*));
#279 = DATE_TIME_ROLE ('creation_date');
#280 = CALENDAR_DATE (2023, 30, 6);
#281 = COORDINATED_UNIVERSAL_TIME_OFFSET (0, $, .AHEAD.);
#282 = LOCAL_TIME (8, 47, 31., #281);
#283 = DATE_AND_TIME (#280, #282);
#284 = CC_DESIGN_DATE_AND_TIME_ASSIGNMENT (#283, #279, (*));
#285 = PERSON_AND_ORGANIZATION_ROLE ('creator');
#286 = PERSON ('#286', '', $, $, $, $);
#287 = ORGANIZATION ($, '', '');
#288 = PERSON_AND_ORGANIZATION (#286, #287);
#289 = CC_DESIGN_PERSON_AND_ORGANIZATION_ASSIGNMENT (#288, #285, (*));
#290 = PRODUCT_DEFINITION ('', '', #214, #265);
#291 = PRODUCT_DEFINITION_SHAPE ('', '', #290);
#292 = SHAPE_DEFINITION_REPRESENTATION (#291, #203);
#293 = SHAPE_REPRESENTATION_RELATIONSHIP ('', '', #203, #294);
#294 = GEOMETRICALLY_BOUNDED_WIREFRAME_SHAPE_REPRESENTATION ('', (#5), #202);
#295 = SHAPE_REPRESENTATION_RELATIONSHIP ('', '', #203, #296);
#296 = ADVANCED_BREP_SHAPE_REPRESENTATION ('', (#197), #202);
ENDSEC;
END-ISO-10303-21;
