ISO-10303-21;
HEADER;
FILE_DESCRIPTION (('STEP'), '1');
FILE_NAME ('C:\\Users\\rob\\Downloads\\137V5 1203-3.0RALCC.STP', '2023-06-30T08:40:41', ('Unknown'), ('M A FORD'), 'OneCNC-XR9 Mill 3D Expert', 'OneCNC-XR9 Mill 3D Expert', '');
FILE_SCHEMA (('CONFIG_CONTROL_DESIGN'));
ENDSEC;

DATA;
#1 = CARTESIAN_POINT ('', (-87., 6., -2.27784304641407E-14));
#2 = VERTEX_POINT ('', #1);
#3 = CARTESIAN_POINT ('', (-3., 6., -1.46957615897682E-15));
#4 = VERTEX_POINT ('', #3);
#5 = CARTESIAN_POINT ('', (-87., 6., -2.27784304641407E-14));
#6 = CARTESIAN_POINT ('', (-59., 6., -1.56754790290861E-14));
#7 = CARTESIAN_POINT ('', (-31., 6., -8.57252759403145E-15));
#8 = CARTESIAN_POINT ('', (-3., 6., -1.46957615897682E-15));
#9 = B_SPLINE_CURVE_WITH_KNOTS ('', 3, (#5, #6, #7, #8), .UNSPECIFIED., .F., .U., (4, 4), (0., 1.), .UNSPECIFIED.);
#10 = EDGE_CURVE ('', #2, #4, #9, .T.);
#11 = ORIENTED_EDGE ('', *, *, #10, .F.);
#12 = CARTESIAN_POINT ('', (-87., 6., -2.27784304641407E-14));
#13 = CARTESIAN_POINT ('', (-87., 6.00000000000002, 5.99999999999998));
#14 = CARTESIAN_POINT ('', (-87., 2.31458245038849E-14, 6.));
#15 = CARTESIAN_POINT ('', (-87., -5.99999999999998, 6.00000000000002));
#16 = CARTESIAN_POINT ('', (-87., -6., 2.35132185436291E-14));
#17 = CARTESIAN_POINT ('', (-87., -6.00000000000002, -5.99999999999998));
#18 = CARTESIAN_POINT ('', (-87., -2.38806125833733E-14, -6.));
#19 = CARTESIAN_POINT ('', (-87., 5.99999999999998, -6.00000000000002));
#20 = CARTESIAN_POINT ('', (-87., 6., -2.27784304641407E-14));
#21 = (
   BOUNDED_CURVE ()
   B_SPLINE_CURVE (2, (#12, #13, #14, #15, #16, #17, #18, #19, #20), .UNSPECIFIED., .T., .U.)
   B_SPLINE_CURVE_WITH_KNOTS ((3, 2, 2, 2, 3), (0., 0.25, 0.5, 0.75, 1.), .UNSPECIFIED.)
   CURVE ()
   GEOMETRIC_REPRESENTATION_ITEM ()
   RATIONAL_B_SPLINE_CURVE ((1., 0.707106781186548, 1., 0.707106781186548, 1., 0.707106781186548, 1., 0.707106781186548, 1.))
   REPRESENTATION_ITEM ('')
);
#22 = EDGE_CURVE ('', #2, #2, #21, .T.);
#23 = ORIENTED_EDGE ('', *, *, #22, .T.);
#24 = ORIENTED_EDGE ('', *, *, #10, .T.);
#25 = CARTESIAN_POINT ('', (-3., 6., -1.46957615897682E-15));
#26 = CARTESIAN_POINT ('', (-3., 6., 6.));
#27 = CARTESIAN_POINT ('', (-3., 1.83697019872102E-15, 6.));
#28 = CARTESIAN_POINT ('', (-3., -6., 6.));
#29 = CARTESIAN_POINT ('', (-3., -6., 2.20436423846523E-15));
#30 = CARTESIAN_POINT ('', (-3., -6., -6.));
#31 = CARTESIAN_POINT ('', (-3., -2.57175827820944E-15, -6.));
#32 = CARTESIAN_POINT ('', (-3., 6., -6.));
#33 = CARTESIAN_POINT ('', (-3., 6., -1.46957615897682E-15));
#34 = (
   BOUNDED_CURVE ()
   B_SPLINE_CURVE (2, (#25, #26, #27, #28, #29, #30, #31, #32, #33), .UNSPECIFIED., .T., .U.)
   B_SPLINE_CURVE_WITH_KNOTS ((3, 2, 2, 2, 3), (0., 0.25, 0.5, 0.75, 1.), .UNSPECIFIED.)
   CURVE ()
   GEOMETRIC_REPRESENTATION_ITEM ()
   RATIONAL_B_SPLINE_CURVE ((1., 0.707106781186548, 1., 0.707106781186548, 1., 0.707106781186548, 1., 0.707106781186548, 1.))
   REPRESENTATION_ITEM ('')
);
#35 = EDGE_CURVE ('', #4, #4, #34, .T.);
#36 = ORIENTED_EDGE ('', *, *, #35, .F.);
#37 = EDGE_LOOP ('', (#11, #23, #24, #36));
#38 = FACE_OUTER_BOUND ('', #37, .T.);
#39 = CARTESIAN_POINT ('', (-87., 6., -2.27784304641407E-14));
#40 = CARTESIAN_POINT ('', (-59., 6., -1.56754790290861E-14));
#41 = CARTESIAN_POINT ('', (-31., 6., -8.57252759403145E-15));
#42 = CARTESIAN_POINT ('', (-3., 6., -1.46957615897682E-15));
#43 = CARTESIAN_POINT ('', (-87., 6.00000000000002, 5.99999999999998));
#44 = CARTESIAN_POINT ('', (-59., 6.00000000000002, 5.99999999999998));
#45 = CARTESIAN_POINT ('', (-31., 6.00000000000001, 5.99999999999999));
#46 = CARTESIAN_POINT ('', (-3., 6., 6.));
#47 = CARTESIAN_POINT ('', (-87., 2.31458245038849E-14, 6.));
#48 = CARTESIAN_POINT ('', (-59., 1.60428730688303E-14, 6.));
#49 = CARTESIAN_POINT ('', (-31., 8.93992163377566E-15, 6.));
#50 = CARTESIAN_POINT ('', (-3., 1.83697019872102E-15, 6.));
#51 = CARTESIAN_POINT ('', (-87., -5.99999999999998, 6.00000000000002));
#52 = CARTESIAN_POINT ('', (-59., -5.99999999999998, 6.00000000000002));
#53 = CARTESIAN_POINT ('', (-31., -5.99999999999999, 6.00000000000001));
#54 = CARTESIAN_POINT ('', (-3., -6., 6.));
#55 = CARTESIAN_POINT ('', (-87., -6., 2.35132185436291E-14));
#56 = CARTESIAN_POINT ('', (-59., -6., 1.64102671085745E-14));
#57 = CARTESIAN_POINT ('', (-31., -6., 9.30731567351986E-15));
#58 = CARTESIAN_POINT ('', (-3., -6., 2.20436423846523E-15));
#59 = CARTESIAN_POINT ('', (-87., -6.00000000000002, -5.99999999999998));
#60 = CARTESIAN_POINT ('', (-59., -6.00000000000002, -5.99999999999998));
#61 = CARTESIAN_POINT ('', (-31., -6.00000000000001, -5.99999999999999));
#62 = CARTESIAN_POINT ('', (-3., -6., -6.));
#63 = CARTESIAN_POINT ('', (-87., -2.38806125833733E-14, -6.));
#64 = CARTESIAN_POINT ('', (-59., -1.67776611483188E-14, -6.));
#65 = CARTESIAN_POINT ('', (-31., -9.67470971326407E-15, -6.));
#66 = CARTESIAN_POINT ('', (-3., -2.57175827820944E-15, -6.));
#67 = CARTESIAN_POINT ('', (-87., 5.99999999999998, -6.00000000000002));
#68 = CARTESIAN_POINT ('', (-59., 5.99999999999998, -6.00000000000002));
#69 = CARTESIAN_POINT ('', (-31., 5.99999999999999, -6.00000000000001));
#70 = CARTESIAN_POINT ('', (-3., 6., -6.));
#71 = CARTESIAN_POINT ('', (-87., 6., -2.27784304641407E-14));
#72 = CARTESIAN_POINT ('', (-59., 6., -1.56754790290861E-14));
#73 = CARTESIAN_POINT ('', (-31., 6., -8.57252759403145E-15));
#74 = CARTESIAN_POINT ('', (-3., 6., -1.46957615897682E-15));
#75 = (
   BOUNDED_SURFACE ()
   B_SPLINE_SURFACE (2, 3, ((#39, #40, #41, #42), (#43, #44, #45, #46), (#47, #48, #49, #50), (#51, #52, #53, #54), (#55, #56, #57, #58), (#59, #60, #61, #62), (#63, #64, #65, #66), (#67, #68, #69, #70), (#71, #72, #73, #74)), .UNSPECIFIED., .T., .F., .U.)
   B_SPLINE_SURFACE_WITH_KNOTS ((3, 2, 2, 2, 3), (4, 4), (0., 0.25, 0.5, 0.75, 1.), (0., 1.), .UNSPECIFIED.)
   GEOMETRIC_REPRESENTATION_ITEM ()
   RATIONAL_B_SPLINE_SURFACE (((1., 1., 1., 1.), (0.707106781186548, 0.707106781186548, 0.707106781186548, 0.707106781186548), (1., 1., 1., 1.), (0.707106781186548, 0.707106781186548, 0.707106781186548, 0.707106781186548), (1., 1., 1., 1.), (0.707106781186548, 0.707106781186548, 0.707106781186548, 0.707106781186548), (1., 1., 1., 1.), (0.707106781186548, 0.707106781186548, 0.707106781186548, 0.707106781186548), (1., 1., 1., 1.)))
   REPRESENTATION_ITEM ('')
   SURFACE ()
);
#76 = ADVANCED_FACE ('', (#38), #75, .T.);
#77 = ORIENTED_EDGE ('', *, *, #22, .F.);
#78 = EDGE_LOOP ('', (#77));
#79 = FACE_OUTER_BOUND ('', #78, .T.);
#80 = CARTESIAN_POINT ('', (-87., -9.33380951166246, -9.33380951166246));
#81 = CARTESIAN_POINT ('', (-87., 9.33380951166246, -9.33380951166247));
#82 = CARTESIAN_POINT ('', (-87., -9.33380951166246, 9.33380951166246));
#83 = CARTESIAN_POINT ('', (-87., 9.33380951166246, 9.33380951166246));
#84 = B_SPLINE_SURFACE_WITH_KNOTS ('', 1, 1, ((#80, #81), (#82, #83)), .UNSPECIFIED., .F., .F., .U., (2, 2), (2, 2), (0., 1.), (0., 1.), .UNSPECIFIED.);
#85 = ADVANCED_FACE ('', (#79), #84, .T.);
#86 = CARTESIAN_POINT ('', (-4.44089209850063E-16, 3., -7.3478807948841E-16));
#87 = VERTEX_POINT ('', #86);
#88 = CARTESIAN_POINT ('', (-3., 6., -1.46957615897682E-15));
#89 = CARTESIAN_POINT ('', (-2.67224453883055, 5.99992704551186, -1.46955829028074E-15));
#90 = CARTESIAN_POINT ('', (-1.93885474351063, 5.87821724666796, -1.43974798716493E-15));
#91 = CARTESIAN_POINT ('', (-1.02109585663226, 5.33961142476379, -1.30782760800552E-15));
#92 = CARTESIAN_POINT ('', (-0.436869442554522, 4.62102553599359, -1.13182482628655E-15));
#93 = CARTESIAN_POINT ('', (-0.0876764018261853, 3.855629756607, -9.44356928025207E-16));
#94 = CARTESIAN_POINT ('', (-7.29544881339628E-5, 3.32775546116946, -8.15065014773258E-16));
#95 = CARTESIAN_POINT ('', (-4.44089209850063E-16, 3., -7.3478807948841E-16));
#96 = B_SPLINE_CURVE_WITH_KNOTS ('', 3, (#88, #89, #90, #91, #92, #93, #94, #95), .UNSPECIFIED., .F., .U., (4, 1, 1, 1, 1, 4), (0., 0.208668301089627, 0.467061355787062, 0.66382176887987, 0.791331698910373, 1.), .UNSPECIFIED.);
#97 = EDGE_CURVE ('', #4, #87, #96, .T.);
#98 = ORIENTED_EDGE ('', *, *, #97, .F.);
#99 = ORIENTED_EDGE ('', *, *, #35, .T.);
#100 = ORIENTED_EDGE ('', *, *, #97, .T.);
#101 = CARTESIAN_POINT ('', (-4.44089209850063E-16, 3., -7.3478807948841E-16));
#102 = CARTESIAN_POINT ('', (-4.44089209850063E-16, 3., 3.));
#103 = CARTESIAN_POINT ('', (-4.44089209850063E-16, 9.18485099360513E-16, 3.));
#104 = CARTESIAN_POINT ('', (-4.44089209850063E-16, -3., 3.));
#105 = CARTESIAN_POINT ('', (-4.44089209850063E-16, -3., 1.10218211923262E-15));
#106 = CARTESIAN_POINT ('', (-4.44089209850063E-16, -3., -3.));
#107 = CARTESIAN_POINT ('', (-4.44089209850063E-16, -1.28587913910472E-15, -3.));
#108 = CARTESIAN_POINT ('', (-4.44089209850063E-16, 3., -3.));
#109 = CARTESIAN_POINT ('', (-4.44089209850063E-16, 3., -7.3478807948841E-16));
#110 = (
   BOUNDED_CURVE ()
   B_SPLINE_CURVE (2, (#101, #102, #103, #104, #105, #106, #107, #108, #109), .UNSPECIFIED., .T., .U.)
   B_SPLINE_CURVE_WITH_KNOTS ((3, 2, 2, 2, 3), (0., 0.25, 0.5, 0.75, 1.), .UNSPECIFIED.)
   CURVE ()
   GEOMETRIC_REPRESENTATION_ITEM ()
   RATIONAL_B_SPLINE_CURVE ((1., 0.707106781186548, 1., 0.707106781186548, 1., 0.707106781186548, 1., 0.707106781186548, 1.))
   REPRESENTATION_ITEM ('')
);
#111 = EDGE_CURVE ('', #87, #87, #110, .T.);
#112 = ORIENTED_EDGE ('', *, *, #111, .F.);
#113 = EDGE_LOOP ('', (#98, #99, #100, #112));
#114 = FACE_OUTER_BOUND ('', #113, .T.);
#115 = CARTESIAN_POINT ('', (-3., 6., -1.46957615897682E-15));
#116 = CARTESIAN_POINT ('', (-2.67224453883055, 5.99992704551186, -1.46955829028074E-15));
#117 = CARTESIAN_POINT ('', (-1.93885474351063, 5.87821724666796, -1.43974798716493E-15));
#118 = CARTESIAN_POINT ('', (-1.02109585663226, 5.33961142476379, -1.30782760800552E-15));
#119 = CARTESIAN_POINT ('', (-0.436869442554522, 4.62102553599359, -1.13182482628655E-15));
#120 = CARTESIAN_POINT ('', (-0.0876764018261853, 3.855629756607, -9.44356928025207E-16));
#121 = CARTESIAN_POINT ('', (-7.29544881339628E-5, 3.32775546116946, -8.15065014773258E-16));
#122 = CARTESIAN_POINT ('', (-4.44089209850063E-16, 3., -7.3478807948841E-16));
#123 = CARTESIAN_POINT ('', (-3., 6., 6.));
#124 = CARTESIAN_POINT ('', (-2.67224453883055, 5.99992704551187, 5.99992704551186));
#125 = CARTESIAN_POINT ('', (-1.93885474351063, 5.87821724666796, 5.87821724666796));
#126 = CARTESIAN_POINT ('', (-1.02109585663226, 5.33961142476379, 5.33961142476379));
#127 = CARTESIAN_POINT ('', (-0.436869442554522, 4.6210255359936, 4.62102553599359));
#128 = CARTESIAN_POINT ('', (-0.0876764018261853, 3.855629756607, 3.855629756607));
#129 = CARTESIAN_POINT ('', (-7.29544881339628E-5, 3.32775546116946, 3.32775546116946));
#130 = CARTESIAN_POINT ('', (-4.44089209850063E-16, 3., 3.));
#131 = CARTESIAN_POINT ('', (-3., 1.83697019872103E-15, 6.));
#132 = CARTESIAN_POINT ('', (-2.67224453883055, 1.83694786285093E-15, 5.99992704551186));
#133 = CARTESIAN_POINT ('', (-1.93885474351063, 1.79968498395616E-15, 5.87821724666796));
#134 = CARTESIAN_POINT ('', (-1.02109585663226, 1.6347845100069E-15, 5.33961142476379));
#135 = CARTESIAN_POINT ('', (-0.436869442554522, 1.41478103285818E-15, 4.62102553599359));
#136 = CARTESIAN_POINT ('', (-0.0876764018261853, 1.18044616003151E-15, 3.855629756607));
#137 = CARTESIAN_POINT ('', (-7.29544881339628E-5, 1.01883126846657E-15, 3.32775546116946));
#138 = CARTESIAN_POINT ('', (-4.44089209850063E-16, 9.18485099360513E-16, 3.));
#139 = CARTESIAN_POINT ('', (-3., -6., 6.));
#140 = CARTESIAN_POINT ('', (-2.67224453883055, -5.99992704551186, 5.99992704551187));
#141 = CARTESIAN_POINT ('', (-1.93885474351063, -5.87821724666796, 5.87821724666796));
#142 = CARTESIAN_POINT ('', (-1.02109585663226, -5.33961142476379, 5.33961142476379));
#143 = CARTESIAN_POINT ('', (-0.436869442554522, -4.62102553599359, 4.6210255359936));
#144 = CARTESIAN_POINT ('', (-0.0876764018261853, -3.855629756607, 3.855629756607));
#145 = CARTESIAN_POINT ('', (-7.29544881339628E-5, -3.32775546116946, 3.32775546116946));
#146 = CARTESIAN_POINT ('', (-4.44089209850063E-16, -3., 3.));
#147 = CARTESIAN_POINT ('', (-3., -6., 2.20436423846523E-15));
#148 = CARTESIAN_POINT ('', (-2.67224453883055, -5.99992704551186, 2.20433743542112E-15));
#149 = CARTESIAN_POINT ('', (-1.93885474351063, -5.87821724666796, 2.1596219807474E-15));
#150 = CARTESIAN_POINT ('', (-1.02109585663226, -5.33961142476379, 1.96174141200828E-15));
#151 = CARTESIAN_POINT ('', (-0.436869442554522, -4.62102553599359, 1.69773723942982E-15));
#152 = CARTESIAN_POINT ('', (-0.0876764018261853, -3.855629756607, 1.41653539203781E-15));
#153 = CARTESIAN_POINT ('', (-7.29544881339628E-5, -3.32775546116946, 1.22259752215989E-15));
#154 = CARTESIAN_POINT ('', (-4.44089209850063E-16, -3., 1.10218211923262E-15));
#155 = CARTESIAN_POINT ('', (-3., -6., -6.));
#156 = CARTESIAN_POINT ('', (-2.67224453883055, -5.99992704551187, -5.99992704551186));
#157 = CARTESIAN_POINT ('', (-1.93885474351063, -5.87821724666796, -5.87821724666796));
#158 = CARTESIAN_POINT ('', (-1.02109585663226, -5.33961142476379, -5.33961142476379));
#159 = CARTESIAN_POINT ('', (-0.436869442554522, -4.6210255359936, -4.62102553599359));
#160 = CARTESIAN_POINT ('', (-0.0876764018261853, -3.855629756607, -3.855629756607));
#161 = CARTESIAN_POINT ('', (-7.29544881339628E-5, -3.32775546116946, -3.32775546116945));
#162 = CARTESIAN_POINT ('', (-4.44089209850063E-16, -3., -3.));
#163 = CARTESIAN_POINT ('', (-3., -2.57175827820944E-15, -6.));
#164 = CARTESIAN_POINT ('', (-2.67224453883055, -2.57172700799131E-15, -5.99992704551186));
#165 = CARTESIAN_POINT ('', (-1.93885474351063, -2.51955897753863E-15, -5.87821724666796));
#166 = CARTESIAN_POINT ('', (-1.02109585663226, -2.28869831400966E-15, -5.33961142476379));
#167 = CARTESIAN_POINT ('', (-0.436869442554522, -1.98069344600146E-15, -4.62102553599359));
#168 = CARTESIAN_POINT ('', (-0.0876764018261853, -1.65262462404412E-15, -3.855629756607));
#169 = CARTESIAN_POINT ('', (-7.29544881339628E-5, -1.4263637758532E-15, -3.32775546116946));
#170 = CARTESIAN_POINT ('', (-4.44089209850063E-16, -1.28587913910472E-15, -3.));
#171 = CARTESIAN_POINT ('', (-3., 6., -6.));
#172 = CARTESIAN_POINT ('', (-2.67224453883055, 5.99992704551186, -5.99992704551187));
#173 = CARTESIAN_POINT ('', (-1.93885474351063, 5.87821724666796, -5.87821724666796));
#174 = CARTESIAN_POINT ('', (-1.02109585663226, 5.33961142476379, -5.33961142476379));
#175 = CARTESIAN_POINT ('', (-0.436869442554522, 4.62102553599359, -4.6210255359936));
#176 = CARTESIAN_POINT ('', (-0.0876764018261853, 3.855629756607, -3.855629756607));
#177 = CARTESIAN_POINT ('', (-7.29544881339628E-5, 3.32775546116945, -3.32775546116946));
#178 = CARTESIAN_POINT ('', (-4.44089209850063E-16, 3., -3.));
#179 = CARTESIAN_POINT ('', (-3., 6., -1.46957615897682E-15));
#180 = CARTESIAN_POINT ('', (-2.67224453883055, 5.99992704551186, -1.46955829028074E-15));
#181 = CARTESIAN_POINT ('', (-1.93885474351063, 5.87821724666796, -1.43974798716493E-15));
#182 = CARTESIAN_POINT ('', (-1.02109585663226, 5.33961142476379, -1.30782760800552E-15));
#183 = CARTESIAN_POINT ('', (-0.436869442554522, 4.62102553599359, -1.13182482628655E-15));
#184 = CARTESIAN_POINT ('', (-0.0876764018261853, 3.855629756607, -9.44356928025207E-16));
#185 = CARTESIAN_POINT ('', (-7.29544881339628E-5, 3.32775546116946, -8.15065014773258E-16));
#186 = CARTESIAN_POINT ('', (-4.44089209850063E-16, 3., -7.3478807948841E-16));
#187 = (
   BOUNDED_SURFACE ()
   B_SPLINE_SURFACE (2, 3, ((#115, #116, #117, #118, #119, #120, #121, #122), (#123, #124, #125, #126, #127, #128, #129, #130), (#131, #132, #133, #134, #135, #136, #137, #138), (#139, #140, #141, #142, #143, #144, #145, #146), (#147, #148, #149, #150, #151, #152, #153, #154), (#155, #156, #157, #158, #159, #160, #161, #162), (#163, #164, #165, #166, #167, #168, #169, #170), (#171, #172, #173, #174, #175, #176, #177, #178), (#179, #180, #181, #182, #183, #184, #185, #186)), .UNSPECIFIED., .T., .F., .U.)
   B_SPLINE_SURFACE_WITH_KNOTS ((3, 2, 2, 2, 3), (4, 1, 1, 1, 1, 4), (0., 0.25, 0.5, 0.75, 1.), (0., 0.208668301089627, 0.467061355787062, 0.66382176887987, 0.791331698910373, 1.), .UNSPECIFIED.)
   GEOMETRIC_REPRESENTATION_ITEM ()
   RATIONAL_B_SPLINE_SURFACE (((1., 1., 1., 1., 1., 1., 1., 1.), (0.707106781186548, 0.707106781186548, 0.707106781186548, 0.707106781186548, 0.707106781186548, 0.707106781186548, 0.707106781186548, 0.707106781186548), (1., 1., 1., 1., 1., 1., 1., 1.), (0.707106781186548, 0.707106781186548, 0.707106781186548, 0.707106781186548, 0.707106781186548, 0.707106781186548, 0.707106781186548, 0.707106781186548), (1., 1., 1., 1., 1., 1., 1., 1.), (0.707106781186548, 0.707106781186548, 0.707106781186548, 0.707106781186548, 0.707106781186548, 0.707106781186548, 0.707106781186548, 0.707106781186548), (1., 1., 1., 1., 1., 1., 1., 1.), (0.707106781186548, 0.707106781186548, 0.707106781186548, 0.707106781186548, 0.707106781186548, 0.707106781186548, 0.707106781186548, 0.707106781186548), (1., 1., 1., 1., 1., 1., 1., 1.)))
   REPRESENTATION_ITEM ('')
   SURFACE ()
);
#188 = ADVANCED_FACE ('', (#114), #187, .T.);
#189 = ORIENTED_EDGE ('', *, *, #111, .T.);
#190 = EDGE_LOOP ('', (#189));
#191 = FACE_OUTER_BOUND ('', #190, .T.);
#192 = CARTESIAN_POINT ('', (-4.44089209850062E-16, -4.66690475583122, -4.66690475583122));
#193 = CARTESIAN_POINT ('', (-4.44089209850062E-16, -4.66690475583122, 4.66690475583122));
#194 = CARTESIAN_POINT ('', (-4.44089209850063E-16, 4.66690475583122, -4.66690475583122));
#195 = CARTESIAN_POINT ('', (-4.44089209850063E-16, 4.66690475583122, 4.66690475583122));
#196 = B_SPLINE_SURFACE_WITH_KNOTS ('', 1, 1, ((#192, #193), (#194, #195)), .UNSPECIFIED., .F., .F., .U., (2, 2), (2, 2), (0., 1.), (0., 1.), .UNSPECIFIED.);
#197 = ADVANCED_FACE ('', (#191), #196, .T.);
#198 = CLOSED_SHELL ('', (#76, #85, #188, #197));
#199 = MANIFOLD_SOLID_BREP ('', #198);
#200 = (
   LENGTH_UNIT ()
   NAMED_UNIT (*)
   SI_UNIT (.MILLI., .METRE.)
);
#201 = (
   NAMED_UNIT (*)
   SI_UNIT ($, .STERADIAN.)
   SOLID_ANGLE_UNIT ()
);
#202 = (
   NAMED_UNIT (*)
   PLANE_ANGLE_UNIT ()
   SI_UNIT ($, .RADIAN.)
);
#203 = UNCERTAINTY_MEASURE_WITH_UNIT (LENGTH_MEASURE(0.001), #200, 'DISTANCE_ACCURACY_VALUE', '');
#204 = (
   GEOMETRIC_REPRESENTATION_CONTEXT (3)
   GLOBAL_UNCERTAINTY_ASSIGNED_CONTEXT ((#203))
   GLOBAL_UNIT_ASSIGNED_CONTEXT ((#200, #201, #202))
   REPRESENTATION_CONTEXT ('', '3D')
);
#205 = SHAPE_REPRESENTATION ('', (), #204);
#206 = APPLICATION_CONTEXT ('configuration controlled 3D designs of mechanical parts and assemblies');
#207 = APPLICATION_PROTOCOL_DEFINITION ('International Standard', 'config_control_design', 1997, #206);
#208 = MECHANICAL_CONTEXT ('', #206, 'mechanical');
#209 = PRODUCT ('', '', '', (#208));
#210 = PERSON_AND_ORGANIZATION_ROLE ('design_owner');
#211 = PERSON ('#211', '', $, $, $, $);
#212 = ORGANIZATION ($, '', '');
#213 = PERSON_AND_ORGANIZATION (#211, #212);
#214 = CC_DESIGN_PERSON_AND_ORGANIZATION_ASSIGNMENT (#213, #210, (#209));
#215 = PRODUCT_RELATED_PRODUCT_CATEGORY ('detail', $, (#209));
#216 = PRODUCT_DEFINITION_FORMATION_WITH_SPECIFIED_SOURCE ('', '', #209, .NOT_KNOWN.);
#217 = APPROVAL_STATUS ('approved');
#218 = APPROVAL (#217, '');
#219 = CALENDAR_DATE (2023, 30, 6);
#220 = COORDINATED_UNIVERSAL_TIME_OFFSET (0, $, .AHEAD.);
#221 = LOCAL_TIME (8, 40, 41., #220);
#222 = DATE_AND_TIME (#219, #221);
#223 = APPROVAL_DATE_TIME (#222, #218);
#224 = APPROVAL_ROLE ('');
#225 = PERSON ('#225', '', $, $, $, $);
#226 = ORGANIZATION ($, '', '');
#227 = PERSON_AND_ORGANIZATION (#225, #226);
#228 = APPROVAL_PERSON_ORGANIZATION (#227, #218, #224);
#229 = CC_DESIGN_APPROVAL (#218, (#216));
#230 = PERSON_AND_ORGANIZATION_ROLE ('creator');
#231 = PERSON ('#231', '', $, $, $, $);
#232 = ORGANIZATION ($, '', '');
#233 = PERSON_AND_ORGANIZATION (#231, #232);
#234 = CC_DESIGN_PERSON_AND_ORGANIZATION_ASSIGNMENT (#233, #230, (#216));
#235 = PERSON_AND_ORGANIZATION_ROLE ('part_supplier');
#236 = PERSON ('#236', '', $, $, $, $);
#237 = ORGANIZATION ($, '', '');
#238 = PERSON_AND_ORGANIZATION (#236, #237);
#239 = CC_DESIGN_PERSON_AND_ORGANIZATION_ASSIGNMENT (#238, #235, (#216));
#240 = SECURITY_CLASSIFICATION_LEVEL ('unclassified');
#241 = SECURITY_CLASSIFICATION ('', '', #240);
#242 = APPROVAL_STATUS ('approved');
#243 = APPROVAL (#242, '');
#244 = CALENDAR_DATE (2023, 30, 6);
#245 = COORDINATED_UNIVERSAL_TIME_OFFSET (0, $, .AHEAD.);
#246 = LOCAL_TIME (8, 40, 41., #245);
#247 = DATE_AND_TIME (#244, #246);
#248 = APPROVAL_DATE_TIME (#247, #243);
#249 = APPROVAL_ROLE ('');
#250 = PERSON ('#250', '', $, $, $, $);
#251 = ORGANIZATION ($, '', '');
#252 = PERSON_AND_ORGANIZATION (#250, #251);
#253 = APPROVAL_PERSON_ORGANIZATION (#252, #243, #249);
#254 = CC_DESIGN_APPROVAL (#243, (#241));
#255 = DATE_TIME_ROLE ('classification_date');
#256 = CALENDAR_DATE (2023, 30, 6);
#257 = COORDINATED_UNIVERSAL_TIME_OFFSET (0, $, .AHEAD.);
#258 = LOCAL_TIME (8, 40, 41., #257);
#259 = DATE_AND_TIME (#256, #258);
#260 = CC_DESIGN_DATE_AND_TIME_ASSIGNMENT (#259, #255, (#241));
#261 = PERSON_AND_ORGANIZATION_ROLE ('classification_officer');
#262 = PERSON ('#262', '', $, $, $, $);
#263 = ORGANIZATION ($, '', '');
#264 = PERSON_AND_ORGANIZATION (#262, #263);
#265 = CC_DESIGN_PERSON_AND_ORGANIZATION_ASSIGNMENT (#264, #261, (#241));
#266 = CC_DESIGN_SECURITY_CLASSIFICATION (#241, (#216));
#267 = DESIGN_CONTEXT ('', #206, 'design');
#268 = APPROVAL_STATUS ('approved');
#269 = APPROVAL (#268, '');
#270 = CALENDAR_DATE (2023, 30, 6);
#271 = COORDINATED_UNIVERSAL_TIME_OFFSET (0, $, .AHEAD.);
#272 = LOCAL_TIME (8, 40, 41., #271);
#273 = DATE_AND_TIME (#270, #272);
#274 = APPROVAL_DATE_TIME (#273, #269);
#275 = APPROVAL_ROLE ('');
#276 = PERSON ('#276', '', $, $, $, $);
#277 = ORGANIZATION ($, '', '');
#278 = PERSON_AND_ORGANIZATION (#276, #277);
#279 = APPROVAL_PERSON_ORGANIZATION (#278, #269, #275);
#280 = CC_DESIGN_APPROVAL (#269, (*));
#281 = DATE_TIME_ROLE ('creation_date');
#282 = CALENDAR_DATE (2023, 30, 6);
#283 = COORDINATED_UNIVERSAL_TIME_OFFSET (0, $, .AHEAD.);
#284 = LOCAL_TIME (8, 40, 41., #283);
#285 = DATE_AND_TIME (#282, #284);
#286 = CC_DESIGN_DATE_AND_TIME_ASSIGNMENT (#285, #281, (*));
#287 = PERSON_AND_ORGANIZATION_ROLE ('creator');
#288 = PERSON ('#288', '', $, $, $, $);
#289 = ORGANIZATION ($, '', '');
#290 = PERSON_AND_ORGANIZATION (#288, #289);
#291 = CC_DESIGN_PERSON_AND_ORGANIZATION_ASSIGNMENT (#290, #287, (*));
#292 = PRODUCT_DEFINITION ('', '', #216, #267);
#293 = PRODUCT_DEFINITION_SHAPE ('', '', #292);
#294 = SHAPE_DEFINITION_REPRESENTATION (#293, #205);
#295 = SHAPE_REPRESENTATION_RELATIONSHIP ('', '', #205, #296);
#296 = ADVANCED_BREP_SHAPE_REPRESENTATION ('', (#199), #204);
ENDSEC;
END-ISO-10303-21;
