ISO-10303-21;
HEADER;
FILE_DESCRIPTION (('STEP'), '1');
FILE_NAME ('C:\\Users\\rob\\Downloads\\137V5 1203-ALCC.STP', '2023-06-30T08:45:12', ('Unknown'), ('M A FORD'), 'OneCNC-XR9 Mill 3D Expert', 'OneCNC-XR9 Mill 3D Expert', '');
FILE_SCHEMA (('CONFIG_CONTROL_DESIGN'));
ENDSEC;

DATA;
#1 = CARTESIAN_POINT ('', (-87., 6., -1.46957615897682E-15));
#2 = VERTEX_POINT ('', #1);
#3 = CARTESIAN_POINT ('', (-87., 6., -1.46957615897682E-15));
#4 = CARTESIAN_POINT ('', (-87., 6., 6.));
#5 = CARTESIAN_POINT ('', (-87., 1.83697019872103E-15, 6.));
#6 = CARTESIAN_POINT ('', (-87., -6., 6.));
#7 = CARTESIAN_POINT ('', (-87., -6., 2.20436423846523E-15));
#8 = CARTESIAN_POINT ('', (-87., -6., -6.));
#9 = CARTESIAN_POINT ('', (-87., -2.57175827820944E-15, -6.));
#10 = CARTESIAN_POINT ('', (-87., 6., -6.));
#11 = CARTESIAN_POINT ('', (-87., 6., -1.46957615897682E-15));
#12 = (
   BOUNDED_CURVE ()
   B_SPLINE_CURVE (2, (#3, #4, #5, #6, #7, #8, #9, #10, #11), .UNSPECIFIED., .T., .U.)
   B_SPLINE_CURVE_WITH_KNOTS ((3, 2, 2, 2, 3), (0., 0.25, 0.5, 0.75, 1.), .UNSPECIFIED.)
   CURVE ()
   GEOMETRIC_REPRESENTATION_ITEM ()
   RATIONAL_B_SPLINE_CURVE ((1., 0.707106781186548, 1., 0.707106781186548, 1., 0.707106781186548, 1., 0.707106781186548, 1.))
   REPRESENTATION_ITEM ('')
);
#13 = EDGE_CURVE ('', #2, #2, #12, .T.);
#14 = ORIENTED_EDGE ('', *, *, #13, .F.);
#15 = EDGE_LOOP ('', (#14));
#16 = FACE_OUTER_BOUND ('', #15, .T.);
#17 = CARTESIAN_POINT ('', (-86.9999999999999, -9.33380951166243, -9.33380951166243));
#18 = CARTESIAN_POINT ('', (-87., 9.33380951166243, -9.33380951166243));
#19 = CARTESIAN_POINT ('', (-87., -9.33380951166243, 9.33380951166243));
#20 = CARTESIAN_POINT ('', (-87.0000000000001, 9.33380951166243, 9.33380951166243));
#21 = B_SPLINE_SURFACE_WITH_KNOTS ('', 1, 1, ((#17, #18), (#19, #20)), .UNSPECIFIED., .F., .F., .U., (2, 2), (2, 2), (0., 1.), (0., 1.), .UNSPECIFIED.);
#22 = ADVANCED_FACE ('', (#16), #21, .T.);
#23 = CARTESIAN_POINT ('', (0., 6., -1.46957615897682E-15));
#24 = VERTEX_POINT ('', #23);
#25 = CARTESIAN_POINT ('', (-87., 6., -1.46957615897682E-15));
#26 = CARTESIAN_POINT ('', (-58., 6.00000000000001, -1.46957615897682E-15));
#27 = CARTESIAN_POINT ('', (-29., 6., -1.46957615897682E-15));
#28 = CARTESIAN_POINT ('', (0., 6., -1.46957615897682E-15));
#29 = B_SPLINE_CURVE_WITH_KNOTS ('', 3, (#25, #26, #27, #28), .UNSPECIFIED., .F., .U., (4, 4), (0., 1.), .UNSPECIFIED.);
#30 = EDGE_CURVE ('', #2, #24, #29, .T.);
#31 = ORIENTED_EDGE ('', *, *, #30, .F.);
#32 = ORIENTED_EDGE ('', *, *, #13, .T.);
#33 = ORIENTED_EDGE ('', *, *, #30, .T.);
#34 = CARTESIAN_POINT ('', (0., 6., -1.46957615897682E-15));
#35 = CARTESIAN_POINT ('', (0., 6., 6.));
#36 = CARTESIAN_POINT ('', (0., 1.83697019872103E-15, 6.));
#37 = CARTESIAN_POINT ('', (0., -6., 6.));
#38 = CARTESIAN_POINT ('', (0., -6., 2.20436423846523E-15));
#39 = CARTESIAN_POINT ('', (0., -6., -6.));
#40 = CARTESIAN_POINT ('', (0., -2.57175827820944E-15, -6.));
#41 = CARTESIAN_POINT ('', (0., 6., -6.));
#42 = CARTESIAN_POINT ('', (0., 6., -1.46957615897682E-15));
#43 = (
   BOUNDED_CURVE ()
   B_SPLINE_CURVE (2, (#34, #35, #36, #37, #38, #39, #40, #41, #42), .UNSPECIFIED., .T., .U.)
   B_SPLINE_CURVE_WITH_KNOTS ((3, 2, 2, 2, 3), (0., 0.25, 0.5, 0.75, 1.), .UNSPECIFIED.)
   CURVE ()
   GEOMETRIC_REPRESENTATION_ITEM ()
   RATIONAL_B_SPLINE_CURVE ((1., 0.707106781186548, 1., 0.707106781186548, 1., 0.707106781186548, 1., 0.707106781186548, 1.))
   REPRESENTATION_ITEM ('')
);
#44 = EDGE_CURVE ('', #24, #24, #43, .T.);
#45 = ORIENTED_EDGE ('', *, *, #44, .F.);
#46 = EDGE_LOOP ('', (#31, #32, #33, #45));
#47 = FACE_OUTER_BOUND ('', #46, .T.);
#48 = CARTESIAN_POINT ('', (-87., 6., -1.46957615897682E-15));
#49 = CARTESIAN_POINT ('', (-58., 6.00000000000001, -1.46957615897682E-15));
#50 = CARTESIAN_POINT ('', (-29., 6., -1.46957615897682E-15));
#51 = CARTESIAN_POINT ('', (0., 6., -1.46957615897682E-15));
#52 = CARTESIAN_POINT ('', (-87., 6., 6.));
#53 = CARTESIAN_POINT ('', (-58., 6.00000000000001, 6.));
#54 = CARTESIAN_POINT ('', (-29., 6., 6.));
#55 = CARTESIAN_POINT ('', (0., 6., 6.));
#56 = CARTESIAN_POINT ('', (-87., 1.83697019872103E-15, 6.));
#57 = CARTESIAN_POINT ('', (-58., 1.83697019872102E-15, 6.00000000000001));
#58 = CARTESIAN_POINT ('', (-29., 1.83697019872102E-15, 6.));
#59 = CARTESIAN_POINT ('', (0., 1.83697019872103E-15, 6.));
#60 = CARTESIAN_POINT ('', (-87., -6., 6.));
#61 = CARTESIAN_POINT ('', (-58., -6., 6.00000000000001));
#62 = CARTESIAN_POINT ('', (-29., -6., 6.));
#63 = CARTESIAN_POINT ('', (0., -6., 6.));
#64 = CARTESIAN_POINT ('', (-87., -6., 2.20436423846523E-15));
#65 = CARTESIAN_POINT ('', (-58., -6.00000000000001, 2.20436423846523E-15));
#66 = CARTESIAN_POINT ('', (-29., -6., 2.20436423846523E-15));
#67 = CARTESIAN_POINT ('', (0., -6., 2.20436423846523E-15));
#68 = CARTESIAN_POINT ('', (-87., -6., -6.));
#69 = CARTESIAN_POINT ('', (-58., -6.00000000000001, -6.));
#70 = CARTESIAN_POINT ('', (-29., -6., -6.));
#71 = CARTESIAN_POINT ('', (0., -6., -6.));
#72 = CARTESIAN_POINT ('', (-87., -2.57175827820944E-15, -6.));
#73 = CARTESIAN_POINT ('', (-58., -2.57175827820944E-15, -6.00000000000001));
#74 = CARTESIAN_POINT ('', (-29., -2.57175827820944E-15, -6.));
#75 = CARTESIAN_POINT ('', (0., -2.57175827820944E-15, -6.));
#76 = CARTESIAN_POINT ('', (-87., 6., -6.));
#77 = CARTESIAN_POINT ('', (-58., 6., -6.00000000000001));
#78 = CARTESIAN_POINT ('', (-29., 6., -6.));
#79 = CARTESIAN_POINT ('', (0., 6., -6.));
#80 = CARTESIAN_POINT ('', (-87., 6., -1.46957615897682E-15));
#81 = CARTESIAN_POINT ('', (-58., 6.00000000000001, -1.46957615897682E-15));
#82 = CARTESIAN_POINT ('', (-29., 6., -1.46957615897682E-15));
#83 = CARTESIAN_POINT ('', (0., 6., -1.46957615897682E-15));
#84 = (
   BOUNDED_SURFACE ()
   B_SPLINE_SURFACE (2, 3, ((#48, #49, #50, #51), (#52, #53, #54, #55), (#56, #57, #58, #59), (#60, #61, #62, #63), (#64, #65, #66, #67), (#68, #69, #70, #71), (#72, #73, #74, #75), (#76, #77, #78, #79), (#80, #81, #82, #83)), .UNSPECIFIED., .T., .F., .U.)
   B_SPLINE_SURFACE_WITH_KNOTS ((3, 2, 2, 2, 3), (4, 4), (0., 0.25, 0.5, 0.75, 1.), (0., 1.), .UNSPECIFIED.)
   GEOMETRIC_REPRESENTATION_ITEM ()
   RATIONAL_B_SPLINE_SURFACE (((1., 1., 1., 1.), (0.707106781186548, 0.707106781186548, 0.707106781186548, 0.707106781186548), (1., 1., 1., 1.), (0.707106781186548, 0.707106781186548, 0.707106781186548, 0.707106781186548), (1., 1., 1., 1.), (0.707106781186548, 0.707106781186548, 0.707106781186548, 0.707106781186548), (1., 1., 1., 1.), (0.707106781186548, 0.707106781186548, 0.707106781186548, 0.707106781186548), (1., 1., 1., 1.)))
   REPRESENTATION_ITEM ('')
   SURFACE ()
);
#85 = ADVANCED_FACE ('', (#47), #84, .T.);
#86 = ORIENTED_EDGE ('', *, *, #44, .T.);
#87 = EDGE_LOOP ('', (#86));
#88 = FACE_OUTER_BOUND ('', #87, .T.);
#89 = CARTESIAN_POINT ('', (0., -9.33380951166243, -9.33380951166243));
#90 = CARTESIAN_POINT ('', (0., -9.33380951166243, 9.33380951166243));
#91 = CARTESIAN_POINT ('', (0., 9.33380951166243, -9.33380951166243));
#92 = CARTESIAN_POINT ('', (0., 9.33380951166243, 9.33380951166243));
#93 = B_SPLINE_SURFACE_WITH_KNOTS ('', 1, 1, ((#89, #90), (#91, #92)), .UNSPECIFIED., .F., .F., .U., (2, 2), (2, 2), (0., 1.), (0., 1.), .UNSPECIFIED.);
#94 = ADVANCED_FACE ('', (#88), #93, .T.);
#95 = CLOSED_SHELL ('', (#22, #85, #94));
#96 = MANIFOLD_SOLID_BREP ('', #95);
#97 = (
   LENGTH_UNIT ()
   NAMED_UNIT (*)
   SI_UNIT (.MILLI., .METRE.)
);
#98 = (
   NAMED_UNIT (*)
   SI_UNIT ($, .STERADIAN.)
   SOLID_ANGLE_UNIT ()
);
#99 = (
   NAMED_UNIT (*)
   PLANE_ANGLE_UNIT ()
   SI_UNIT ($, .RADIAN.)
);
#100 = UNCERTAINTY_MEASURE_WITH_UNIT (LENGTH_MEASURE(0.001), #97, 'DISTANCE_ACCURACY_VALUE', '');
#101 = (
   GEOMETRIC_REPRESENTATION_CONTEXT (3)
   GLOBAL_UNCERTAINTY_ASSIGNED_CONTEXT ((#100))
   GLOBAL_UNIT_ASSIGNED_CONTEXT ((#97, #98, #99))
   REPRESENTATION_CONTEXT ('', '3D')
);
#102 = SHAPE_REPRESENTATION ('', (), #101);
#103 = APPLICATION_CONTEXT ('configuration controlled 3D designs of mechanical parts and assemblies');
#104 = APPLICATION_PROTOCOL_DEFINITION ('International Standard', 'config_control_design', 1997, #103);
#105 = MECHANICAL_CONTEXT ('', #103, 'mechanical');
#106 = PRODUCT ('', '', '', (#105));
#107 = PERSON_AND_ORGANIZATION_ROLE ('design_owner');
#108 = PERSON ('#108', '', $, $, $, $);
#109 = ORGANIZATION ($, '', '');
#110 = PERSON_AND_ORGANIZATION (#108, #109);
#111 = CC_DESIGN_PERSON_AND_ORGANIZATION_ASSIGNMENT (#110, #107, (#106));
#112 = PRODUCT_RELATED_PRODUCT_CATEGORY ('detail', $, (#106));
#113 = PRODUCT_DEFINITION_FORMATION_WITH_SPECIFIED_SOURCE ('', '', #106, .NOT_KNOWN.);
#114 = APPROVAL_STATUS ('approved');
#115 = APPROVAL (#114, '');
#116 = CALENDAR_DATE (2023, 30, 6);
#117 = COORDINATED_UNIVERSAL_TIME_OFFSET (0, $, .AHEAD.);
#118 = LOCAL_TIME (8, 45, 12., #117);
#119 = DATE_AND_TIME (#116, #118);
#120 = APPROVAL_DATE_TIME (#119, #115);
#121 = APPROVAL_ROLE ('');
#122 = PERSON ('#122', '', $, $, $, $);
#123 = ORGANIZATION ($, '', '');
#124 = PERSON_AND_ORGANIZATION (#122, #123);
#125 = APPROVAL_PERSON_ORGANIZATION (#124, #115, #121);
#126 = CC_DESIGN_APPROVAL (#115, (#113));
#127 = PERSON_AND_ORGANIZATION_ROLE ('creator');
#128 = PERSON ('#128', '', $, $, $, $);
#129 = ORGANIZATION ($, '', '');
#130 = PERSON_AND_ORGANIZATION (#128, #129);
#131 = CC_DESIGN_PERSON_AND_ORGANIZATION_ASSIGNMENT (#130, #127, (#113));
#132 = PERSON_AND_ORGANIZATION_ROLE ('part_supplier');
#133 = PERSON ('#133', '', $, $, $, $);
#134 = ORGANIZATION ($, '', '');
#135 = PERSON_AND_ORGANIZATION (#133, #134);
#136 = CC_DESIGN_PERSON_AND_ORGANIZATION_ASSIGNMENT (#135, #132, (#113));
#137 = SECURITY_CLASSIFICATION_LEVEL ('unclassified');
#138 = SECURITY_CLASSIFICATION ('', '', #137);
#139 = APPROVAL_STATUS ('approved');
#140 = APPROVAL (#139, '');
#141 = CALENDAR_DATE (2023, 30, 6);
#142 = COORDINATED_UNIVERSAL_TIME_OFFSET (0, $, .AHEAD.);
#143 = LOCAL_TIME (8, 45, 12., #142);
#144 = DATE_AND_TIME (#141, #143);
#145 = APPROVAL_DATE_TIME (#144, #140);
#146 = APPROVAL_ROLE ('');
#147 = PERSON ('#147', '', $, $, $, $);
#148 = ORGANIZATION ($, '', '');
#149 = PERSON_AND_ORGANIZATION (#147, #148);
#150 = APPROVAL_PERSON_ORGANIZATION (#149, #140, #146);
#151 = CC_DESIGN_APPROVAL (#140, (#138));
#152 = DATE_TIME_ROLE ('classification_date');
#153 = CALENDAR_DATE (2023, 30, 6);
#154 = COORDINATED_UNIVERSAL_TIME_OFFSET (0, $, .AHEAD.);
#155 = LOCAL_TIME (8, 45, 12., #154);
#156 = DATE_AND_TIME (#153, #155);
#157 = CC_DESIGN_DATE_AND_TIME_ASSIGNMENT (#156, #152, (#138));
#158 = PERSON_AND_ORGANIZATION_ROLE ('classification_officer');
#159 = PERSON ('#159', '', $, $, $, $);
#160 = ORGANIZATION ($, '', '');
#161 = PERSON_AND_ORGANIZATION (#159, #160);
#162 = CC_DESIGN_PERSON_AND_ORGANIZATION_ASSIGNMENT (#161, #158, (#138));
#163 = CC_DESIGN_SECURITY_CLASSIFICATION (#138, (#113));
#164 = DESIGN_CONTEXT ('', #103, 'design');
#165 = APPROVAL_STATUS ('approved');
#166 = APPROVAL (#165, '');
#167 = CALENDAR_DATE (2023, 30, 6);
#168 = COORDINATED_UNIVERSAL_TIME_OFFSET (0, $, .AHEAD.);
#169 = LOCAL_TIME (8, 45, 12., #168);
#170 = DATE_AND_TIME (#167, #169);
#171 = APPROVAL_DATE_TIME (#170, #166);
#172 = APPROVAL_ROLE ('');
#173 = PERSON ('#173', '', $, $, $, $);
#174 = ORGANIZATION ($, '', '');
#175 = PERSON_AND_ORGANIZATION (#173, #174);
#176 = APPROVAL_PERSON_ORGANIZATION (#175, #166, #172);
#177 = CC_DESIGN_APPROVAL (#166, (*));
#178 = DATE_TIME_ROLE ('creation_date');
#179 = CALENDAR_DATE (2023, 30, 6);
#180 = COORDINATED_UNIVERSAL_TIME_OFFSET (0, $, .AHEAD.);
#181 = LOCAL_TIME (8, 45, 12., #180);
#182 = DATE_AND_TIME (#179, #181);
#183 = CC_DESIGN_DATE_AND_TIME_ASSIGNMENT (#182, #178, (*));
#184 = PERSON_AND_ORGANIZATION_ROLE ('creator');
#185 = PERSON ('#185', '', $, $, $, $);
#186 = ORGANIZATION ($, '', '');
#187 = PERSON_AND_ORGANIZATION (#185, #186);
#188 = CC_DESIGN_PERSON_AND_ORGANIZATION_ASSIGNMENT (#187, #184, (*));
#189 = PRODUCT_DEFINITION ('', '', #113, #164);
#190 = PRODUCT_DEFINITION_SHAPE ('', '', #189);
#191 = SHAPE_DEFINITION_REPRESENTATION (#190, #102);
#192 = SHAPE_REPRESENTATION_RELATIONSHIP ('', '', #102, #193);
#193 = ADVANCED_BREP_SHAPE_REPRESENTATION ('', (#96), #101);
ENDSEC;
END-ISO-10303-21;
