ISO-10303-21;
HEADER;
FILE_DESCRIPTION (('STEP'), '1');
FILE_NAME ('C:\\Users\\rob\\Downloads\\137V5 1603-3.0RALCC.STP', '2023-04-25T09:49:58', ('Unknown'), ('M A FORD'), 'OneCNC-XR9 Mill 3D Expert', 'OneCNC-XR9 Mill 3D Expert', '');
FILE_SCHEMA (('CONFIG_CONTROL_DESIGN'));
ENDSEC;

DATA;
#1 = CARTESIAN_POINT ('', (-3., 8., -1.95943487863577E-15));
#2 = VERTEX_POINT ('', #1);
#3 = CARTESIAN_POINT ('', (0., 5., -1.22464679914736E-15));
#4 = VERTEX_POINT ('', #3);
#5 = CARTESIAN_POINT ('', (-3., 8., -1.95943487863577E-15));
#6 = CARTESIAN_POINT ('', (-2.67223386666082, 8., -1.95943487863577E-15));
#7 = CARTESIAN_POINT ('', (-2.14431523595444, 7.91248709266073, -1.93800039826435E-15));
#8 = CARTESIAN_POINT ('', (-1.37883095753834, 7.56335494615279, -1.85248768512427E-15));
#9 = CARTESIAN_POINT ('', (-0.660162900605777, 6.97909979189655, -1.70938644421522E-15));
#10 = CARTESIAN_POINT ('', (-0.121585381127064, 6.06122580083336, -1.48457215517999E-15));
#11 = CARTESIAN_POINT ('', (-3.85215315465597E-48, 5.32776613333918, -1.3049263483599E-15));
#12 = CARTESIAN_POINT ('', (0., 5., -1.22464679914736E-15));
#13 = B_SPLINE_CURVE_WITH_KNOTS ('', 3, (#5, #6, #7, #8, #9, #10, #11, #12), .UNSPECIFIED., .F., .U., (4, 1, 1, 1, 1, 4), (0., 0.208662401196191, 0.33617370428258, 0.532939663384363, 0.791337598803809, 1.), .UNSPECIFIED.);
#14 = EDGE_CURVE ('', #2, #4, #13, .T.);
#15 = ORIENTED_EDGE ('', *, *, #14, .F.);
#16 = CARTESIAN_POINT ('', (-3., 8., -1.95943487863577E-15));
#17 = CARTESIAN_POINT ('', (-3., 8., 8.));
#18 = CARTESIAN_POINT ('', (-3., 2.44929359829471E-15, 8.));
#19 = CARTESIAN_POINT ('', (-3., -8., 8.));
#20 = CARTESIAN_POINT ('', (-3., -8., 2.93915231795365E-15));
#21 = CARTESIAN_POINT ('', (-3., -8., -8.));
#22 = CARTESIAN_POINT ('', (-3., -3.42901103761259E-15, -8.));
#23 = CARTESIAN_POINT ('', (-3., 8., -8.));
#24 = CARTESIAN_POINT ('', (-3., 8., -1.95943487863577E-15));
#25 = (
   BOUNDED_CURVE ()
   B_SPLINE_CURVE (2, (#16, #17, #18, #19, #20, #21, #22, #23, #24), .UNSPECIFIED., .T., .U.)
   B_SPLINE_CURVE_WITH_KNOTS ((3, 2, 2, 2, 3), (0., 0.25, 0.5, 0.75, 1.), .UNSPECIFIED.)
   CURVE ()
   GEOMETRIC_REPRESENTATION_ITEM ()
   RATIONAL_B_SPLINE_CURVE ((1., 0.707106781186548, 1., 0.707106781186548, 1., 0.707106781186548, 1., 0.707106781186548, 1.))
   REPRESENTATION_ITEM ('')
);
#26 = EDGE_CURVE ('', #2, #2, #25, .T.);
#27 = ORIENTED_EDGE ('', *, *, #26, .T.);
#28 = ORIENTED_EDGE ('', *, *, #14, .T.);
#29 = CARTESIAN_POINT ('', (0., 5., -1.22464679914736E-15));
#30 = CARTESIAN_POINT ('', (0., 5., 5.));
#31 = CARTESIAN_POINT ('', (0., 1.53080849893419E-15, 5.));
#32 = CARTESIAN_POINT ('', (0., -5., 5.));
#33 = CARTESIAN_POINT ('', (0., -5., 1.83697019872103E-15));
#34 = CARTESIAN_POINT ('', (0., -5., -5.));
#35 = CARTESIAN_POINT ('', (0., -2.14313189850787E-15, -5.));
#36 = CARTESIAN_POINT ('', (0., 5., -5.));
#37 = CARTESIAN_POINT ('', (0., 5., -1.22464679914736E-15));
#38 = (
   BOUNDED_CURVE ()
   B_SPLINE_CURVE (2, (#29, #30, #31, #32, #33, #34, #35, #36, #37), .UNSPECIFIED., .T., .U.)
   B_SPLINE_CURVE_WITH_KNOTS ((3, 2, 2, 2, 3), (0., 0.25, 0.5, 0.75, 1.), .UNSPECIFIED.)
   CURVE ()
   GEOMETRIC_REPRESENTATION_ITEM ()
   RATIONAL_B_SPLINE_CURVE ((1., 0.707106781186548, 1., 0.707106781186548, 1., 0.707106781186548, 1., 0.707106781186548, 1.))
   REPRESENTATION_ITEM ('')
);
#39 = EDGE_CURVE ('', #4, #4, #38, .T.);
#40 = ORIENTED_EDGE ('', *, *, #39, .F.);
#41 = EDGE_LOOP ('', (#15, #27, #28, #40));
#42 = FACE_OUTER_BOUND ('', #41, .T.);
#43 = CARTESIAN_POINT ('', (-3., 8., -1.95943487863577E-15));
#44 = CARTESIAN_POINT ('', (-2.67223386666082, 8., -1.95943487863577E-15));
#45 = CARTESIAN_POINT ('', (-2.14431523595444, 7.91248709266073, -1.93800039826435E-15));
#46 = CARTESIAN_POINT ('', (-1.37883095753834, 7.56335494615279, -1.85248768512427E-15));
#47 = CARTESIAN_POINT ('', (-0.660162900605777, 6.97909979189655, -1.70938644421522E-15));
#48 = CARTESIAN_POINT ('', (-0.121585381127064, 6.06122580083336, -1.48457215517999E-15));
#49 = CARTESIAN_POINT ('', (-3.85215315465597E-48, 5.32776613333918, -1.3049263483599E-15));
#50 = CARTESIAN_POINT ('', (0., 5., -1.22464679914736E-15));
#51 = CARTESIAN_POINT ('', (-3., 8., 8.));
#52 = CARTESIAN_POINT ('', (-2.67223386666082, 8., 8.));
#53 = CARTESIAN_POINT ('', (-2.14431523595444, 7.91248709266073, 7.91248709266072));
#54 = CARTESIAN_POINT ('', (-1.37883095753834, 7.56335494615279, 7.56335494615278));
#55 = CARTESIAN_POINT ('', (-0.660162900605777, 6.97909979189655, 6.97909979189655));
#56 = CARTESIAN_POINT ('', (-0.121585381127064, 6.06122580083336, 6.06122580083336));
#57 = CARTESIAN_POINT ('', (-3.85215315465597E-48, 5.32776613333918, 5.32776613333918));
#58 = CARTESIAN_POINT ('', (0., 5., 5.));
#59 = CARTESIAN_POINT ('', (-3., 2.44929359829471E-15, 8.));
#60 = CARTESIAN_POINT ('', (-2.67223386666082, 2.44929359829471E-15, 8.));
#61 = CARTESIAN_POINT ('', (-2.14431523595444, 2.42250049783043E-15, 7.91248709266073));
#62 = CARTESIAN_POINT ('', (-1.37883095753834, 2.31560960640533E-15, 7.56335494615279));
#63 = CARTESIAN_POINT ('', (-0.660162900605777, 2.13673305526902E-15, 6.97909979189655));
#64 = CARTESIAN_POINT ('', (-0.121585381127064, 1.85571519397499E-15, 6.06122580083336));
#65 = CARTESIAN_POINT ('', (-3.85215315465597E-48, 1.63115793544988E-15, 5.32776613333918));
#66 = CARTESIAN_POINT ('', (0., 1.53080849893419E-15, 5.));
#67 = CARTESIAN_POINT ('', (-3., -8., 8.));
#68 = CARTESIAN_POINT ('', (-2.67223386666082, -8., 8.));
#69 = CARTESIAN_POINT ('', (-2.14431523595444, -7.91248709266072, 7.91248709266073));
#70 = CARTESIAN_POINT ('', (-1.37883095753834, -7.56335494615278, 7.56335494615279));
#71 = CARTESIAN_POINT ('', (-0.660162900605777, -6.97909979189655, 6.97909979189655));
#72 = CARTESIAN_POINT ('', (-0.121585381127064, -6.06122580083336, 6.06122580083336));
#73 = CARTESIAN_POINT ('', (-3.85215315465597E-48, -5.32776613333918, 5.32776613333918));
#74 = CARTESIAN_POINT ('', (0., -5., 5.));
#75 = CARTESIAN_POINT ('', (-3., -8., 2.93915231795365E-15));
#76 = CARTESIAN_POINT ('', (-2.67223386666082, -8., 2.93915231795365E-15));
#77 = CARTESIAN_POINT ('', (-2.14431523595444, -7.91248709266073, 2.90700059739652E-15));
#78 = CARTESIAN_POINT ('', (-1.37883095753834, -7.56335494615279, 2.7787315276864E-15));
#79 = CARTESIAN_POINT ('', (-0.660162900605777, -6.97909979189655, 2.56407966632283E-15));
#80 = CARTESIAN_POINT ('', (-0.121585381127064, -6.06122580083336, 2.22685823276999E-15));
#81 = CARTESIAN_POINT ('', (-3.85215315465597E-48, -5.32776613333918, 1.95738952253985E-15));
#82 = CARTESIAN_POINT ('', (0., -5., 1.83697019872103E-15));
#83 = CARTESIAN_POINT ('', (-3., -8., -8.));
#84 = CARTESIAN_POINT ('', (-2.67223386666082, -8., -8.));
#85 = CARTESIAN_POINT ('', (-2.14431523595444, -7.91248709266073, -7.91248709266072));
#86 = CARTESIAN_POINT ('', (-1.37883095753834, -7.56335494615279, -7.56335494615278));
#87 = CARTESIAN_POINT ('', (-0.660162900605777, -6.97909979189655, -6.97909979189655));
#88 = CARTESIAN_POINT ('', (-0.121585381127064, -6.06122580083337, -6.06122580083336));
#89 = CARTESIAN_POINT ('', (-3.85215315465597E-48, -5.32776613333918, -5.32776613333918));
#90 = CARTESIAN_POINT ('', (0., -5., -5.));
#91 = CARTESIAN_POINT ('', (-3., -3.42901103761259E-15, -8.));
#92 = CARTESIAN_POINT ('', (-2.67223386666082, -3.42901103761259E-15, -8.));
#93 = CARTESIAN_POINT ('', (-2.14431523595444, -3.3915006969626E-15, -7.91248709266073));
#94 = CARTESIAN_POINT ('', (-1.37883095753834, -3.24185344896746E-15, -7.56335494615279));
#95 = CARTESIAN_POINT ('', (-0.660162900605777, -2.99142627737663E-15, -6.97909979189655));
#96 = CARTESIAN_POINT ('', (-0.121585381127064, -2.59800127156498E-15, -6.06122580083336));
#97 = CARTESIAN_POINT ('', (-3.85215315465597E-48, -2.28362110962983E-15, -5.32776613333918));
#98 = CARTESIAN_POINT ('', (0., -2.14313189850787E-15, -5.));
#99 = CARTESIAN_POINT ('', (-3., 8., -8.));
#100 = CARTESIAN_POINT ('', (-2.67223386666082, 8., -8.));
#101 = CARTESIAN_POINT ('', (-2.14431523595444, 7.91248709266072, -7.91248709266073));
#102 = CARTESIAN_POINT ('', (-1.37883095753834, 7.56335494615278, -7.56335494615279));
#103 = CARTESIAN_POINT ('', (-0.660162900605777, 6.97909979189655, -6.97909979189655));
#104 = CARTESIAN_POINT ('', (-0.121585381127064, 6.06122580083336, -6.06122580083337));
#105 = CARTESIAN_POINT ('', (-3.85215315465597E-48, 5.32776613333918, -5.32776613333918));
#106 = CARTESIAN_POINT ('', (0., 5., -5.));
#107 = CARTESIAN_POINT ('', (-3., 8., -1.95943487863577E-15));
#108 = CARTESIAN_POINT ('', (-2.67223386666082, 8., -1.95943487863577E-15));
#109 = CARTESIAN_POINT ('', (-2.14431523595444, 7.91248709266073, -1.93800039826435E-15));
#110 = CARTESIAN_POINT ('', (-1.37883095753834, 7.56335494615279, -1.85248768512427E-15));
#111 = CARTESIAN_POINT ('', (-0.660162900605777, 6.97909979189655, -1.70938644421522E-15));
#112 = CARTESIAN_POINT ('', (-0.121585381127064, 6.06122580083336, -1.48457215517999E-15));
#113 = CARTESIAN_POINT ('', (-3.85215315465597E-48, 5.32776613333918, -1.3049263483599E-15));
#114 = CARTESIAN_POINT ('', (0., 5., -1.22464679914736E-15));
#115 = (
   BOUNDED_SURFACE ()
   B_SPLINE_SURFACE (2, 3, ((#43, #44, #45, #46, #47, #48, #49, #50), (#51, #52, #53, #54, #55, #56, #57, #58), (#59, #60, #61, #62, #63, #64, #65, #66), (#67, #68, #69, #70, #71, #72, #73, #74), (#75, #76, #77, #78, #79, #80, #81, #82), (#83, #84, #85, #86, #87, #88, #89, #90), (#91, #92, #93, #94, #95, #96, #97, #98), (#99, #100, #101, #102, #103, #104, #105, #106), (#107, #108, #109, #110, #111, #112, #113, #114)), .UNSPECIFIED., .T., .F., .U.)
   B_SPLINE_SURFACE_WITH_KNOTS ((3, 2, 2, 2, 3), (4, 1, 1, 1, 1, 4), (0., 0.25, 0.5, 0.75, 1.), (0., 0.208662401196191, 0.33617370428258, 0.532939663384363, 0.791337598803809, 1.), .UNSPECIFIED.)
   GEOMETRIC_REPRESENTATION_ITEM ()
   RATIONAL_B_SPLINE_SURFACE (((1., 1., 1., 1., 1., 1., 1., 1.), (0.707106781186548, 0.707106781186548, 0.707106781186548, 0.707106781186548, 0.707106781186548, 0.707106781186548, 0.707106781186548, 0.707106781186548), (1., 1., 1., 1., 1., 1., 1., 1.), (0.707106781186548, 0.707106781186548, 0.707106781186548, 0.707106781186548, 0.707106781186548, 0.707106781186548, 0.707106781186548, 0.707106781186548), (1., 1., 1., 1., 1., 1., 1., 1.), (0.707106781186548, 0.707106781186548, 0.707106781186548, 0.707106781186548, 0.707106781186548, 0.707106781186548, 0.707106781186548, 0.707106781186548), (1., 1., 1., 1., 1., 1., 1., 1.), (0.707106781186548, 0.707106781186548, 0.707106781186548, 0.707106781186548, 0.707106781186548, 0.707106781186548, 0.707106781186548, 0.707106781186548), (1., 1., 1., 1., 1., 1., 1., 1.)))
   REPRESENTATION_ITEM ('')
   SURFACE ()
);
#116 = ADVANCED_FACE ('', (#42), #115, .T.);
#117 = CARTESIAN_POINT ('', (-103.75, 8., -1.95943487863576E-15));
#118 = VERTEX_POINT ('', #117);
#119 = CARTESIAN_POINT ('', (-103.75, 8., -1.95943487863576E-15));
#120 = CARTESIAN_POINT ('', (-70.1666666666667, 8., -1.95943487863576E-15));
#121 = CARTESIAN_POINT ('', (-36.5833333333333, 8., -1.95943487863577E-15));
#122 = CARTESIAN_POINT ('', (-3., 8., -1.95943487863577E-15));
#123 = B_SPLINE_CURVE_WITH_KNOTS ('', 3, (#119, #120, #121, #122), .UNSPECIFIED., .F., .U., (4, 4), (0., 1.), .UNSPECIFIED.);
#124 = EDGE_CURVE ('', #118, #2, #123, .T.);
#125 = ORIENTED_EDGE ('', *, *, #124, .F.);
#126 = CARTESIAN_POINT ('', (-103.75, 8., -1.95943487863576E-15));
#127 = CARTESIAN_POINT ('', (-103.75, 8., 8.));
#128 = CARTESIAN_POINT ('', (-103.75, 2.4492935982947E-15, 8.));
#129 = CARTESIAN_POINT ('', (-103.75, -8., 8.));
#130 = CARTESIAN_POINT ('', (-103.75, -8., 2.93915231795364E-15));
#131 = CARTESIAN_POINT ('', (-103.75, -8., -8.));
#132 = CARTESIAN_POINT ('', (-103.75, -3.42901103761258E-15, -8.));
#133 = CARTESIAN_POINT ('', (-103.75, 8., -8.));
#134 = CARTESIAN_POINT ('', (-103.75, 8., -1.95943487863576E-15));
#135 = (
   BOUNDED_CURVE ()
   B_SPLINE_CURVE (2, (#126, #127, #128, #129, #130, #131, #132, #133, #134), .UNSPECIFIED., .T., .U.)
   B_SPLINE_CURVE_WITH_KNOTS ((3, 2, 2, 2, 3), (0., 0.25, 0.5, 0.75, 1.), .UNSPECIFIED.)
   CURVE ()
   GEOMETRIC_REPRESENTATION_ITEM ()
   RATIONAL_B_SPLINE_CURVE ((1., 0.707106781186548, 1., 0.707106781186548, 1., 0.707106781186548, 1., 0.707106781186548, 1.))
   REPRESENTATION_ITEM ('')
);
#136 = EDGE_CURVE ('', #118, #118, #135, .T.);
#137 = ORIENTED_EDGE ('', *, *, #136, .T.);
#138 = ORIENTED_EDGE ('', *, *, #124, .T.);
#139 = ORIENTED_EDGE ('', *, *, #26, .F.);
#140 = EDGE_LOOP ('', (#125, #137, #138, #139));
#141 = FACE_OUTER_BOUND ('', #140, .T.);
#142 = CARTESIAN_POINT ('', (-103.75, 8., -1.95943487863576E-15));
#143 = CARTESIAN_POINT ('', (-70.1666666666667, 8., -1.95943487863576E-15));
#144 = CARTESIAN_POINT ('', (-36.5833333333333, 8., -1.95943487863577E-15));
#145 = CARTESIAN_POINT ('', (-3., 8., -1.95943487863577E-15));
#146 = CARTESIAN_POINT ('', (-103.75, 8., 8.));
#147 = CARTESIAN_POINT ('', (-70.1666666666667, 8., 8.));
#148 = CARTESIAN_POINT ('', (-36.5833333333333, 8., 8.));
#149 = CARTESIAN_POINT ('', (-3., 8., 8.));
#150 = CARTESIAN_POINT ('', (-103.75, 2.4492935982947E-15, 8.));
#151 = CARTESIAN_POINT ('', (-70.1666666666667, 2.4492935982947E-15, 8.));
#152 = CARTESIAN_POINT ('', (-36.5833333333333, 2.44929359829471E-15, 8.));
#153 = CARTESIAN_POINT ('', (-3., 2.44929359829471E-15, 8.));
#154 = CARTESIAN_POINT ('', (-103.75, -8., 8.));
#155 = CARTESIAN_POINT ('', (-70.1666666666667, -8., 8.));
#156 = CARTESIAN_POINT ('', (-36.5833333333333, -8., 8.));
#157 = CARTESIAN_POINT ('', (-3., -8., 8.));
#158 = CARTESIAN_POINT ('', (-103.75, -8., 2.93915231795364E-15));
#159 = CARTESIAN_POINT ('', (-70.1666666666667, -8., 2.93915231795364E-15));
#160 = CARTESIAN_POINT ('', (-36.5833333333333, -8., 2.93915231795366E-15));
#161 = CARTESIAN_POINT ('', (-3., -8., 2.93915231795365E-15));
#162 = CARTESIAN_POINT ('', (-103.75, -8., -8.));
#163 = CARTESIAN_POINT ('', (-70.1666666666667, -8., -8.));
#164 = CARTESIAN_POINT ('', (-36.5833333333333, -8., -8.));
#165 = CARTESIAN_POINT ('', (-3., -8., -8.));
#166 = CARTESIAN_POINT ('', (-103.75, -3.42901103761258E-15, -8.));
#167 = CARTESIAN_POINT ('', (-70.1666666666667, -3.42901103761258E-15, -8.));
#168 = CARTESIAN_POINT ('', (-36.5833333333333, -3.4290110376126E-15, -8.));
#169 = CARTESIAN_POINT ('', (-3., -3.42901103761259E-15, -8.));
#170 = CARTESIAN_POINT ('', (-103.75, 8., -8.));
#171 = CARTESIAN_POINT ('', (-70.1666666666667, 8., -8.));
#172 = CARTESIAN_POINT ('', (-36.5833333333333, 8., -8.));
#173 = CARTESIAN_POINT ('', (-3., 8., -8.));
#174 = CARTESIAN_POINT ('', (-103.75, 8., -1.95943487863576E-15));
#175 = CARTESIAN_POINT ('', (-70.1666666666667, 8., -1.95943487863576E-15));
#176 = CARTESIAN_POINT ('', (-36.5833333333333, 8., -1.95943487863577E-15));
#177 = CARTESIAN_POINT ('', (-3., 8., -1.95943487863577E-15));
#178 = (
   BOUNDED_SURFACE ()
   B_SPLINE_SURFACE (2, 3, ((#142, #143, #144, #145), (#146, #147, #148, #149), (#150, #151, #152, #153), (#154, #155, #156, #157), (#158, #159, #160, #161), (#162, #163, #164, #165), (#166, #167, #168, #169), (#170, #171, #172, #173), (#174, #175, #176, #177)), .UNSPECIFIED., .T., .F., .U.)
   B_SPLINE_SURFACE_WITH_KNOTS ((3, 2, 2, 2, 3), (4, 4), (0., 0.25, 0.5, 0.75, 1.), (0., 1.), .UNSPECIFIED.)
   GEOMETRIC_REPRESENTATION_ITEM ()
   RATIONAL_B_SPLINE_SURFACE (((1., 1., 1., 1.), (0.707106781186548, 0.707106781186548, 0.707106781186548, 0.707106781186548), (1., 1., 1., 1.), (0.707106781186548, 0.707106781186548, 0.707106781186548, 0.707106781186548), (1., 1., 1., 1.), (0.707106781186548, 0.707106781186548, 0.707106781186548, 0.707106781186548), (1., 1., 1., 1.), (0.707106781186548, 0.707106781186548, 0.707106781186548, 0.707106781186548), (1., 1., 1., 1.)))
   REPRESENTATION_ITEM ('')
   SURFACE ()
);
#179 = ADVANCED_FACE ('', (#141), #178, .T.);
#180 = ORIENTED_EDGE ('', *, *, #136, .F.);
#181 = EDGE_LOOP ('', (#180));
#182 = FACE_OUTER_BOUND ('', #181, .T.);
#183 = CARTESIAN_POINT ('', (-103.75, -12.4450793488832, -12.4450793488832));
#184 = CARTESIAN_POINT ('', (-103.75, 12.4450793488832, -12.4450793488832));
#185 = CARTESIAN_POINT ('', (-103.75, -12.4450793488832, 12.4450793488832));
#186 = CARTESIAN_POINT ('', (-103.75, 12.4450793488832, 12.4450793488832));
#187 = B_SPLINE_SURFACE_WITH_KNOTS ('', 1, 1, ((#183, #184), (#185, #186)), .UNSPECIFIED., .F., .F., .U., (2, 2), (2, 2), (0., 1.), (0., 1.), .UNSPECIFIED.);
#188 = ADVANCED_FACE ('', (#182), #187, .T.);
#189 = ORIENTED_EDGE ('', *, *, #39, .T.);
#190 = EDGE_LOOP ('', (#189));
#191 = FACE_OUTER_BOUND ('', #190, .T.);
#192 = CARTESIAN_POINT ('', (0., -7.77817459305203, -7.77817459305203));
#193 = CARTESIAN_POINT ('', (0., -7.77817459305203, 7.77817459305203));
#194 = CARTESIAN_POINT ('', (0., 7.77817459305203, -7.77817459305203));
#195 = CARTESIAN_POINT ('', (0., 7.77817459305203, 7.77817459305203));
#196 = B_SPLINE_SURFACE_WITH_KNOTS ('', 1, 1, ((#192, #193), (#194, #195)), .UNSPECIFIED., .F., .F., .U., (2, 2), (2, 2), (0., 1.), (0., 1.), .UNSPECIFIED.);
#197 = ADVANCED_FACE ('', (#191), #196, .T.);
#198 = CLOSED_SHELL ('', (#116, #179, #188, #197));
#199 = MANIFOLD_SOLID_BREP ('', #198);
#200 = (
   LENGTH_UNIT ()
   NAMED_UNIT (*)
   SI_UNIT (.MILLI., .METRE.)
);
#201 = (
   NAMED_UNIT (*)
   SI_UNIT ($, .STERADIAN.)
   SOLID_ANGLE_UNIT ()
);
#202 = (
   NAMED_UNIT (*)
   PLANE_ANGLE_UNIT ()
   SI_UNIT ($, .RADIAN.)
);
#203 = UNCERTAINTY_MEASURE_WITH_UNIT (LENGTH_MEASURE(0.001), #200, 'DISTANCE_ACCURACY_VALUE', '');
#204 = (
   GEOMETRIC_REPRESENTATION_CONTEXT (3)
   GLOBAL_UNCERTAINTY_ASSIGNED_CONTEXT ((#203))
   GLOBAL_UNIT_ASSIGNED_CONTEXT ((#200, #201, #202))
   REPRESENTATION_CONTEXT ('', '3D')
);
#205 = SHAPE_REPRESENTATION ('', (), #204);
#206 = APPLICATION_CONTEXT ('configuration controlled 3D designs of mechanical parts and assemblies');
#207 = APPLICATION_PROTOCOL_DEFINITION ('International Standard', 'config_control_design', 1997, #206);
#208 = MECHANICAL_CONTEXT ('', #206, 'mechanical');
#209 = PRODUCT ('', '', '', (#208));
#210 = PERSON_AND_ORGANIZATION_ROLE ('design_owner');
#211 = PERSON ('#211', '', $, $, $, $);
#212 = ORGANIZATION ($, '', '');
#213 = PERSON_AND_ORGANIZATION (#211, #212);
#214 = CC_DESIGN_PERSON_AND_ORGANIZATION_ASSIGNMENT (#213, #210, (#209));
#215 = PRODUCT_RELATED_PRODUCT_CATEGORY ('detail', $, (#209));
#216 = PRODUCT_DEFINITION_FORMATION_WITH_SPECIFIED_SOURCE ('', '', #209, .NOT_KNOWN.);
#217 = APPROVAL_STATUS ('approved');
#218 = APPROVAL (#217, '');
#219 = CALENDAR_DATE (2023, 25, 4);
#220 = COORDINATED_UNIVERSAL_TIME_OFFSET (0, $, .AHEAD.);
#221 = LOCAL_TIME (9, 49, 58., #220);
#222 = DATE_AND_TIME (#219, #221);
#223 = APPROVAL_DATE_TIME (#222, #218);
#224 = APPROVAL_ROLE ('');
#225 = PERSON ('#225', '', $, $, $, $);
#226 = ORGANIZATION ($, '', '');
#227 = PERSON_AND_ORGANIZATION (#225, #226);
#228 = APPROVAL_PERSON_ORGANIZATION (#227, #218, #224);
#229 = CC_DESIGN_APPROVAL (#218, (#216));
#230 = PERSON_AND_ORGANIZATION_ROLE ('creator');
#231 = PERSON ('#231', '', $, $, $, $);
#232 = ORGANIZATION ($, '', '');
#233 = PERSON_AND_ORGANIZATION (#231, #232);
#234 = CC_DESIGN_PERSON_AND_ORGANIZATION_ASSIGNMENT (#233, #230, (#216));
#235 = PERSON_AND_ORGANIZATION_ROLE ('part_supplier');
#236 = PERSON ('#236', '', $, $, $, $);
#237 = ORGANIZATION ($, '', '');
#238 = PERSON_AND_ORGANIZATION (#236, #237);
#239 = CC_DESIGN_PERSON_AND_ORGANIZATION_ASSIGNMENT (#238, #235, (#216));
#240 = SECURITY_CLASSIFICATION_LEVEL ('unclassified');
#241 = SECURITY_CLASSIFICATION ('', '', #240);
#242 = APPROVAL_STATUS ('approved');
#243 = APPROVAL (#242, '');
#244 = CALENDAR_DATE (2023, 25, 4);
#245 = COORDINATED_UNIVERSAL_TIME_OFFSET (0, $, .AHEAD.);
#246 = LOCAL_TIME (9, 49, 58., #245);
#247 = DATE_AND_TIME (#244, #246);
#248 = APPROVAL_DATE_TIME (#247, #243);
#249 = APPROVAL_ROLE ('');
#250 = PERSON ('#250', '', $, $, $, $);
#251 = ORGANIZATION ($, '', '');
#252 = PERSON_AND_ORGANIZATION (#250, #251);
#253 = APPROVAL_PERSON_ORGANIZATION (#252, #243, #249);
#254 = CC_DESIGN_APPROVAL (#243, (#241));
#255 = DATE_TIME_ROLE ('classification_date');
#256 = CALENDAR_DATE (2023, 25, 4);
#257 = COORDINATED_UNIVERSAL_TIME_OFFSET (0, $, .AHEAD.);
#258 = LOCAL_TIME (9, 49, 58., #257);
#259 = DATE_AND_TIME (#256, #258);
#260 = CC_DESIGN_DATE_AND_TIME_ASSIGNMENT (#259, #255, (#241));
#261 = PERSON_AND_ORGANIZATION_ROLE ('classification_officer');
#262 = PERSON ('#262', '', $, $, $, $);
#263 = ORGANIZATION ($, '', '');
#264 = PERSON_AND_ORGANIZATION (#262, #263);
#265 = CC_DESIGN_PERSON_AND_ORGANIZATION_ASSIGNMENT (#264, #261, (#241));
#266 = CC_DESIGN_SECURITY_CLASSIFICATION (#241, (#216));
#267 = DESIGN_CONTEXT ('', #206, 'design');
#268 = APPROVAL_STATUS ('approved');
#269 = APPROVAL (#268, '');
#270 = CALENDAR_DATE (2023, 25, 4);
#271 = COORDINATED_UNIVERSAL_TIME_OFFSET (0, $, .AHEAD.);
#272 = LOCAL_TIME (9, 49, 58., #271);
#273 = DATE_AND_TIME (#270, #272);
#274 = APPROVAL_DATE_TIME (#273, #269);
#275 = APPROVAL_ROLE ('');
#276 = PERSON ('#276', '', $, $, $, $);
#277 = ORGANIZATION ($, '', '');
#278 = PERSON_AND_ORGANIZATION (#276, #277);
#279 = APPROVAL_PERSON_ORGANIZATION (#278, #269, #275);
#280 = CC_DESIGN_APPROVAL (#269, (*));
#281 = DATE_TIME_ROLE ('creation_date');
#282 = CALENDAR_DATE (2023, 25, 4);
#283 = COORDINATED_UNIVERSAL_TIME_OFFSET (0, $, .AHEAD.);
#284 = LOCAL_TIME (9, 49, 58., #283);
#285 = DATE_AND_TIME (#282, #284);
#286 = CC_DESIGN_DATE_AND_TIME_ASSIGNMENT (#285, #281, (*));
#287 = PERSON_AND_ORGANIZATION_ROLE ('creator');
#288 = PERSON ('#288', '', $, $, $, $);
#289 = ORGANIZATION ($, '', '');
#290 = PERSON_AND_ORGANIZATION (#288, #289);
#291 = CC_DESIGN_PERSON_AND_ORGANIZATION_ASSIGNMENT (#290, #287, (*));
#292 = PRODUCT_DEFINITION ('', '', #216, #267);
#293 = PRODUCT_DEFINITION_SHAPE ('', '', #292);
#294 = SHAPE_DEFINITION_REPRESENTATION (#293, #205);
#295 = SHAPE_REPRESENTATION_RELATIONSHIP ('', '', #205, #296);
#296 = ADVANCED_BREP_SHAPE_REPRESENTATION ('', (#199), #204);
ENDSEC;
END-ISO-10303-21;
