ISO-10303-21;
HEADER;
FILE_DESCRIPTION ((), '1');
FILE_NAME ('C:\\Users\\Nick\\Desktop\\TEAMS STP FILES\\138B & 138B-N5\\138B 0300.STP', '2020-04-19T08:29:36', ('Unknown'), ('M.A.FORD Europe Ltd'), 'OneCNC-XR7 Mill 3D Expert', 'OneCNC-XR7 Mill 3D Expert', '');
FILE_SCHEMA (('CONFIG_CONTROL_DESIGN'));
ENDSEC;

DATA;
#1 = CARTESIAN_POINT ('', (0., 0., 0.));
#2 = VERTEX_POINT ('', #1);
#3 = CARTESIAN_POINT ('', (-1.5, 1.5, -3.67394039744206E-16));
#4 = VERTEX_POINT ('', #3);
#5 = CARTESIAN_POINT ('', (0., 0., 0.));
#6 = CARTESIAN_POINT ('', (3.08148791101958E-33, 0.264030209926055, -6.46687502928295E-17));
#7 = CARTESIAN_POINT ('', (-0.113708426393069, 0.681903050800771, -1.67018077698396E-16));
#8 = CARTESIAN_POINT ('', (-0.510450104051723, 1.16991854969711, -2.86547401429936E-16));
#9 = CARTESIAN_POINT ('', (-0.969387099583316, 1.43920730943647, -3.52504124962169E-16));
#10 = CARTESIAN_POINT ('', (-1.33611693333041, 1.5, -3.67394039744206E-16));
#11 = CARTESIAN_POINT ('', (-1.5, 1.5, -3.67394039744206E-16));
#12 = B_SPLINE_CURVE_WITH_KNOTS ('', 3, (#5, #6, #7, #8, #9, #10, #11), .UNSPECIFIED., .F., .U., (4, 1, 1, 1, 4), (0., 0.33617370428258, 0.532939663384363, 0.791337598803809, 1.), .UNSPECIFIED.);
#13 = EDGE_CURVE ('', #2, #4, #12, .T.);
#14 = ORIENTED_EDGE ('', *, *, #13, .F.);
#15 = ORIENTED_EDGE ('', *, *, #13, .T.);
#16 = CARTESIAN_POINT ('', (-1.5, 1.5, -3.67394039744206E-16));
#17 = CARTESIAN_POINT ('', (-1.5, 1.5, 6.));
#18 = CARTESIAN_POINT ('', (-1.5, -4.5, 3.));
#19 = CARTESIAN_POINT ('', (-1.5, -4.5, -3.));
#20 = CARTESIAN_POINT ('', (-1.5, 1.5, -6.));
#21 = CARTESIAN_POINT ('', (-1.5, 1.5, -3.67394039744206E-16));
#22 = (
   BOUNDED_CURVE ()
   B_SPLINE_CURVE (5, (#16, #17, #18, #19, #20, #21), .UNSPECIFIED., .T., .U.)
   B_SPLINE_CURVE_WITH_KNOTS ((6, 6), (0., 1.), .UNSPECIFIED.)
   CURVE ()
   GEOMETRIC_REPRESENTATION_ITEM ()
   RATIONAL_B_SPLINE_CURVE ((5., 1., 1., 1., 1., 5.))
   REPRESENTATION_ITEM ('')
);
#23 = EDGE_CURVE ('', #4, #4, #22, .T.);
#24 = ORIENTED_EDGE ('', *, *, #23, .F.);
#25 = EDGE_LOOP ('', (#14, #15, #24));
#26 = FACE_OUTER_BOUND ('', #25, .F.);
#27 = CARTESIAN_POINT ('', (0., 0., 0.));
#28 = CARTESIAN_POINT ('', (3.08148791101958E-33, 0.264030209926055, -6.46687502928295E-17));
#29 = CARTESIAN_POINT ('', (-0.113708426393069, 0.681903050800771, -1.67018077698396E-16));
#30 = CARTESIAN_POINT ('', (-0.510450104051723, 1.16991854969711, -2.86547401429936E-16));
#31 = CARTESIAN_POINT ('', (-0.969387099583316, 1.43920730943647, -3.52504124962169E-16));
#32 = CARTESIAN_POINT ('', (-1.33611693333041, 1.5, -3.67394039744206E-16));
#33 = CARTESIAN_POINT ('', (-1.5, 1.5, -3.67394039744206E-16));
#34 = CARTESIAN_POINT ('', (0., 0., 0.));
#35 = CARTESIAN_POINT ('', (-6.46687502928295E-17, 0.264030209926056, 1.05612083970422));
#36 = CARTESIAN_POINT ('', (-0.113708426393069, 0.681903050800772, 2.72761220320308));
#37 = CARTESIAN_POINT ('', (-0.510450104051723, 1.16991854969711, 4.67967419878844));
#38 = CARTESIAN_POINT ('', (-0.969387099583317, 1.43920730943647, 5.75682923774587));
#39 = CARTESIAN_POINT ('', (-1.33611693333041, 1.5, 6.));
#40 = CARTESIAN_POINT ('', (-1.5, 1.5, 6.));
#41 = CARTESIAN_POINT ('', (0., 0., 0.));
#42 = CARTESIAN_POINT ('', (-9.70031254392443E-17, -0.792090629778166, 0.528060419852111));
#43 = CARTESIAN_POINT ('', (-0.113708426393069, -2.04570915240231, 1.36380610160154));
#44 = CARTESIAN_POINT ('', (-0.510450104051723, -3.50975564909133, 2.33983709939422));
#45 = CARTESIAN_POINT ('', (-0.969387099583317, -4.3176219283094, 2.87841461887293));
#46 = CARTESIAN_POINT ('', (-1.33611693333041, -4.5, 3.));
#47 = CARTESIAN_POINT ('', (-1.5, -4.5, 3.));
#48 = CARTESIAN_POINT ('', (0., 0., 0.));
#49 = CARTESIAN_POINT ('', (-3.23343751464148E-17, -0.792090629778167, -0.528060419852111));
#50 = CARTESIAN_POINT ('', (-0.113708426393069, -2.04570915240231, -1.36380610160154));
#51 = CARTESIAN_POINT ('', (-0.510450104051723, -3.50975564909133, -2.33983709939422));
#52 = CARTESIAN_POINT ('', (-0.969387099583316, -4.3176219283094, -2.87841461887293));
#53 = CARTESIAN_POINT ('', (-1.33611693333041, -4.5, -3.));
#54 = CARTESIAN_POINT ('', (-1.5, -4.5, -3.));
#55 = CARTESIAN_POINT ('', (0., 0., 0.));
#56 = CARTESIAN_POINT ('', (6.46687502928295E-17, 0.264030209926055, -1.05612083970422));
#57 = CARTESIAN_POINT ('', (-0.113708426393069, 0.68190305080077, -2.72761220320308));
#58 = CARTESIAN_POINT ('', (-0.510450104051723, 1.16991854969711, -4.67967419878844));
#59 = CARTESIAN_POINT ('', (-0.969387099583316, 1.43920730943647, -5.75682923774587));
#60 = CARTESIAN_POINT ('', (-1.33611693333041, 1.5, -6.));
#61 = CARTESIAN_POINT ('', (-1.5, 1.5, -6.));
#62 = CARTESIAN_POINT ('', (0., 0., 0.));
#63 = CARTESIAN_POINT ('', (3.08148791101958E-33, 0.264030209926055, -6.46687502928295E-17));
#64 = CARTESIAN_POINT ('', (-0.113708426393069, 0.681903050800771, -1.67018077698396E-16));
#65 = CARTESIAN_POINT ('', (-0.510450104051723, 1.16991854969711, -2.86547401429936E-16));
#66 = CARTESIAN_POINT ('', (-0.969387099583316, 1.43920730943647, -3.52504124962169E-16));
#67 = CARTESIAN_POINT ('', (-1.33611693333041, 1.5, -3.67394039744206E-16));
#68 = CARTESIAN_POINT ('', (-1.5, 1.5, -3.67394039744206E-16));
#69 = (
   BOUNDED_SURFACE ()
   B_SPLINE_SURFACE (5, 3, ((#27, #28, #29, #30, #31, #32, #33), (#34, #35, #36, #37, #38, #39, #40), (#41, #42, #43, #44, #45, #46, #47), (#48, #49, #50, #51, #52, #53, #54), (#55, #56, #57, #58, #59, #60, #61), (#62, #63, #64, #65, #66, #67, #68)), .UNSPECIFIED., .T., .F., .U.)
   B_SPLINE_SURFACE_WITH_KNOTS ((6, 6), (4, 1, 1, 1, 4), (0., 1.), (0., 0.33617370428258, 0.532939663384363, 0.791337598803809, 1.), .UNSPECIFIED.)
   SURFACE ()
   GEOMETRIC_REPRESENTATION_ITEM ()
   RATIONAL_B_SPLINE_SURFACE (((5., 5., 5., 5., 5., 5., 5.), (1., 1., 1., 1., 1., 1., 1.), (1., 1., 1., 1., 1., 1., 1.), (1., 1., 1., 1., 1., 1., 1.), (1., 1., 1., 1., 1., 1., 1.), (5., 5., 5., 5., 5., 5., 5.)))
   REPRESENTATION_ITEM ('')
);
#70 = ADVANCED_FACE ('', (#26), #69, .F.);
#71 = CARTESIAN_POINT ('', (-12., 1.5, -3.67394039744206E-16));
#72 = VERTEX_POINT ('', #71);
#73 = CARTESIAN_POINT ('', (-1.5, 1.5, -3.67394039744206E-16));
#74 = CARTESIAN_POINT ('', (-5., 1.5, -3.67394039744206E-16));
#75 = CARTESIAN_POINT ('', (-8.5, 1.5, -3.67394039744206E-16));
#76 = CARTESIAN_POINT ('', (-12., 1.5, -3.67394039744206E-16));
#77 = B_SPLINE_CURVE_WITH_KNOTS ('', 3, (#73, #74, #75, #76), .UNSPECIFIED., .F., .U., (4, 4), (0., 1.), .UNSPECIFIED.);
#78 = EDGE_CURVE ('', #4, #72, #77, .T.);
#79 = ORIENTED_EDGE ('', *, *, #78, .F.);
#80 = ORIENTED_EDGE ('', *, *, #23, .T.);
#81 = ORIENTED_EDGE ('', *, *, #78, .T.);
#82 = CARTESIAN_POINT ('', (-12., 1.5, -3.67394039744206E-16));
#83 = CARTESIAN_POINT ('', (-12., 1.5, 6.));
#84 = CARTESIAN_POINT ('', (-12., -4.5, 3.));
#85 = CARTESIAN_POINT ('', (-12., -4.5, -3.));
#86 = CARTESIAN_POINT ('', (-12., 1.5, -6.));
#87 = CARTESIAN_POINT ('', (-12., 1.5, -3.67394039744206E-16));
#88 = (
   BOUNDED_CURVE ()
   B_SPLINE_CURVE (5, (#82, #83, #84, #85, #86, #87), .UNSPECIFIED., .T., .U.)
   B_SPLINE_CURVE_WITH_KNOTS ((6, 6), (0., 1.), .UNSPECIFIED.)
   CURVE ()
   GEOMETRIC_REPRESENTATION_ITEM ()
   RATIONAL_B_SPLINE_CURVE ((5., 1., 1., 1., 1., 5.))
   REPRESENTATION_ITEM ('')
);
#89 = EDGE_CURVE ('', #72, #72, #88, .T.);
#90 = ORIENTED_EDGE ('', *, *, #89, .F.);
#91 = EDGE_LOOP ('', (#79, #80, #81, #90));
#92 = FACE_OUTER_BOUND ('', #91, .F.);
#93 = CARTESIAN_POINT ('', (-1.5, 1.5, -3.67394039744206E-16));
#94 = CARTESIAN_POINT ('', (-5., 1.5, -3.67394039744206E-16));
#95 = CARTESIAN_POINT ('', (-8.5, 1.5, -3.67394039744206E-16));
#96 = CARTESIAN_POINT ('', (-12., 1.5, -3.67394039744206E-16));
#97 = CARTESIAN_POINT ('', (-1.5, 1.5, 6.));
#98 = CARTESIAN_POINT ('', (-5., 1.5, 6.));
#99 = CARTESIAN_POINT ('', (-8.5, 1.5, 6.));
#100 = CARTESIAN_POINT ('', (-12., 1.5, 6.));
#101 = CARTESIAN_POINT ('', (-1.5, -4.5, 3.));
#102 = CARTESIAN_POINT ('', (-5., -4.5, 3.));
#103 = CARTESIAN_POINT ('', (-8.5, -4.5, 3.));
#104 = CARTESIAN_POINT ('', (-12., -4.5, 3.));
#105 = CARTESIAN_POINT ('', (-1.5, -4.5, -3.));
#106 = CARTESIAN_POINT ('', (-5., -4.5, -3.));
#107 = CARTESIAN_POINT ('', (-8.5, -4.5, -3.));
#108 = CARTESIAN_POINT ('', (-12., -4.5, -3.));
#109 = CARTESIAN_POINT ('', (-1.5, 1.5, -6.));
#110 = CARTESIAN_POINT ('', (-5., 1.5, -6.));
#111 = CARTESIAN_POINT ('', (-8.5, 1.5, -6.00000000000001));
#112 = CARTESIAN_POINT ('', (-12., 1.5, -6.));
#113 = CARTESIAN_POINT ('', (-1.5, 1.5, -3.67394039744206E-16));
#114 = CARTESIAN_POINT ('', (-5., 1.5, -3.67394039744206E-16));
#115 = CARTESIAN_POINT ('', (-8.5, 1.5, -3.67394039744206E-16));
#116 = CARTESIAN_POINT ('', (-12., 1.5, -3.67394039744206E-16));
#117 = (
   BOUNDED_SURFACE ()
   B_SPLINE_SURFACE (5, 3, ((#93, #94, #95, #96), (#97, #98, #99, #100), (#101, #102, #103, #104), (#105, #106, #107, #108), (#109, #110, #111, #112), (#113, #114, #115, #116)), .UNSPECIFIED., .T., .F., .U.)
   B_SPLINE_SURFACE_WITH_KNOTS ((6, 6), (4, 4), (0., 1.), (0., 1.), .UNSPECIFIED.)
   SURFACE ()
   GEOMETRIC_REPRESENTATION_ITEM ()
   RATIONAL_B_SPLINE_SURFACE (((5., 5., 5., 5.), (1., 1., 1., 1.), (1., 1., 1., 1.), (1., 1., 1., 1.), (1., 1., 1., 1.), (5., 5., 5., 5.)))
   REPRESENTATION_ITEM ('')
);
#118 = ADVANCED_FACE ('', (#92), #117, .F.);
#119 = CARTESIAN_POINT ('', (-37.75, 1.5, -3.67394039744206E-16));
#120 = VERTEX_POINT ('', #119);
#121 = CARTESIAN_POINT ('', (-12., 1.5, -3.67394039744206E-16));
#122 = CARTESIAN_POINT ('', (-20.5833333333333, 1.5, -3.67394039744206E-16));
#123 = CARTESIAN_POINT ('', (-29.1666666666668, 1.5, -3.67394039744206E-16));
#124 = CARTESIAN_POINT ('', (-37.75, 1.5, -3.67394039744206E-16));
#125 = B_SPLINE_CURVE_WITH_KNOTS ('', 3, (#121, #122, #123, #124), .UNSPECIFIED., .F., .U., (4, 4), (0., 1.), .UNSPECIFIED.);
#126 = EDGE_CURVE ('', #72, #120, #125, .T.);
#127 = ORIENTED_EDGE ('', *, *, #126, .F.);
#128 = ORIENTED_EDGE ('', *, *, #89, .T.);
#129 = ORIENTED_EDGE ('', *, *, #126, .T.);
#130 = CARTESIAN_POINT ('', (-37.75, 1.5, -3.67394039744206E-16));
#131 = CARTESIAN_POINT ('', (-37.75, 1.49999999999999, 6.));
#132 = CARTESIAN_POINT ('', (-37.75, -4.5, 2.99999999999999));
#133 = CARTESIAN_POINT ('', (-37.75, -4.49999999999999, -3.00000000000001));
#134 = CARTESIAN_POINT ('', (-37.75, 1.50000000000001, -6.));
#135 = CARTESIAN_POINT ('', (-37.75, 1.5, -3.67394039744206E-16));
#136 = (
   BOUNDED_CURVE ()
   B_SPLINE_CURVE (5, (#130, #131, #132, #133, #134, #135), .UNSPECIFIED., .T., .U.)
   B_SPLINE_CURVE_WITH_KNOTS ((6, 6), (0., 1.), .UNSPECIFIED.)
   CURVE ()
   GEOMETRIC_REPRESENTATION_ITEM ()
   RATIONAL_B_SPLINE_CURVE ((5., 1., 1., 1., 1., 5.))
   REPRESENTATION_ITEM ('')
);
#137 = EDGE_CURVE ('', #120, #120, #136, .T.);
#138 = ORIENTED_EDGE ('', *, *, #137, .F.);
#139 = EDGE_LOOP ('', (#127, #128, #129, #138));
#140 = FACE_OUTER_BOUND ('', #139, .F.);
#141 = CARTESIAN_POINT ('', (-12., 1.5, -3.67394039744206E-16));
#142 = CARTESIAN_POINT ('', (-20.5833333333333, 1.5, -3.67394039744206E-16));
#143 = CARTESIAN_POINT ('', (-29.1666666666668, 1.5, -3.67394039744206E-16));
#144 = CARTESIAN_POINT ('', (-37.75, 1.5, -3.67394039744206E-16));
#145 = CARTESIAN_POINT ('', (-12., 1.5, 6.));
#146 = CARTESIAN_POINT ('', (-20.5833333333333, 1.5, 6.));
#147 = CARTESIAN_POINT ('', (-29.1666666666668, 1.5, 6.00000000000001));
#148 = CARTESIAN_POINT ('', (-37.75, 1.49999999999999, 6.));
#149 = CARTESIAN_POINT ('', (-12., -4.5, 3.));
#150 = CARTESIAN_POINT ('', (-20.5833333333333, -4.5, 3.));
#151 = CARTESIAN_POINT ('', (-29.1666666666668, -4.50000000000001, 3.));
#152 = CARTESIAN_POINT ('', (-37.75, -4.5, 2.99999999999999));
#153 = CARTESIAN_POINT ('', (-12., -4.5, -3.));
#154 = CARTESIAN_POINT ('', (-20.5833333333333, -4.5, -3.));
#155 = CARTESIAN_POINT ('', (-29.1666666666668, -4.5, -3.00000000000001));
#156 = CARTESIAN_POINT ('', (-37.75, -4.49999999999999, -3.00000000000001));
#157 = CARTESIAN_POINT ('', (-12., 1.5, -6.));
#158 = CARTESIAN_POINT ('', (-20.5833333333333, 1.50000000000001, -6.));
#159 = CARTESIAN_POINT ('', (-29.1666666666668, 1.50000000000001, -6.00000000000001));
#160 = CARTESIAN_POINT ('', (-37.75, 1.50000000000001, -6.));
#161 = CARTESIAN_POINT ('', (-12., 1.5, -3.67394039744206E-16));
#162 = CARTESIAN_POINT ('', (-20.5833333333333, 1.5, -3.67394039744206E-16));
#163 = CARTESIAN_POINT ('', (-29.1666666666668, 1.5, -3.67394039744206E-16));
#164 = CARTESIAN_POINT ('', (-37.75, 1.5, -3.67394039744206E-16));
#165 = (
   BOUNDED_SURFACE ()
   B_SPLINE_SURFACE (5, 3, ((#141, #142, #143, #144), (#145, #146, #147, #148), (#149, #150, #151, #152), (#153, #154, #155, #156), (#157, #158, #159, #160), (#161, #162, #163, #164)), .UNSPECIFIED., .T., .F., .U.)
   B_SPLINE_SURFACE_WITH_KNOTS ((6, 6), (4, 4), (0., 1.), (0., 1.), .UNSPECIFIED.)
   SURFACE ()
   GEOMETRIC_REPRESENTATION_ITEM ()
   RATIONAL_B_SPLINE_SURFACE (((5., 5., 5., 5.), (1., 1., 1., 1.), (1., 1., 1., 1.), (1., 1., 1., 1.), (1., 1., 1., 1.), (5., 5., 5., 5.)))
   REPRESENTATION_ITEM ('')
);
#166 = ADVANCED_FACE ('', (#140), #165, .F.);
#167 = CARTESIAN_POINT ('', (-38., 1.25, -3.06161699786838E-16));
#168 = VERTEX_POINT ('', #167);
#169 = CARTESIAN_POINT ('', (-38., 2.32682891837997E-15, -2.32682891837997E-15));
#170 = VERTEX_POINT ('', #169);
#171 = CARTESIAN_POINT ('', (-38., 1.25, -3.06161699786838E-16));
#172 = CARTESIAN_POINT ('', (-38., 2.32682891837997E-15, -2.32682891837997E-15));
#173 = B_SPLINE_CURVE_WITH_KNOTS ('', 1, (#171, #172), .UNSPECIFIED., .F., .U., (2, 2), (0., 1.), .UNSPECIFIED.);
#174 = EDGE_CURVE ('', #168, #170, #173, .T.);
#175 = ORIENTED_EDGE ('', *, *, #174, .F.);
#176 = CARTESIAN_POINT ('', (-38., 1.25, -3.06161699786838E-16));
#177 = CARTESIAN_POINT ('', (-38., 1.24999999999999, 5.));
#178 = CARTESIAN_POINT ('', (-38., -3.75, 2.49999999999999));
#179 = CARTESIAN_POINT ('', (-38., -3.74999999999999, -2.50000000000001));
#180 = CARTESIAN_POINT ('', (-38., 1.25000000000001, -5.));
#181 = CARTESIAN_POINT ('', (-38., 1.25, -3.06161699786838E-16));
#182 = (
   BOUNDED_CURVE ()
   B_SPLINE_CURVE (5, (#176, #177, #178, #179, #180, #181), .UNSPECIFIED., .T., .U.)
   B_SPLINE_CURVE_WITH_KNOTS ((6, 6), (0., 1.), .UNSPECIFIED.)
   CURVE ()
   GEOMETRIC_REPRESENTATION_ITEM ()
   RATIONAL_B_SPLINE_CURVE ((5., 1., 1., 1., 1., 5.))
   REPRESENTATION_ITEM ('')
);
#183 = EDGE_CURVE ('', #168, #168, #182, .T.);
#184 = ORIENTED_EDGE ('', *, *, #183, .T.);
#185 = ORIENTED_EDGE ('', *, *, #174, .T.);
#186 = EDGE_LOOP ('', (#175, #184, #185));
#187 = FACE_OUTER_BOUND ('', #186, .F.);
#188 = CARTESIAN_POINT ('', (-38., 1.25, -3.06161699786838E-16));
#189 = CARTESIAN_POINT ('', (-38., 2.32682891837997E-15, -2.32682891837997E-15));
#190 = CARTESIAN_POINT ('', (-38., 1.24999999999999, 5.));
#191 = CARTESIAN_POINT ('', (-38., 2.32682891837997E-15, -2.32682891837997E-15));
#192 = CARTESIAN_POINT ('', (-38., -3.75, 2.49999999999999));
#193 = CARTESIAN_POINT ('', (-38., 2.32682891837997E-15, -2.32682891837997E-15));
#194 = CARTESIAN_POINT ('', (-38., -3.74999999999999, -2.50000000000001));
#195 = CARTESIAN_POINT ('', (-38., 2.32682891837997E-15, -2.32682891837997E-15));
#196 = CARTESIAN_POINT ('', (-38., 1.25000000000001, -5.));
#197 = CARTESIAN_POINT ('', (-38., 2.32682891837997E-15, -2.32682891837997E-15));
#198 = CARTESIAN_POINT ('', (-38., 1.25, -3.06161699786838E-16));
#199 = CARTESIAN_POINT ('', (-38., 2.32682891837997E-15, -2.32682891837997E-15));
#200 = (
   BOUNDED_SURFACE ()
   B_SPLINE_SURFACE (5, 1, ((#188, #189), (#190, #191), (#192, #193), (#194, #195), (#196, #197), (#198, #199)), .UNSPECIFIED., .T., .F., .U.)
   B_SPLINE_SURFACE_WITH_KNOTS ((6, 6), (2, 2), (0., 1.), (0., 1.), .UNSPECIFIED.)
   SURFACE ()
   GEOMETRIC_REPRESENTATION_ITEM ()
   RATIONAL_B_SPLINE_SURFACE (((5., 5.), (1., 1.), (1., 1.), (1., 1.), (1., 1.), (5., 5.)))
   REPRESENTATION_ITEM ('')
);
#201 = ADVANCED_FACE ('', (#187), #200, .F.);
#202 = CARTESIAN_POINT ('', (-37.75, 1.5, -3.67394039744206E-16));
#203 = CARTESIAN_POINT ('', (-37.8333333333333, 1.41666666666667, -3.46983259758417E-16));
#204 = CARTESIAN_POINT ('', (-37.9166666666667, 1.33333333333334, -3.26572479772628E-16));
#205 = CARTESIAN_POINT ('', (-38., 1.25, -3.06161699786838E-16));
#206 = B_SPLINE_CURVE_WITH_KNOTS ('', 3, (#202, #203, #204, #205), .UNSPECIFIED., .F., .U., (4, 4), (0., 1.), .UNSPECIFIED.);
#207 = EDGE_CURVE ('', #120, #168, #206, .T.);
#208 = ORIENTED_EDGE ('', *, *, #207, .F.);
#209 = ORIENTED_EDGE ('', *, *, #137, .T.);
#210 = ORIENTED_EDGE ('', *, *, #207, .T.);
#211 = ORIENTED_EDGE ('', *, *, #183, .F.);
#212 = EDGE_LOOP ('', (#208, #209, #210, #211));
#213 = FACE_OUTER_BOUND ('', #212, .F.);
#214 = CARTESIAN_POINT ('', (-37.75, 1.5, -3.67394039744206E-16));
#215 = CARTESIAN_POINT ('', (-37.8333333333333, 1.41666666666667, -3.46983259758417E-16));
#216 = CARTESIAN_POINT ('', (-37.9166666666667, 1.33333333333334, -3.26572479772628E-16));
#217 = CARTESIAN_POINT ('', (-38., 1.25, -3.06161699786838E-16));
#218 = CARTESIAN_POINT ('', (-37.75, 1.49999999999999, 6.));
#219 = CARTESIAN_POINT ('', (-37.8333333333333, 1.41666666666666, 5.66666666666667));
#220 = CARTESIAN_POINT ('', (-37.9166666666667, 1.33333333333333, 5.33333333333334));
#221 = CARTESIAN_POINT ('', (-38., 1.24999999999999, 5.));
#222 = CARTESIAN_POINT ('', (-37.75, -4.5, 2.99999999999999));
#223 = CARTESIAN_POINT ('', (-37.8333333333333, -4.25, 2.83333333333333));
#224 = CARTESIAN_POINT ('', (-37.9166666666667, -4.00000000000001, 2.66666666666666));
#225 = CARTESIAN_POINT ('', (-38., -3.75, 2.49999999999999));
#226 = CARTESIAN_POINT ('', (-37.75, -4.49999999999999, -3.00000000000001));
#227 = CARTESIAN_POINT ('', (-37.8333333333333, -4.25, -2.83333333333334));
#228 = CARTESIAN_POINT ('', (-37.9166666666667, -4., -2.66666666666668));
#229 = CARTESIAN_POINT ('', (-38., -3.74999999999999, -2.50000000000001));
#230 = CARTESIAN_POINT ('', (-37.75, 1.50000000000001, -6.));
#231 = CARTESIAN_POINT ('', (-37.8333333333333, 1.41666666666668, -5.66666666666667));
#232 = CARTESIAN_POINT ('', (-37.9166666666667, 1.33333333333335, -5.33333333333334));
#233 = CARTESIAN_POINT ('', (-38., 1.25000000000001, -5.));
#234 = CARTESIAN_POINT ('', (-37.75, 1.5, -3.67394039744206E-16));
#235 = CARTESIAN_POINT ('', (-37.8333333333333, 1.41666666666667, -3.46983259758417E-16));
#236 = CARTESIAN_POINT ('', (-37.9166666666667, 1.33333333333334, -3.26572479772628E-16));
#237 = CARTESIAN_POINT ('', (-38., 1.25, -3.06161699786838E-16));
#238 = (
   BOUNDED_SURFACE ()
   B_SPLINE_SURFACE (5, 3, ((#214, #215, #216, #217), (#218, #219, #220, #221), (#222, #223, #224, #225), (#226, #227, #228, #229), (#230, #231, #232, #233), (#234, #235, #236, #237)), .UNSPECIFIED., .T., .F., .U.)
   B_SPLINE_SURFACE_WITH_KNOTS ((6, 6), (4, 4), (0., 1.), (0., 1.), .UNSPECIFIED.)
   SURFACE ()
   GEOMETRIC_REPRESENTATION_ITEM ()
   RATIONAL_B_SPLINE_SURFACE (((5., 5., 5., 5.), (1., 1., 1., 1.), (1., 1., 1., 1.), (1., 1., 1., 1.), (1., 1., 1., 1.), (5., 5., 5., 5.)))
   REPRESENTATION_ITEM ('')
);
#239 = ADVANCED_FACE ('', (#213), #238, .F.);
#240 = CLOSED_SHELL ('', (#70, #118, #166, #201, #239));
#241 = MANIFOLD_SOLID_BREP ('', #240);
#242 = (
   LENGTH_UNIT ()
   NAMED_UNIT (*)
   SI_UNIT (.MILLI., .METRE.)
);
#243 = (
   NAMED_UNIT (*)
   SI_UNIT ($, .STERADIAN.)
   SOLID_ANGLE_UNIT ()
);
#244 = (
   NAMED_UNIT (*)
   SI_UNIT ($, .RADIAN.)
   PLANE_ANGLE_UNIT ()
);
#245 = UNCERTAINTY_MEASURE_WITH_UNIT (LENGTH_MEASURE(0.001), #242, 'DISTANCE_ACCURACY_VALUE', '');
#246 = (
   GEOMETRIC_REPRESENTATION_CONTEXT (3)
   GLOBAL_UNCERTAINTY_ASSIGNED_CONTEXT ((#245))
   GLOBAL_UNIT_ASSIGNED_CONTEXT ((#242, #243, #244))
   REPRESENTATION_CONTEXT ('', '3D')
);
#247 = SHAPE_REPRESENTATION ('', (), #246);
#248 = APPLICATION_CONTEXT ('configuration controlled 3D designs of mechanical parts and assemblies');
#249 = APPLICATION_PROTOCOL_DEFINITION ('International Standard', 'config_control_design', 1997, #248);
#250 = MECHANICAL_CONTEXT ('', #248, 'mechanical');
#251 = PRODUCT ('', '', '', (#250));
#252 = PERSON_AND_ORGANIZATION_ROLE ('design_owner');
#253 = PERSON ('', '', $, $, $, $);
#254 = ORGANIZATION ($, '', '');
#255 = PERSON_AND_ORGANIZATION (#253, #254);
#256 = CC_DESIGN_PERSON_AND_ORGANIZATION_ASSIGNMENT (#255, #252, (#251));
#257 = PRODUCT_RELATED_PRODUCT_CATEGORY ('detail', $, (#251));
#258 = PRODUCT_DEFINITION_FORMATION_WITH_SPECIFIED_SOURCE ('', '', #251, .NOT_KNOWN.);
#259 = APPROVAL_STATUS ('approved');
#260 = APPROVAL (#259, '');
#261 = CALENDAR_DATE (2020, 19, 4);
#262 = COORDINATED_UNIVERSAL_TIME_OFFSET (0, $, .AHEAD.);
#263 = LOCAL_TIME (8, 29, 36., #262);
#264 = DATE_AND_TIME (#261, #263);
#265 = APPROVAL_DATE_TIME (#264, #260);
#266 = APPROVAL_ROLE ('');
#267 = PERSON ('', '', $, $, $, $);
#268 = ORGANIZATION ($, '', '');
#269 = PERSON_AND_ORGANIZATION (#267, #268);
#270 = APPROVAL_PERSON_ORGANIZATION (#269, #260, #266);
#271 = CC_DESIGN_APPROVAL (#260, (#258));
#272 = PERSON_AND_ORGANIZATION_ROLE ('creator');
#273 = PERSON ('', '', $, $, $, $);
#274 = ORGANIZATION ($, '', '');
#275 = PERSON_AND_ORGANIZATION (#273, #274);
#276 = CC_DESIGN_PERSON_AND_ORGANIZATION_ASSIGNMENT (#275, #272, (#258));
#277 = PERSON_AND_ORGANIZATION_ROLE ('part_supplier');
#278 = PERSON ('', '', $, $, $, $);
#279 = ORGANIZATION ($, '', '');
#280 = PERSON_AND_ORGANIZATION (#278, #279);
#281 = CC_DESIGN_PERSON_AND_ORGANIZATION_ASSIGNMENT (#280, #277, (#258));
#282 = SECURITY_CLASSIFICATION_LEVEL ('unclassified');
#283 = SECURITY_CLASSIFICATION ('', '', #282);
#284 = APPROVAL_STATUS ('approved');
#285 = APPROVAL (#284, '');
#286 = CALENDAR_DATE (2020, 19, 4);
#287 = COORDINATED_UNIVERSAL_TIME_OFFSET (0, $, .AHEAD.);
#288 = LOCAL_TIME (8, 29, 36., #287);
#289 = DATE_AND_TIME (#286, #288);
#290 = APPROVAL_DATE_TIME (#289, #285);
#291 = APPROVAL_ROLE ('');
#292 = PERSON ('', '', $, $, $, $);
#293 = ORGANIZATION ($, '', '');
#294 = PERSON_AND_ORGANIZATION (#292, #293);
#295 = APPROVAL_PERSON_ORGANIZATION (#294, #285, #291);
#296 = CC_DESIGN_APPROVAL (#285, (#283));
#297 = DATE_TIME_ROLE ('classification_date');
#298 = CALENDAR_DATE (2020, 19, 4);
#299 = COORDINATED_UNIVERSAL_TIME_OFFSET (0, $, .AHEAD.);
#300 = LOCAL_TIME (8, 29, 36., #299);
#301 = DATE_AND_TIME (#298, #300);
#302 = CC_DESIGN_DATE_AND_TIME_ASSIGNMENT (#301, #297, (#283));
#303 = PERSON_AND_ORGANIZATION_ROLE ('classification_officer');
#304 = PERSON ('', '', $, $, $, $);
#305 = ORGANIZATION ($, '', '');
#306 = PERSON_AND_ORGANIZATION (#304, #305);
#307 = CC_DESIGN_PERSON_AND_ORGANIZATION_ASSIGNMENT (#306, #303, (#283));
#308 = CC_DESIGN_SECURITY_CLASSIFICATION (#283, (#258));
#309 = DESIGN_CONTEXT ('', #248, 'design');
#310 = PRODUCT_DEFINITION ('', '', #258, #309);
#311 = APPROVAL_STATUS ('approved');
#312 = APPROVAL (#311, '');
#313 = CALENDAR_DATE (2020, 19, 4);
#314 = COORDINATED_UNIVERSAL_TIME_OFFSET (0, $, .AHEAD.);
#315 = LOCAL_TIME (8, 29, 36., #314);
#316 = DATE_AND_TIME (#313, #315);
#317 = APPROVAL_DATE_TIME (#316, #312);
#318 = APPROVAL_ROLE ('');
#319 = PERSON ('', '', $, $, $, $);
#320 = ORGANIZATION ($, '', '');
#321 = PERSON_AND_ORGANIZATION (#319, #320);
#322 = APPROVAL_PERSON_ORGANIZATION (#321, #312, #318);
#323 = CC_DESIGN_APPROVAL (#312, (#310));
#324 = DATE_TIME_ROLE ('creation_date');
#325 = CALENDAR_DATE (2020, 19, 4);
#326 = COORDINATED_UNIVERSAL_TIME_OFFSET (0, $, .AHEAD.);
#327 = LOCAL_TIME (8, 29, 36., #326);
#328 = DATE_AND_TIME (#325, #327);
#329 = CC_DESIGN_DATE_AND_TIME_ASSIGNMENT (#328, #324, (#310));
#330 = PERSON_AND_ORGANIZATION_ROLE ('creator');
#331 = PERSON ('', '', $, $, $, $);
#332 = ORGANIZATION ($, '', '');
#333 = PERSON_AND_ORGANIZATION (#331, #332);
#334 = CC_DESIGN_PERSON_AND_ORGANIZATION_ASSIGNMENT (#333, #330, (#310));
#335 = PRODUCT_DEFINITION_SHAPE ('', '', #310);
#336 = SHAPE_DEFINITION_REPRESENTATION (#335, #247);
#337 = SHAPE_REPRESENTATION_RELATIONSHIP ('', '', #247, #338);
#338 = ADVANCED_BREP_SHAPE_REPRESENTATION ('', (#241), #246);
ENDSEC;
END-ISO-10303-21;
