ISO-10303-21;
HEADER;
FILE_DESCRIPTION ((), '1');
FILE_NAME ('C:\\Users\\Nick\\Desktop\\TEAMS STP FILES\\138B & 138B-N5\\138B 0600.STP', '2020-04-19T08:37:13', ('Unknown'), ('M.A.FORD Europe Ltd'), 'OneCNC-XR7 Mill 3D Expert', 'OneCNC-XR7 Mill 3D Expert', '');
FILE_SCHEMA (('CONFIG_CONTROL_DESIGN'));
ENDSEC;

DATA;
#1 = CARTESIAN_POINT ('', (0., 0., 0.));
#2 = VERTEX_POINT ('', #1);
#3 = CARTESIAN_POINT ('', (-3., 3., -7.34788079488412E-16));
#4 = VERTEX_POINT ('', #3);
#5 = CARTESIAN_POINT ('', (0., 0., 0.));
#6 = CARTESIAN_POINT ('', (3.08148791101958E-33, 0.32776613333918, -8.02795492125462E-17));
#7 = CARTESIAN_POINT ('', (-0.0875129073392732, 0.855684764045561, -2.09582321473511E-16));
#8 = CARTESIAN_POINT ('', (-0.436645053847223, 1.62116904246166, -3.97071895745491E-16));
#9 = CARTESIAN_POINT ('', (-1.02090020810345, 2.33983709939422, -5.73094802859872E-16));
#10 = CARTESIAN_POINT ('', (-1.93877419916663, 2.87841461887293, -7.05008249924337E-16));
#11 = CARTESIAN_POINT ('', (-2.67223386666082, 3., -7.34788079488411E-16));
#12 = CARTESIAN_POINT ('', (-3., 3., -7.34788079488412E-16));
#13 = B_SPLINE_CURVE_WITH_KNOTS ('', 3, (#5, #6, #7, #8, #9, #10, #11, #12), .UNSPECIFIED., .F., .U., (4, 1, 1, 1, 1, 4), (0., 0.208662401196191, 0.33617370428258, 0.532939663384363, 0.791337598803809, 1.), .UNSPECIFIED.);
#14 = EDGE_CURVE ('', #2, #4, #13, .T.);
#15 = ORIENTED_EDGE ('', *, *, #14, .F.);
#16 = ORIENTED_EDGE ('', *, *, #14, .T.);
#17 = CARTESIAN_POINT ('', (-3., 3., -7.34788079488412E-16));
#18 = CARTESIAN_POINT ('', (-3., 3., 12.));
#19 = CARTESIAN_POINT ('', (-3., -9., 6.));
#20 = CARTESIAN_POINT ('', (-3., -9., -6.));
#21 = CARTESIAN_POINT ('', (-3., 3., -12.));
#22 = CARTESIAN_POINT ('', (-3., 3., -7.34788079488412E-16));
#23 = (
   BOUNDED_CURVE ()
   B_SPLINE_CURVE (5, (#17, #18, #19, #20, #21, #22), .UNSPECIFIED., .T., .U.)
   B_SPLINE_CURVE_WITH_KNOTS ((6, 6), (0., 1.), .UNSPECIFIED.)
   CURVE ()
   GEOMETRIC_REPRESENTATION_ITEM ()
   RATIONAL_B_SPLINE_CURVE ((5., 1., 1., 1., 1., 5.))
   REPRESENTATION_ITEM ('')
);
#24 = EDGE_CURVE ('', #4, #4, #23, .T.);
#25 = ORIENTED_EDGE ('', *, *, #24, .F.);
#26 = EDGE_LOOP ('', (#15, #16, #25));
#27 = FACE_OUTER_BOUND ('', #26, .F.);
#28 = CARTESIAN_POINT ('', (0., 0., 0.));
#29 = CARTESIAN_POINT ('', (3.08148791101958E-33, 0.32776613333918, -8.02795492125462E-17));
#30 = CARTESIAN_POINT ('', (-0.0875129073392732, 0.855684764045561, -2.09582321473511E-16));
#31 = CARTESIAN_POINT ('', (-0.436645053847223, 1.62116904246166, -3.97071895745491E-16));
#32 = CARTESIAN_POINT ('', (-1.02090020810345, 2.33983709939422, -5.73094802859872E-16));
#33 = CARTESIAN_POINT ('', (-1.93877419916663, 2.87841461887293, -7.05008249924337E-16));
#34 = CARTESIAN_POINT ('', (-2.67223386666082, 3., -7.34788079488411E-16));
#35 = CARTESIAN_POINT ('', (-3., 3., -7.34788079488412E-16));
#36 = CARTESIAN_POINT ('', (0., 0., 0.));
#37 = CARTESIAN_POINT ('', (-8.02795492125462E-17, 0.32776613333918, 1.31106453335672));
#38 = CARTESIAN_POINT ('', (-0.0875129073392734, 0.855684764045562, 3.42273905618225));
#39 = CARTESIAN_POINT ('', (-0.436645053847223, 1.62116904246166, 6.48467616984665));
#40 = CARTESIAN_POINT ('', (-1.02090020810345, 2.33983709939422, 9.35934839757688));
#41 = CARTESIAN_POINT ('', (-1.93877419916663, 2.87841461887293, 11.5136584754917));
#42 = CARTESIAN_POINT ('', (-2.67223386666082, 3., 12.));
#43 = CARTESIAN_POINT ('', (-3., 3., 12.));
#44 = CARTESIAN_POINT ('', (0., 0., 0.));
#45 = CARTESIAN_POINT ('', (-1.20419323818819E-16, -0.98329840001754, 0.65553226667836));
#46 = CARTESIAN_POINT ('', (-0.0875129073392736, -2.56705429213668, 1.71136952809112));
#47 = CARTESIAN_POINT ('', (-0.436645053847223, -4.86350712738499, 3.24233808492333));
#48 = CARTESIAN_POINT ('', (-1.02090020810345, -7.01951129818266, 4.67967419878844));
#49 = CARTESIAN_POINT ('', (-1.93877419916663, -8.6352438566188, 5.75682923774587));
#50 = CARTESIAN_POINT ('', (-2.67223386666082, -8.99999999999999, 6.));
#51 = CARTESIAN_POINT ('', (-3., -9., 6.));
#52 = CARTESIAN_POINT ('', (0., 0., 0.));
#53 = CARTESIAN_POINT ('', (-4.01397746062732E-17, -0.98329840001754, -0.65553226667836));
#54 = CARTESIAN_POINT ('', (-0.0875129073392733, -2.56705429213669, -1.71136952809112));
#55 = CARTESIAN_POINT ('', (-0.436645053847223, -4.86350712738499, -3.24233808492332));
#56 = CARTESIAN_POINT ('', (-1.02090020810345, -7.01951129818266, -4.67967419878844));
#57 = CARTESIAN_POINT ('', (-1.93877419916663, -8.6352438566188, -5.75682923774586));
#58 = CARTESIAN_POINT ('', (-2.67223386666082, -9., -5.99999999999999));
#59 = CARTESIAN_POINT ('', (-3., -9., -6.));
#60 = CARTESIAN_POINT ('', (0., 0., 0.));
#61 = CARTESIAN_POINT ('', (8.02795492125462E-17, 0.32776613333918, -1.31106453335672));
#62 = CARTESIAN_POINT ('', (-0.087512907339273, 0.855684764045561, -3.42273905618225));
#63 = CARTESIAN_POINT ('', (-0.436645053847222, 1.62116904246166, -6.48467616984665));
#64 = CARTESIAN_POINT ('', (-1.02090020810345, 2.33983709939422, -9.35934839757688));
#65 = CARTESIAN_POINT ('', (-1.93877419916663, 2.87841461887293, -11.5136584754917));
#66 = CARTESIAN_POINT ('', (-2.67223386666082, 3., -12.));
#67 = CARTESIAN_POINT ('', (-3., 3., -12.));
#68 = CARTESIAN_POINT ('', (0., 0., 0.));
#69 = CARTESIAN_POINT ('', (3.08148791101958E-33, 0.32776613333918, -8.02795492125462E-17));
#70 = CARTESIAN_POINT ('', (-0.0875129073392732, 0.855684764045561, -2.09582321473511E-16));
#71 = CARTESIAN_POINT ('', (-0.436645053847223, 1.62116904246166, -3.97071895745491E-16));
#72 = CARTESIAN_POINT ('', (-1.02090020810345, 2.33983709939422, -5.73094802859872E-16));
#73 = CARTESIAN_POINT ('', (-1.93877419916663, 2.87841461887293, -7.05008249924337E-16));
#74 = CARTESIAN_POINT ('', (-2.67223386666082, 3., -7.34788079488411E-16));
#75 = CARTESIAN_POINT ('', (-3., 3., -7.34788079488412E-16));
#76 = (
   BOUNDED_SURFACE ()
   B_SPLINE_SURFACE (5, 3, ((#28, #29, #30, #31, #32, #33, #34, #35), (#36, #37, #38, #39, #40, #41, #42, #43), (#44, #45, #46, #47, #48, #49, #50, #51), (#52, #53, #54, #55, #56, #57, #58, #59), (#60, #61, #62, #63, #64, #65, #66, #67), (#68, #69, #70, #71, #72, #73, #74, #75)), .UNSPECIFIED., .T., .F., .U.)
   B_SPLINE_SURFACE_WITH_KNOTS ((6, 6), (4, 1, 1, 1, 1, 4), (0., 1.), (0., 0.208662401196191, 0.33617370428258, 0.532939663384363, 0.791337598803809, 1.), .UNSPECIFIED.)
   SURFACE ()
   GEOMETRIC_REPRESENTATION_ITEM ()
   RATIONAL_B_SPLINE_SURFACE (((5., 5., 5., 5., 5., 5., 5., 5.), (1., 1., 1., 1., 1., 1., 1., 1.), (1., 1., 1., 1., 1., 1., 1., 1.), (1., 1., 1., 1., 1., 1., 1., 1.), (1., 1., 1., 1., 1., 1., 1., 1.), (5., 5., 5., 5., 5., 5., 5., 5.)))
   REPRESENTATION_ITEM ('')
);
#77 = ADVANCED_FACE ('', (#27), #76, .F.);
#78 = CARTESIAN_POINT ('', (-20., 3., -7.34788079488412E-16));
#79 = VERTEX_POINT ('', #78);
#80 = CARTESIAN_POINT ('', (-3., 3., -7.34788079488412E-16));
#81 = CARTESIAN_POINT ('', (-8.66666666666667, 3., -7.34788079488412E-16));
#82 = CARTESIAN_POINT ('', (-14.3333333333333, 3., -7.34788079488412E-16));
#83 = CARTESIAN_POINT ('', (-20., 3., -7.34788079488412E-16));
#84 = B_SPLINE_CURVE_WITH_KNOTS ('', 3, (#80, #81, #82, #83), .UNSPECIFIED., .F., .U., (4, 4), (0., 1.), .UNSPECIFIED.);
#85 = EDGE_CURVE ('', #4, #79, #84, .T.);
#86 = ORIENTED_EDGE ('', *, *, #85, .F.);
#87 = ORIENTED_EDGE ('', *, *, #24, .T.);
#88 = ORIENTED_EDGE ('', *, *, #85, .T.);
#89 = CARTESIAN_POINT ('', (-20., 3., -7.34788079488412E-16));
#90 = CARTESIAN_POINT ('', (-20., 3., 12.));
#91 = CARTESIAN_POINT ('', (-20., -9., 6.));
#92 = CARTESIAN_POINT ('', (-20., -9., -6.));
#93 = CARTESIAN_POINT ('', (-20., 3., -12.));
#94 = CARTESIAN_POINT ('', (-20., 3., -7.34788079488412E-16));
#95 = (
   BOUNDED_CURVE ()
   B_SPLINE_CURVE (5, (#89, #90, #91, #92, #93, #94), .UNSPECIFIED., .T., .U.)
   B_SPLINE_CURVE_WITH_KNOTS ((6, 6), (0., 1.), .UNSPECIFIED.)
   CURVE ()
   GEOMETRIC_REPRESENTATION_ITEM ()
   RATIONAL_B_SPLINE_CURVE ((5., 1., 1., 1., 1., 5.))
   REPRESENTATION_ITEM ('')
);
#96 = EDGE_CURVE ('', #79, #79, #95, .T.);
#97 = ORIENTED_EDGE ('', *, *, #96, .F.);
#98 = EDGE_LOOP ('', (#86, #87, #88, #97));
#99 = FACE_OUTER_BOUND ('', #98, .F.);
#100 = CARTESIAN_POINT ('', (-3., 3., -7.34788079488412E-16));
#101 = CARTESIAN_POINT ('', (-8.66666666666667, 3., -7.34788079488412E-16));
#102 = CARTESIAN_POINT ('', (-14.3333333333333, 3., -7.34788079488412E-16));
#103 = CARTESIAN_POINT ('', (-20., 3., -7.34788079488412E-16));
#104 = CARTESIAN_POINT ('', (-3., 3., 12.));
#105 = CARTESIAN_POINT ('', (-8.66666666666667, 3., 12.));
#106 = CARTESIAN_POINT ('', (-14.3333333333334, 3., 12.));
#107 = CARTESIAN_POINT ('', (-20., 3., 12.));
#108 = CARTESIAN_POINT ('', (-3., -9., 6.));
#109 = CARTESIAN_POINT ('', (-8.66666666666667, -9., 6.));
#110 = CARTESIAN_POINT ('', (-14.3333333333334, -9.00000000000001, 6.));
#111 = CARTESIAN_POINT ('', (-20., -9., 6.));
#112 = CARTESIAN_POINT ('', (-3., -9., -6.));
#113 = CARTESIAN_POINT ('', (-8.66666666666667, -9., -6.));
#114 = CARTESIAN_POINT ('', (-14.3333333333334, -9.00000000000001, -6.00000000000001));
#115 = CARTESIAN_POINT ('', (-20., -9., -6.));
#116 = CARTESIAN_POINT ('', (-3., 3., -12.));
#117 = CARTESIAN_POINT ('', (-8.66666666666666, 3., -12.));
#118 = CARTESIAN_POINT ('', (-14.3333333333333, 3., -12.));
#119 = CARTESIAN_POINT ('', (-20., 3., -12.));
#120 = CARTESIAN_POINT ('', (-3., 3., -7.34788079488412E-16));
#121 = CARTESIAN_POINT ('', (-8.66666666666667, 3., -7.34788079488412E-16));
#122 = CARTESIAN_POINT ('', (-14.3333333333333, 3., -7.34788079488412E-16));
#123 = CARTESIAN_POINT ('', (-20., 3., -7.34788079488412E-16));
#124 = (
   BOUNDED_SURFACE ()
   B_SPLINE_SURFACE (5, 3, ((#100, #101, #102, #103), (#104, #105, #106, #107), (#108, #109, #110, #111), (#112, #113, #114, #115), (#116, #117, #118, #119), (#120, #121, #122, #123)), .UNSPECIFIED., .T., .F., .U.)
   B_SPLINE_SURFACE_WITH_KNOTS ((6, 6), (4, 4), (0., 1.), (0., 1.), .UNSPECIFIED.)
   SURFACE ()
   GEOMETRIC_REPRESENTATION_ITEM ()
   RATIONAL_B_SPLINE_SURFACE (((5., 5., 5., 5.), (1., 1., 1., 1.), (1., 1., 1., 1.), (1., 1., 1., 1.), (1., 1., 1., 1.), (5., 5., 5., 5.)))
   REPRESENTATION_ITEM ('')
);
#125 = ADVANCED_FACE ('', (#99), #124, .F.);
#126 = CARTESIAN_POINT ('', (-63.75, 3., -7.34788079488412E-16));
#127 = VERTEX_POINT ('', #126);
#128 = CARTESIAN_POINT ('', (-20., 3., -7.34788079488412E-16));
#129 = CARTESIAN_POINT ('', (-34.5833333333334, 3., -7.34788079488411E-16));
#130 = CARTESIAN_POINT ('', (-49.1666666666667, 3.00000000000001, -7.34788079488413E-16));
#131 = CARTESIAN_POINT ('', (-63.75, 3., -7.34788079488412E-16));
#132 = B_SPLINE_CURVE_WITH_KNOTS ('', 3, (#128, #129, #130, #131), .UNSPECIFIED., .F., .U., (4, 4), (0., 1.), .UNSPECIFIED.);
#133 = EDGE_CURVE ('', #79, #127, #132, .T.);
#134 = ORIENTED_EDGE ('', *, *, #133, .F.);
#135 = ORIENTED_EDGE ('', *, *, #96, .T.);
#136 = ORIENTED_EDGE ('', *, *, #133, .T.);
#137 = CARTESIAN_POINT ('', (-63.75, 3., -7.34788079488412E-16));
#138 = CARTESIAN_POINT ('', (-63.75, 2.99999999999999, 12.));
#139 = CARTESIAN_POINT ('', (-63.75, -9., 5.99999999999999));
#140 = CARTESIAN_POINT ('', (-63.75, -8.99999999999999, -6.00000000000001));
#141 = CARTESIAN_POINT ('', (-63.75, 3.00000000000002, -12.));
#142 = CARTESIAN_POINT ('', (-63.75, 3., -7.34788079488412E-16));
#143 = (
   BOUNDED_CURVE ()
   B_SPLINE_CURVE (5, (#137, #138, #139, #140, #141, #142), .UNSPECIFIED., .T., .U.)
   B_SPLINE_CURVE_WITH_KNOTS ((6, 6), (0., 1.), .UNSPECIFIED.)
   CURVE ()
   GEOMETRIC_REPRESENTATION_ITEM ()
   RATIONAL_B_SPLINE_CURVE ((5., 1., 1., 1., 1., 5.))
   REPRESENTATION_ITEM ('')
);
#144 = EDGE_CURVE ('', #127, #127, #143, .T.);
#145 = ORIENTED_EDGE ('', *, *, #144, .F.);
#146 = EDGE_LOOP ('', (#134, #135, #136, #145));
#147 = FACE_OUTER_BOUND ('', #146, .F.);
#148 = CARTESIAN_POINT ('', (-20., 3., -7.34788079488412E-16));
#149 = CARTESIAN_POINT ('', (-34.5833333333334, 3., -7.34788079488411E-16));
#150 = CARTESIAN_POINT ('', (-49.1666666666667, 3.00000000000001, -7.34788079488413E-16));
#151 = CARTESIAN_POINT ('', (-63.75, 3., -7.34788079488412E-16));
#152 = CARTESIAN_POINT ('', (-20., 3., 12.));
#153 = CARTESIAN_POINT ('', (-34.5833333333334, 2.99999999999999, 12.));
#154 = CARTESIAN_POINT ('', (-49.1666666666667, 3., 12.));
#155 = CARTESIAN_POINT ('', (-63.75, 2.99999999999999, 12.));
#156 = CARTESIAN_POINT ('', (-20., -9., 6.));
#157 = CARTESIAN_POINT ('', (-34.5833333333334, -8.99999999999999, 5.99999999999999));
#158 = CARTESIAN_POINT ('', (-49.1666666666667, -9.00000000000001, 6.));
#159 = CARTESIAN_POINT ('', (-63.75, -9., 5.99999999999999));
#160 = CARTESIAN_POINT ('', (-20., -9., -6.));
#161 = CARTESIAN_POINT ('', (-34.5833333333334, -8.99999999999999, -6.));
#162 = CARTESIAN_POINT ('', (-49.1666666666667, -9., -6.00000000000002));
#163 = CARTESIAN_POINT ('', (-63.75, -8.99999999999999, -6.00000000000001));
#164 = CARTESIAN_POINT ('', (-20., 3., -12.));
#165 = CARTESIAN_POINT ('', (-34.5833333333334, 3., -12.));
#166 = CARTESIAN_POINT ('', (-49.1666666666667, 3.00000000000002, -12.));
#167 = CARTESIAN_POINT ('', (-63.75, 3.00000000000002, -12.));
#168 = CARTESIAN_POINT ('', (-20., 3., -7.34788079488412E-16));
#169 = CARTESIAN_POINT ('', (-34.5833333333334, 3., -7.34788079488411E-16));
#170 = CARTESIAN_POINT ('', (-49.1666666666667, 3.00000000000001, -7.34788079488413E-16));
#171 = CARTESIAN_POINT ('', (-63.75, 3., -7.34788079488412E-16));
#172 = (
   BOUNDED_SURFACE ()
   B_SPLINE_SURFACE (5, 3, ((#148, #149, #150, #151), (#152, #153, #154, #155), (#156, #157, #158, #159), (#160, #161, #162, #163), (#164, #165, #166, #167), (#168, #169, #170, #171)), .UNSPECIFIED., .T., .F., .U.)
   B_SPLINE_SURFACE_WITH_KNOTS ((6, 6), (4, 4), (0., 1.), (0., 1.), .UNSPECIFIED.)
   SURFACE ()
   GEOMETRIC_REPRESENTATION_ITEM ()
   RATIONAL_B_SPLINE_SURFACE (((5., 5., 5., 5.), (1., 1., 1., 1.), (1., 1., 1., 1.), (1., 1., 1., 1.), (1., 1., 1., 1.), (5., 5., 5., 5.)))
   REPRESENTATION_ITEM ('')
);
#173 = ADVANCED_FACE ('', (#147), #172, .F.);
#174 = CARTESIAN_POINT ('', (-64., 2.75, -6.73555739531044E-16));
#175 = VERTEX_POINT ('', #174);
#176 = CARTESIAN_POINT ('', (-64., 3.91886975727153E-15, -3.91886975727153E-15));
#177 = VERTEX_POINT ('', #176);
#178 = CARTESIAN_POINT ('', (-64., 2.75, -6.73555739531044E-16));
#179 = CARTESIAN_POINT ('', (-64., 3.91886975727153E-15, -3.91886975727153E-15));
#180 = B_SPLINE_CURVE_WITH_KNOTS ('', 1, (#178, #179), .UNSPECIFIED., .F., .U., (2, 2), (0., 1.), .UNSPECIFIED.);
#181 = EDGE_CURVE ('', #175, #177, #180, .T.);
#182 = ORIENTED_EDGE ('', *, *, #181, .F.);
#183 = CARTESIAN_POINT ('', (-64., 2.75, -6.73555739531044E-16));
#184 = CARTESIAN_POINT ('', (-64., 2.74999999999999, 11.));
#185 = CARTESIAN_POINT ('', (-64., -8.25, 5.49999999999999));
#186 = CARTESIAN_POINT ('', (-64., -8.24999999999999, -5.50000000000001));
#187 = CARTESIAN_POINT ('', (-64., 2.75000000000002, -11.));
#188 = CARTESIAN_POINT ('', (-64., 2.75, -6.73555739531044E-16));
#189 = (
   BOUNDED_CURVE ()
   B_SPLINE_CURVE (5, (#183, #184, #185, #186, #187, #188), .UNSPECIFIED., .T., .U.)
   B_SPLINE_CURVE_WITH_KNOTS ((6, 6), (0., 1.), .UNSPECIFIED.)
   CURVE ()
   GEOMETRIC_REPRESENTATION_ITEM ()
   RATIONAL_B_SPLINE_CURVE ((5., 1., 1., 1., 1., 5.))
   REPRESENTATION_ITEM ('')
);
#190 = EDGE_CURVE ('', #175, #175, #189, .T.);
#191 = ORIENTED_EDGE ('', *, *, #190, .T.);
#192 = ORIENTED_EDGE ('', *, *, #181, .T.);
#193 = EDGE_LOOP ('', (#182, #191, #192));
#194 = FACE_OUTER_BOUND ('', #193, .F.);
#195 = CARTESIAN_POINT ('', (-64., 2.75, -6.73555739531044E-16));
#196 = CARTESIAN_POINT ('', (-64., 3.91886975727153E-15, -3.91886975727153E-15));
#197 = CARTESIAN_POINT ('', (-64., 2.74999999999999, 11.));
#198 = CARTESIAN_POINT ('', (-64., 3.91886975727153E-15, -3.91886975727153E-15));
#199 = CARTESIAN_POINT ('', (-64., -8.25, 5.49999999999999));
#200 = CARTESIAN_POINT ('', (-64., 3.91886975727153E-15, -3.91886975727153E-15));
#201 = CARTESIAN_POINT ('', (-64., -8.24999999999999, -5.50000000000001));
#202 = CARTESIAN_POINT ('', (-64., 3.91886975727153E-15, -3.91886975727153E-15));
#203 = CARTESIAN_POINT ('', (-64., 2.75000000000002, -11.));
#204 = CARTESIAN_POINT ('', (-64., 3.91886975727153E-15, -3.91886975727153E-15));
#205 = CARTESIAN_POINT ('', (-64., 2.75, -6.73555739531044E-16));
#206 = CARTESIAN_POINT ('', (-64., 3.91886975727153E-15, -3.91886975727153E-15));
#207 = (
   BOUNDED_SURFACE ()
   B_SPLINE_SURFACE (5, 1, ((#195, #196), (#197, #198), (#199, #200), (#201, #202), (#203, #204), (#205, #206)), .UNSPECIFIED., .T., .F., .U.)
   B_SPLINE_SURFACE_WITH_KNOTS ((6, 6), (2, 2), (0., 1.), (0., 1.), .UNSPECIFIED.)
   SURFACE ()
   GEOMETRIC_REPRESENTATION_ITEM ()
   RATIONAL_B_SPLINE_SURFACE (((5., 5.), (1., 1.), (1., 1.), (1., 1.), (1., 1.), (5., 5.)))
   REPRESENTATION_ITEM ('')
);
#208 = ADVANCED_FACE ('', (#194), #207, .F.);
#209 = CARTESIAN_POINT ('', (-63.75, 3., -7.34788079488412E-16));
#210 = CARTESIAN_POINT ('', (-63.8333333333332, 2.91666666666668, -7.14377299502624E-16));
#211 = CARTESIAN_POINT ('', (-63.9166666666666, 2.83333333333333, -6.93966519516832E-16));
#212 = CARTESIAN_POINT ('', (-64., 2.75, -6.73555739531044E-16));
#213 = B_SPLINE_CURVE_WITH_KNOTS ('', 3, (#209, #210, #211, #212), .UNSPECIFIED., .F., .U., (4, 4), (0., 1.), .UNSPECIFIED.);
#214 = EDGE_CURVE ('', #127, #175, #213, .T.);
#215 = ORIENTED_EDGE ('', *, *, #214, .F.);
#216 = ORIENTED_EDGE ('', *, *, #144, .T.);
#217 = ORIENTED_EDGE ('', *, *, #214, .T.);
#218 = ORIENTED_EDGE ('', *, *, #190, .F.);
#219 = EDGE_LOOP ('', (#215, #216, #217, #218));
#220 = FACE_OUTER_BOUND ('', #219, .F.);
#221 = CARTESIAN_POINT ('', (-63.75, 3., -7.34788079488412E-16));
#222 = CARTESIAN_POINT ('', (-63.8333333333332, 2.91666666666668, -7.14377299502624E-16));
#223 = CARTESIAN_POINT ('', (-63.9166666666666, 2.83333333333333, -6.93966519516832E-16));
#224 = CARTESIAN_POINT ('', (-64., 2.75, -6.73555739531044E-16));
#225 = CARTESIAN_POINT ('', (-63.75, 2.99999999999999, 12.));
#226 = CARTESIAN_POINT ('', (-63.8333333333332, 2.91666666666666, 11.6666666666667));
#227 = CARTESIAN_POINT ('', (-63.9166666666666, 2.83333333333332, 11.3333333333333));
#228 = CARTESIAN_POINT ('', (-64., 2.74999999999999, 11.));
#229 = CARTESIAN_POINT ('', (-63.75, -9., 5.99999999999999));
#230 = CARTESIAN_POINT ('', (-63.8333333333332, -8.75000000000002, 5.83333333333333));
#231 = CARTESIAN_POINT ('', (-63.9166666666666, -8.49999999999998, 5.66666666666664));
#232 = CARTESIAN_POINT ('', (-64., -8.25, 5.49999999999999));
#233 = CARTESIAN_POINT ('', (-63.75, -8.99999999999999, -6.00000000000001));
#234 = CARTESIAN_POINT ('', (-63.8333333333332, -8.75000000000001, -5.83333333333336));
#235 = CARTESIAN_POINT ('', (-63.9166666666666, -8.49999999999997, -5.66666666666667));
#236 = CARTESIAN_POINT ('', (-64., -8.24999999999999, -5.50000000000001));
#237 = CARTESIAN_POINT ('', (-63.75, 3.00000000000002, -12.));
#238 = CARTESIAN_POINT ('', (-63.8333333333332, 2.91666666666669, -11.6666666666667));
#239 = CARTESIAN_POINT ('', (-63.9166666666666, 2.83333333333334, -11.3333333333333));
#240 = CARTESIAN_POINT ('', (-64., 2.75000000000002, -11.));
#241 = CARTESIAN_POINT ('', (-63.75, 3., -7.34788079488412E-16));
#242 = CARTESIAN_POINT ('', (-63.8333333333332, 2.91666666666668, -7.14377299502624E-16));
#243 = CARTESIAN_POINT ('', (-63.9166666666666, 2.83333333333333, -6.93966519516832E-16));
#244 = CARTESIAN_POINT ('', (-64., 2.75, -6.73555739531044E-16));
#245 = (
   BOUNDED_SURFACE ()
   B_SPLINE_SURFACE (5, 3, ((#221, #222, #223, #224), (#225, #226, #227, #228), (#229, #230, #231, #232), (#233, #234, #235, #236), (#237, #238, #239, #240), (#241, #242, #243, #244)), .UNSPECIFIED., .T., .F., .U.)
   B_SPLINE_SURFACE_WITH_KNOTS ((6, 6), (4, 4), (0., 1.), (0., 1.), .UNSPECIFIED.)
   SURFACE ()
   GEOMETRIC_REPRESENTATION_ITEM ()
   RATIONAL_B_SPLINE_SURFACE (((5., 5., 5., 5.), (1., 1., 1., 1.), (1., 1., 1., 1.), (1., 1., 1., 1.), (1., 1., 1., 1.), (5., 5., 5., 5.)))
   REPRESENTATION_ITEM ('')
);
#246 = ADVANCED_FACE ('', (#220), #245, .F.);
#247 = CLOSED_SHELL ('', (#77, #125, #173, #208, #246));
#248 = MANIFOLD_SOLID_BREP ('', #247);
#249 = (
   LENGTH_UNIT ()
   NAMED_UNIT (*)
   SI_UNIT (.MILLI., .METRE.)
);
#250 = (
   NAMED_UNIT (*)
   SI_UNIT ($, .STERADIAN.)
   SOLID_ANGLE_UNIT ()
);
#251 = (
   NAMED_UNIT (*)
   SI_UNIT ($, .RADIAN.)
   PLANE_ANGLE_UNIT ()
);
#252 = UNCERTAINTY_MEASURE_WITH_UNIT (LENGTH_MEASURE(0.001), #249, 'DISTANCE_ACCURACY_VALUE', '');
#253 = (
   GEOMETRIC_REPRESENTATION_CONTEXT (3)
   GLOBAL_UNCERTAINTY_ASSIGNED_CONTEXT ((#252))
   GLOBAL_UNIT_ASSIGNED_CONTEXT ((#249, #250, #251))
   REPRESENTATION_CONTEXT ('', '3D')
);
#254 = SHAPE_REPRESENTATION ('', (), #253);
#255 = APPLICATION_CONTEXT ('configuration controlled 3D designs of mechanical parts and assemblies');
#256 = APPLICATION_PROTOCOL_DEFINITION ('International Standard', 'config_control_design', 1997, #255);
#257 = MECHANICAL_CONTEXT ('', #255, 'mechanical');
#258 = PRODUCT ('', '', '', (#257));
#259 = PERSON_AND_ORGANIZATION_ROLE ('design_owner');
#260 = PERSON ('', '', $, $, $, $);
#261 = ORGANIZATION ($, '', '');
#262 = PERSON_AND_ORGANIZATION (#260, #261);
#263 = CC_DESIGN_PERSON_AND_ORGANIZATION_ASSIGNMENT (#262, #259, (#258));
#264 = PRODUCT_RELATED_PRODUCT_CATEGORY ('detail', $, (#258));
#265 = PRODUCT_DEFINITION_FORMATION_WITH_SPECIFIED_SOURCE ('', '', #258, .NOT_KNOWN.);
#266 = APPROVAL_STATUS ('approved');
#267 = APPROVAL (#266, '');
#268 = CALENDAR_DATE (2020, 19, 4);
#269 = COORDINATED_UNIVERSAL_TIME_OFFSET (0, $, .AHEAD.);
#270 = LOCAL_TIME (8, 37, 13., #269);
#271 = DATE_AND_TIME (#268, #270);
#272 = APPROVAL_DATE_TIME (#271, #267);
#273 = APPROVAL_ROLE ('');
#274 = PERSON ('', '', $, $, $, $);
#275 = ORGANIZATION ($, '', '');
#276 = PERSON_AND_ORGANIZATION (#274, #275);
#277 = APPROVAL_PERSON_ORGANIZATION (#276, #267, #273);
#278 = CC_DESIGN_APPROVAL (#267, (#265));
#279 = PERSON_AND_ORGANIZATION_ROLE ('creator');
#280 = PERSON ('', '', $, $, $, $);
#281 = ORGANIZATION ($, '', '');
#282 = PERSON_AND_ORGANIZATION (#280, #281);
#283 = CC_DESIGN_PERSON_AND_ORGANIZATION_ASSIGNMENT (#282, #279, (#265));
#284 = PERSON_AND_ORGANIZATION_ROLE ('part_supplier');
#285 = PERSON ('', '', $, $, $, $);
#286 = ORGANIZATION ($, '', '');
#287 = PERSON_AND_ORGANIZATION (#285, #286);
#288 = CC_DESIGN_PERSON_AND_ORGANIZATION_ASSIGNMENT (#287, #284, (#265));
#289 = SECURITY_CLASSIFICATION_LEVEL ('unclassified');
#290 = SECURITY_CLASSIFICATION ('', '', #289);
#291 = APPROVAL_STATUS ('approved');
#292 = APPROVAL (#291, '');
#293 = CALENDAR_DATE (2020, 19, 4);
#294 = COORDINATED_UNIVERSAL_TIME_OFFSET (0, $, .AHEAD.);
#295 = LOCAL_TIME (8, 37, 13., #294);
#296 = DATE_AND_TIME (#293, #295);
#297 = APPROVAL_DATE_TIME (#296, #292);
#298 = APPROVAL_ROLE ('');
#299 = PERSON ('', '', $, $, $, $);
#300 = ORGANIZATION ($, '', '');
#301 = PERSON_AND_ORGANIZATION (#299, #300);
#302 = APPROVAL_PERSON_ORGANIZATION (#301, #292, #298);
#303 = CC_DESIGN_APPROVAL (#292, (#290));
#304 = DATE_TIME_ROLE ('classification_date');
#305 = CALENDAR_DATE (2020, 19, 4);
#306 = COORDINATED_UNIVERSAL_TIME_OFFSET (0, $, .AHEAD.);
#307 = LOCAL_TIME (8, 37, 13., #306);
#308 = DATE_AND_TIME (#305, #307);
#309 = CC_DESIGN_DATE_AND_TIME_ASSIGNMENT (#308, #304, (#290));
#310 = PERSON_AND_ORGANIZATION_ROLE ('classification_officer');
#311 = PERSON ('', '', $, $, $, $);
#312 = ORGANIZATION ($, '', '');
#313 = PERSON_AND_ORGANIZATION (#311, #312);
#314 = CC_DESIGN_PERSON_AND_ORGANIZATION_ASSIGNMENT (#313, #310, (#290));
#315 = CC_DESIGN_SECURITY_CLASSIFICATION (#290, (#265));
#316 = DESIGN_CONTEXT ('', #255, 'design');
#317 = PRODUCT_DEFINITION ('', '', #265, #316);
#318 = APPROVAL_STATUS ('approved');
#319 = APPROVAL (#318, '');
#320 = CALENDAR_DATE (2020, 19, 4);
#321 = COORDINATED_UNIVERSAL_TIME_OFFSET (0, $, .AHEAD.);
#322 = LOCAL_TIME (8, 37, 13., #321);
#323 = DATE_AND_TIME (#320, #322);
#324 = APPROVAL_DATE_TIME (#323, #319);
#325 = APPROVAL_ROLE ('');
#326 = PERSON ('', '', $, $, $, $);
#327 = ORGANIZATION ($, '', '');
#328 = PERSON_AND_ORGANIZATION (#326, #327);
#329 = APPROVAL_PERSON_ORGANIZATION (#328, #319, #325);
#330 = CC_DESIGN_APPROVAL (#319, (#317));
#331 = DATE_TIME_ROLE ('creation_date');
#332 = CALENDAR_DATE (2020, 19, 4);
#333 = COORDINATED_UNIVERSAL_TIME_OFFSET (0, $, .AHEAD.);
#334 = LOCAL_TIME (8, 37, 13., #333);
#335 = DATE_AND_TIME (#332, #334);
#336 = CC_DESIGN_DATE_AND_TIME_ASSIGNMENT (#335, #331, (#317));
#337 = PERSON_AND_ORGANIZATION_ROLE ('creator');
#338 = PERSON ('', '', $, $, $, $);
#339 = ORGANIZATION ($, '', '');
#340 = PERSON_AND_ORGANIZATION (#338, #339);
#341 = CC_DESIGN_PERSON_AND_ORGANIZATION_ASSIGNMENT (#340, #337, (#317));
#342 = PRODUCT_DEFINITION_SHAPE ('', '', #317);
#343 = SHAPE_DEFINITION_REPRESENTATION (#342, #254);
#344 = SHAPE_REPRESENTATION_RELATIONSHIP ('', '', #254, #345);
#345 = ADVANCED_BREP_SHAPE_REPRESENTATION ('', (#248), #253);
ENDSEC;
END-ISO-10303-21;
