ISO-10303-21;
HEADER;
FILE_DESCRIPTION ((), '1');
FILE_NAME ('C:\\Users\\kevin\\156 Range\\156 1000N50A.STP', '2021-01-08T13:21:22', ('Unknown'), ('mafordeurope'), 'OneCNC-XR7 Mill 3D Expert', 'OneCNC-XR7 Mill 3D Expert', '');
FILE_SCHEMA (('CONFIG_CONTROL_DESIGN'));
ENDSEC;

DATA;
#1 = SHELL_BASED_SURFACE_MODEL ('', (#255, #304));
#2 = CARTESIAN_POINT ('', (0., 0., 0.));
#3 = VERTEX_POINT ('', #2);
#4 = CARTESIAN_POINT ('', (-5., 5., -1.22464679914735E-15));
#5 = VERTEX_POINT ('', #4);
#6 = CARTESIAN_POINT ('', (0., 0., 0.));
#7 = CARTESIAN_POINT ('', (6.16297582203915E-33, 0.546276888898633, -1.33799248687577E-16));
#8 = CARTESIAN_POINT ('', (-0.145854845565456, 1.42614127340927, -3.49303869122519E-16));
#9 = CARTESIAN_POINT ('', (-0.727741756412037, 2.70194840410276, -6.6178649290915E-16));
#10 = CARTESIAN_POINT ('', (-1.48840525154976, 3.63760905176292, -8.90957256358179E-16));
#11 = CARTESIAN_POINT ('', (-2.45576047108788, 4.34418818345896, -1.06401923075335E-15));
#12 = CARTESIAN_POINT ('', (-3.57385872659072, 4.85414515443454, -1.18892266519498E-15));
#13 = CARTESIAN_POINT ('', (-4.45372311110137, 5., -1.22464679914735E-15));
#14 = CARTESIAN_POINT ('', (-5., 5., -1.22464679914735E-15));
#15 = B_SPLINE_CURVE_WITH_KNOTS ('', 3, (#6, #7, #8, #9, #10, #11, #12, #13, #14), .UNSPECIFIED., .F., .U., (4, 1, 1, 1, 1, 1, 4), (0., 0.208662401196191, 0.33617370428258, 0.532939663384363, 0.66382629571742, 0.791337598803809, 1.), .UNSPECIFIED.);
#16 = EDGE_CURVE ('', #3, #5, #15, .T.);
#17 = ORIENTED_EDGE ('', *, *, #16, .F.);
#18 = ORIENTED_EDGE ('', *, *, #16, .T.);
#19 = CARTESIAN_POINT ('', (-5., 5., -1.22464679914735E-15));
#20 = CARTESIAN_POINT ('', (-5., 5., 20.));
#21 = CARTESIAN_POINT ('', (-5., -15., 10.));
#22 = CARTESIAN_POINT ('', (-5., -15., -10.));
#23 = CARTESIAN_POINT ('', (-5., 5., -20.));
#24 = CARTESIAN_POINT ('', (-5., 5., -1.22464679914735E-15));
#25 = (
   BOUNDED_CURVE ()
   B_SPLINE_CURVE (5, (#19, #20, #21, #22, #23, #24), .UNSPECIFIED., .T., .U.)
   B_SPLINE_CURVE_WITH_KNOTS ((6, 6), (0., 1.), .UNSPECIFIED.)
   CURVE ()
   GEOMETRIC_REPRESENTATION_ITEM ()
   RATIONAL_B_SPLINE_CURVE ((5., 1., 1., 1., 1., 5.))
   REPRESENTATION_ITEM ('')
);
#26 = EDGE_CURVE ('', #5, #5, #25, .T.);
#27 = ORIENTED_EDGE ('', *, *, #26, .F.);
#28 = EDGE_LOOP ('', (#17, #18, #27));
#29 = FACE_OUTER_BOUND ('', #28, .T.);
#30 = CARTESIAN_POINT ('', (0., 0., 0.));
#31 = CARTESIAN_POINT ('', (6.16297582203915E-33, 0.546276888898633, -1.33799248687577E-16));
#32 = CARTESIAN_POINT ('', (-0.145854845565456, 1.42614127340927, -3.49303869122519E-16));
#33 = CARTESIAN_POINT ('', (-0.727741756412037, 2.70194840410276, -6.6178649290915E-16));
#34 = CARTESIAN_POINT ('', (-1.48840525154976, 3.63760905176292, -8.90957256358179E-16));
#35 = CARTESIAN_POINT ('', (-2.45576047108788, 4.34418818345896, -1.06401923075335E-15));
#36 = CARTESIAN_POINT ('', (-3.57385872659072, 4.85414515443454, -1.18892266519498E-15));
#37 = CARTESIAN_POINT ('', (-4.45372311110137, 5., -1.22464679914735E-15));
#38 = CARTESIAN_POINT ('', (-5., 5., -1.22464679914735E-15));
#39 = CARTESIAN_POINT ('', (0., 0., 0.));
#40 = CARTESIAN_POINT ('', (-1.33799248687577E-16, 0.546276888898633, 2.18510755559453));
#41 = CARTESIAN_POINT ('', (-0.145854845565456, 1.42614127340927, 5.70456509363709));
#42 = CARTESIAN_POINT ('', (-0.727741756412038, 2.70194840410277, 10.8077936164111));
#43 = CARTESIAN_POINT ('', (-1.48840525154976, 3.63760905176292, 14.5504362070517));
#44 = CARTESIAN_POINT ('', (-2.45576047108788, 4.34418818345896, 17.3767527338358));
#45 = CARTESIAN_POINT ('', (-3.57385872659073, 4.85414515443455, 19.4165806177382));
#46 = CARTESIAN_POINT ('', (-4.45372311110137, 5.00000000000001, 20.));
#47 = CARTESIAN_POINT ('', (-5., 5., 20.));
#48 = CARTESIAN_POINT ('', (0., 0., 0.));
#49 = CARTESIAN_POINT ('', (-2.00698873031366E-16, -1.6388306666959, 1.09255377779727));
#50 = CARTESIAN_POINT ('', (-0.145854845565456, -4.27842382022782, 2.85228254681855));
#51 = CARTESIAN_POINT ('', (-0.727741756412038, -8.10584521230829, 5.40389680820553));
#52 = CARTESIAN_POINT ('', (-1.48840525154976, -10.9128271552887, 7.27521810352584));
#53 = CARTESIAN_POINT ('', (-2.45576047108788, -13.0325645503769, 8.68837636691791));
#54 = CARTESIAN_POINT ('', (-3.57385872659073, -14.5624354633036, 9.70829030886909));
#55 = CARTESIAN_POINT ('', (-4.45372311110137, -15., 10.));
#56 = CARTESIAN_POINT ('', (-5., -15., 10.));
#57 = CARTESIAN_POINT ('', (0., 0., 0.));
#58 = CARTESIAN_POINT ('', (-6.68996243437886E-17, -1.6388306666959, -1.09255377779727));
#59 = CARTESIAN_POINT ('', (-0.145854845565456, -4.27842382022782, -2.85228254681855));
#60 = CARTESIAN_POINT ('', (-0.727741756412037, -8.10584521230829, -5.40389680820553));
#61 = CARTESIAN_POINT ('', (-1.48840525154976, -10.9128271552888, -7.27521810352583));
#62 = CARTESIAN_POINT ('', (-2.45576047108788, -13.0325645503769, -8.68837636691791));
#63 = CARTESIAN_POINT ('', (-3.57385872659072, -14.5624354633036, -9.70829030886908));
#64 = CARTESIAN_POINT ('', (-4.45372311110137, -15., -10.));
#65 = CARTESIAN_POINT ('', (-5., -15., -10.));
#66 = CARTESIAN_POINT ('', (0., 0., 0.));
#67 = CARTESIAN_POINT ('', (1.33799248687577E-16, 0.546276888898632, -2.18510755559453));
#68 = CARTESIAN_POINT ('', (-0.145854845565456, 1.42614127340927, -5.70456509363709));
#69 = CARTESIAN_POINT ('', (-0.727741756412037, 2.70194840410276, -10.8077936164111));
#70 = CARTESIAN_POINT ('', (-1.48840525154976, 3.63760905176291, -14.5504362070517));
#71 = CARTESIAN_POINT ('', (-2.45576047108788, 4.34418818345895, -17.3767527338358));
#72 = CARTESIAN_POINT ('', (-3.57385872659072, 4.85414515443454, -19.4165806177382));
#73 = CARTESIAN_POINT ('', (-4.45372311110137, 5., -20.));
#74 = CARTESIAN_POINT ('', (-5., 5., -20.));
#75 = CARTESIAN_POINT ('', (0., 0., 0.));
#76 = CARTESIAN_POINT ('', (6.16297582203915E-33, 0.546276888898633, -1.33799248687577E-16));
#77 = CARTESIAN_POINT ('', (-0.145854845565456, 1.42614127340927, -3.49303869122519E-16));
#78 = CARTESIAN_POINT ('', (-0.727741756412037, 2.70194840410276, -6.6178649290915E-16));
#79 = CARTESIAN_POINT ('', (-1.48840525154976, 3.63760905176292, -8.90957256358179E-16));
#80 = CARTESIAN_POINT ('', (-2.45576047108788, 4.34418818345896, -1.06401923075335E-15));
#81 = CARTESIAN_POINT ('', (-3.57385872659072, 4.85414515443454, -1.18892266519498E-15));
#82 = CARTESIAN_POINT ('', (-4.45372311110137, 5., -1.22464679914735E-15));
#83 = CARTESIAN_POINT ('', (-5., 5., -1.22464679914735E-15));
#84 = (
   BOUNDED_SURFACE ()
   B_SPLINE_SURFACE (5, 3, ((#30, #31, #32, #33, #34, #35, #36, #37, #38), (#39, #40, #41, #42, #43, #44, #45, #46, #47), (#48, #49, #50, #51, #52, #53, #54, #55, #56), (#57, #58, #59, #60, #61, #62, #63, #64, #65), (#66, #67, #68, #69, #70, #71, #72, #73, #74), (#75, #76, #77, #78, #79, #80, #81, #82, #83)), .UNSPECIFIED., .T., .F., .U.)
   B_SPLINE_SURFACE_WITH_KNOTS ((6, 6), (4, 1, 1, 1, 1, 1, 4), (0., 1.), (0., 0.208662401196191, 0.33617370428258, 0.532939663384363, 0.66382629571742, 0.791337598803809, 1.), .UNSPECIFIED.)
   SURFACE ()
   GEOMETRIC_REPRESENTATION_ITEM ()
   RATIONAL_B_SPLINE_SURFACE (((5., 5., 5., 5., 5., 5., 5., 5., 5.), (1., 1., 1., 1., 1., 1., 1., 1., 1.), (1., 1., 1., 1., 1., 1., 1., 1., 1.), (1., 1., 1., 1., 1., 1., 1., 1., 1.), (1., 1., 1., 1., 1., 1., 1., 1., 1.), (5., 5., 5., 5., 5., 5., 5., 5., 5.)))
   REPRESENTATION_ITEM ('')
);
#85 = ADVANCED_FACE ('', (#29), #84, .T.);
#86 = CARTESIAN_POINT ('', (-6.5, 4.95, -1.21240033115588E-15));
#87 = VERTEX_POINT ('', #86);
#88 = CARTESIAN_POINT ('', (-5., 5., -1.22464679914735E-15));
#89 = CARTESIAN_POINT ('', (-5.5, 4.98333333333331, -1.22056464315019E-15));
#90 = CARTESIAN_POINT ('', (-6., 4.96666666666667, -1.21648248715304E-15));
#91 = CARTESIAN_POINT ('', (-6.5, 4.95, -1.21240033115588E-15));
#92 = B_SPLINE_CURVE_WITH_KNOTS ('', 3, (#88, #89, #90, #91), .UNSPECIFIED., .F., .U., (4, 4), (0., 1.), .UNSPECIFIED.);
#93 = EDGE_CURVE ('', #5, #87, #92, .T.);
#94 = ORIENTED_EDGE ('', *, *, #93, .F.);
#95 = ORIENTED_EDGE ('', *, *, #26, .T.);
#96 = ORIENTED_EDGE ('', *, *, #93, .T.);
#97 = CARTESIAN_POINT ('', (-6.5, 4.95, -1.21240033115588E-15));
#98 = CARTESIAN_POINT ('', (-6.5, 4.95, 19.8));
#99 = CARTESIAN_POINT ('', (-6.5, -14.85, 9.9));
#100 = CARTESIAN_POINT ('', (-6.5, -14.85, -9.9));
#101 = CARTESIAN_POINT ('', (-6.5, 4.95, -19.8));
#102 = CARTESIAN_POINT ('', (-6.5, 4.95, -1.21240033115588E-15));
#103 = (
   BOUNDED_CURVE ()
   B_SPLINE_CURVE (5, (#97, #98, #99, #100, #101, #102), .UNSPECIFIED., .T., .U.)
   B_SPLINE_CURVE_WITH_KNOTS ((6, 6), (0., 1.), .UNSPECIFIED.)
   CURVE ()
   GEOMETRIC_REPRESENTATION_ITEM ()
   RATIONAL_B_SPLINE_CURVE ((5., 1., 1., 1., 1., 5.))
   REPRESENTATION_ITEM ('')
);
#104 = EDGE_CURVE ('', #87, #87, #103, .T.);
#105 = ORIENTED_EDGE ('', *, *, #104, .F.);
#106 = EDGE_LOOP ('', (#94, #95, #96, #105));
#107 = FACE_OUTER_BOUND ('', #106, .T.);
#108 = CARTESIAN_POINT ('', (-5., 5., -1.22464679914735E-15));
#109 = CARTESIAN_POINT ('', (-5.5, 4.98333333333331, -1.22056464315019E-15));
#110 = CARTESIAN_POINT ('', (-6., 4.96666666666667, -1.21648248715304E-15));
#111 = CARTESIAN_POINT ('', (-6.5, 4.95, -1.21240033115588E-15));
#112 = CARTESIAN_POINT ('', (-5., 5., 20.));
#113 = CARTESIAN_POINT ('', (-5.5, 4.98333333333332, 19.9333333333333));
#114 = CARTESIAN_POINT ('', (-6., 4.96666666666668, 19.8666666666667));
#115 = CARTESIAN_POINT ('', (-6.5, 4.95, 19.8));
#116 = CARTESIAN_POINT ('', (-5., -15., 10.));
#117 = CARTESIAN_POINT ('', (-5.5, -14.9499999999999, 9.96666666666663));
#118 = CARTESIAN_POINT ('', (-6., -14.9, 9.93333333333335));
#119 = CARTESIAN_POINT ('', (-6.5, -14.85, 9.9));
#120 = CARTESIAN_POINT ('', (-5., -15., -10.));
#121 = CARTESIAN_POINT ('', (-5.5, -14.9499999999999, -9.96666666666663));
#122 = CARTESIAN_POINT ('', (-6., -14.9, -9.93333333333335));
#123 = CARTESIAN_POINT ('', (-6.5, -14.85, -9.9));
#124 = CARTESIAN_POINT ('', (-5., 5., -20.));
#125 = CARTESIAN_POINT ('', (-5.5, 4.98333333333331, -19.9333333333333));
#126 = CARTESIAN_POINT ('', (-5.99999999999999, 4.96666666666667, -19.8666666666667));
#127 = CARTESIAN_POINT ('', (-6.5, 4.95, -19.8));
#128 = CARTESIAN_POINT ('', (-5., 5., -1.22464679914735E-15));
#129 = CARTESIAN_POINT ('', (-5.5, 4.98333333333331, -1.22056464315019E-15));
#130 = CARTESIAN_POINT ('', (-6., 4.96666666666667, -1.21648248715304E-15));
#131 = CARTESIAN_POINT ('', (-6.5, 4.95, -1.21240033115588E-15));
#132 = (
   BOUNDED_SURFACE ()
   B_SPLINE_SURFACE (5, 3, ((#108, #109, #110, #111), (#112, #113, #114, #115), (#116, #117, #118, #119), (#120, #121, #122, #123), (#124, #125, #126, #127), (#128, #129, #130, #131)), .UNSPECIFIED., .T., .F., .U.)
   B_SPLINE_SURFACE_WITH_KNOTS ((6, 6), (4, 4), (0., 1.), (0., 1.), .UNSPECIFIED.)
   SURFACE ()
   GEOMETRIC_REPRESENTATION_ITEM ()
   RATIONAL_B_SPLINE_SURFACE (((5., 5., 5., 5.), (1., 1., 1., 1.), (1., 1., 1., 1.), (1., 1., 1., 1.), (1., 1., 1., 1.), (5., 5., 5., 5.)))
   REPRESENTATION_ITEM ('')
);
#133 = ADVANCED_FACE ('', (#107), #132, .T.);
#134 = CARTESIAN_POINT ('', (-50., 5., -1.22464679914735E-15));
#135 = VERTEX_POINT ('', #134);
#136 = CARTESIAN_POINT ('', (-6.5, 4.95, -1.21240033115588E-15));
#137 = CARTESIAN_POINT ('', (-21., 4.96666666666665, -1.21648248715303E-15));
#138 = CARTESIAN_POINT ('', (-35.5, 4.98333333333334, -1.2205646431502E-15));
#139 = CARTESIAN_POINT ('', (-50., 5., -1.22464679914735E-15));
#140 = B_SPLINE_CURVE_WITH_KNOTS ('', 3, (#136, #137, #138, #139), .UNSPECIFIED., .F., .U., (4, 4), (0., 1.), .UNSPECIFIED.);
#141 = EDGE_CURVE ('', #87, #135, #140, .T.);
#142 = ORIENTED_EDGE ('', *, *, #141, .F.);
#143 = ORIENTED_EDGE ('', *, *, #104, .T.);
#144 = ORIENTED_EDGE ('', *, *, #141, .T.);
#145 = CARTESIAN_POINT ('', (-50., 5., -1.22464679914735E-15));
#146 = CARTESIAN_POINT ('', (-50., 4.99999999999999, 20.));
#147 = CARTESIAN_POINT ('', (-50., -15., 9.99999999999998));
#148 = CARTESIAN_POINT ('', (-50., -15., -10.));
#149 = CARTESIAN_POINT ('', (-50., 5., -20.));
#150 = CARTESIAN_POINT ('', (-50., 5., -1.22464679914735E-15));
#151 = (
   BOUNDED_CURVE ()
   B_SPLINE_CURVE (5, (#145, #146, #147, #148, #149, #150), .UNSPECIFIED., .T., .U.)
   B_SPLINE_CURVE_WITH_KNOTS ((6, 6), (0., 1.), .UNSPECIFIED.)
   CURVE ()
   GEOMETRIC_REPRESENTATION_ITEM ()
   RATIONAL_B_SPLINE_CURVE ((5., 1., 1., 1., 1., 5.))
   REPRESENTATION_ITEM ('')
);
#152 = EDGE_CURVE ('', #135, #135, #151, .T.);
#153 = ORIENTED_EDGE ('', *, *, #152, .F.);
#154 = EDGE_LOOP ('', (#142, #143, #144, #153));
#155 = FACE_OUTER_BOUND ('', #154, .T.);
#156 = CARTESIAN_POINT ('', (-6.5, 4.95, -1.21240033115588E-15));
#157 = CARTESIAN_POINT ('', (-21., 4.96666666666665, -1.21648248715303E-15));
#158 = CARTESIAN_POINT ('', (-35.5, 4.98333333333334, -1.2205646431502E-15));
#159 = CARTESIAN_POINT ('', (-50., 5., -1.22464679914735E-15));
#160 = CARTESIAN_POINT ('', (-6.5, 4.95, 19.8));
#161 = CARTESIAN_POINT ('', (-21., 4.96666666666665, 19.8666666666666));
#162 = CARTESIAN_POINT ('', (-35.5, 4.98333333333334, 19.9333333333334));
#163 = CARTESIAN_POINT ('', (-50., 4.99999999999999, 20.));
#164 = CARTESIAN_POINT ('', (-6.5, -14.85, 9.9));
#165 = CARTESIAN_POINT ('', (-21., -14.8999999999999, 9.9333333333333));
#166 = CARTESIAN_POINT ('', (-35.5, -14.95, 9.96666666666667));
#167 = CARTESIAN_POINT ('', (-50., -15., 9.99999999999998));
#168 = CARTESIAN_POINT ('', (-6.5, -14.85, -9.9));
#169 = CARTESIAN_POINT ('', (-21., -14.8999999999999, -9.9333333333333));
#170 = CARTESIAN_POINT ('', (-35.5, -14.95, -9.96666666666668));
#171 = CARTESIAN_POINT ('', (-50., -15., -10.));
#172 = CARTESIAN_POINT ('', (-6.5, 4.95, -19.8));
#173 = CARTESIAN_POINT ('', (-21., 4.96666666666665, -19.8666666666666));
#174 = CARTESIAN_POINT ('', (-35.5, 4.98333333333334, -19.9333333333334));
#175 = CARTESIAN_POINT ('', (-50., 5., -20.));
#176 = CARTESIAN_POINT ('', (-6.5, 4.95, -1.21240033115588E-15));
#177 = CARTESIAN_POINT ('', (-21., 4.96666666666665, -1.21648248715303E-15));
#178 = CARTESIAN_POINT ('', (-35.5, 4.98333333333334, -1.2205646431502E-15));
#179 = CARTESIAN_POINT ('', (-50., 5., -1.22464679914735E-15));
#180 = (
   BOUNDED_SURFACE ()
   B_SPLINE_SURFACE (5, 3, ((#156, #157, #158, #159), (#160, #161, #162, #163), (#164, #165, #166, #167), (#168, #169, #170, #171), (#172, #173, #174, #175), (#176, #177, #178, #179)), .UNSPECIFIED., .T., .F., .U.)
   B_SPLINE_SURFACE_WITH_KNOTS ((6, 6), (4, 4), (0., 1.), (0., 1.), .UNSPECIFIED.)
   SURFACE ()
   GEOMETRIC_REPRESENTATION_ITEM ()
   RATIONAL_B_SPLINE_SURFACE (((5., 5., 5., 5.), (1., 1., 1., 1.), (1., 1., 1., 1.), (1., 1., 1., 1.), (1., 1., 1., 1.), (5., 5., 5., 5.)))
   REPRESENTATION_ITEM ('')
);
#181 = ADVANCED_FACE ('', (#155), #180, .T.);
#182 = CARTESIAN_POINT ('', (-101.75, 4.99999999999999, -1.22464679914735E-15));
#183 = VERTEX_POINT ('', #182);
#184 = CARTESIAN_POINT ('', (-50., 5., -1.22464679914735E-15));
#185 = CARTESIAN_POINT ('', (-67.25, 4.99999999999999, -1.22464679914735E-15));
#186 = CARTESIAN_POINT ('', (-84.5, 4.99999999999999, -1.22464679914735E-15));
#187 = CARTESIAN_POINT ('', (-101.75, 4.99999999999999, -1.22464679914735E-15));
#188 = B_SPLINE_CURVE_WITH_KNOTS ('', 3, (#184, #185, #186, #187), .UNSPECIFIED., .F., .U., (4, 4), (0., 1.), .UNSPECIFIED.);
#189 = EDGE_CURVE ('', #135, #183, #188, .T.);
#190 = ORIENTED_EDGE ('', *, *, #189, .F.);
#191 = ORIENTED_EDGE ('', *, *, #152, .T.);
#192 = ORIENTED_EDGE ('', *, *, #189, .T.);
#193 = CARTESIAN_POINT ('', (-101.75, 4.99999999999999, -1.22464679914735E-15));
#194 = CARTESIAN_POINT ('', (-101.75, 4.99999999999997, 19.9999999999999));
#195 = CARTESIAN_POINT ('', (-101.75, -15., 9.99999999999995));
#196 = CARTESIAN_POINT ('', (-101.75, -14.9999999999999, -9.99999999999999));
#197 = CARTESIAN_POINT ('', (-101.75, 5.00000000000001, -20.));
#198 = CARTESIAN_POINT ('', (-101.75, 4.99999999999999, -1.22464679914735E-15));
#199 = (
   BOUNDED_CURVE ()
   B_SPLINE_CURVE (5, (#193, #194, #195, #196, #197, #198), .UNSPECIFIED., .T., .U.)
   B_SPLINE_CURVE_WITH_KNOTS ((6, 6), (0., 1.), .UNSPECIFIED.)
   CURVE ()
   GEOMETRIC_REPRESENTATION_ITEM ()
   RATIONAL_B_SPLINE_CURVE ((5., 1., 1., 1., 1., 5.))
   REPRESENTATION_ITEM ('')
);
#200 = EDGE_CURVE ('', #183, #183, #199, .T.);
#201 = ORIENTED_EDGE ('', *, *, #200, .F.);
#202 = EDGE_LOOP ('', (#190, #191, #192, #201));
#203 = FACE_OUTER_BOUND ('', #202, .T.);
#204 = CARTESIAN_POINT ('', (-50., 5., -1.22464679914735E-15));
#205 = CARTESIAN_POINT ('', (-67.25, 4.99999999999999, -1.22464679914735E-15));
#206 = CARTESIAN_POINT ('', (-84.5, 4.99999999999999, -1.22464679914735E-15));
#207 = CARTESIAN_POINT ('', (-101.75, 4.99999999999999, -1.22464679914735E-15));
#208 = CARTESIAN_POINT ('', (-50., 4.99999999999999, 20.));
#209 = CARTESIAN_POINT ('', (-67.25, 4.99999999999998, 19.9999999999999));
#210 = CARTESIAN_POINT ('', (-84.5, 4.99999999999998, 20.));
#211 = CARTESIAN_POINT ('', (-101.75, 4.99999999999997, 19.9999999999999));
#212 = CARTESIAN_POINT ('', (-50., -15., 9.99999999999998));
#213 = CARTESIAN_POINT ('', (-67.25, -15., 9.99999999999996));
#214 = CARTESIAN_POINT ('', (-84.5, -15., 9.99999999999996));
#215 = CARTESIAN_POINT ('', (-101.75, -15., 9.99999999999995));
#216 = CARTESIAN_POINT ('', (-50., -15., -10.));
#217 = CARTESIAN_POINT ('', (-67.25, -14.9999999999999, -9.99999999999998));
#218 = CARTESIAN_POINT ('', (-84.5, -15., -9.99999999999999));
#219 = CARTESIAN_POINT ('', (-101.75, -14.9999999999999, -9.99999999999999));
#220 = CARTESIAN_POINT ('', (-50., 5., -20.));
#221 = CARTESIAN_POINT ('', (-67.25, 5., -19.9999999999999));
#222 = CARTESIAN_POINT ('', (-84.5, 5.00000000000001, -20.));
#223 = CARTESIAN_POINT ('', (-101.75, 5.00000000000001, -20.));
#224 = CARTESIAN_POINT ('', (-50., 5., -1.22464679914735E-15));
#225 = CARTESIAN_POINT ('', (-67.25, 4.99999999999999, -1.22464679914735E-15));
#226 = CARTESIAN_POINT ('', (-84.5, 4.99999999999999, -1.22464679914735E-15));
#227 = CARTESIAN_POINT ('', (-101.75, 4.99999999999999, -1.22464679914735E-15));
#228 = (
   BOUNDED_SURFACE ()
   B_SPLINE_SURFACE (5, 3, ((#204, #205, #206, #207), (#208, #209, #210, #211), (#212, #213, #214, #215), (#216, #217, #218, #219), (#220, #221, #222, #223), (#224, #225, #226, #227)), .UNSPECIFIED., .T., .F., .U.)
   B_SPLINE_SURFACE_WITH_KNOTS ((6, 6), (4, 4), (0., 1.), (0., 1.), .UNSPECIFIED.)
   SURFACE ()
   GEOMETRIC_REPRESENTATION_ITEM ()
   RATIONAL_B_SPLINE_SURFACE (((5., 5., 5., 5.), (1., 1., 1., 1.), (1., 1., 1., 1.), (1., 1., 1., 1.), (1., 1., 1., 1.), (5., 5., 5., 5.)))
   REPRESENTATION_ITEM ('')
);
#229 = ADVANCED_FACE ('', (#203), #228, .T.);
#230 = CARTESIAN_POINT ('', (-101.75, 6.23039059066216E-15, -6.23039059066216E-15));
#231 = VERTEX_POINT ('', #230);
#232 = CARTESIAN_POINT ('', (-101.75, 4.99999999999999, -1.22464679914735E-15));
#233 = CARTESIAN_POINT ('', (-101.75, 6.23039059066216E-15, -6.23039059066216E-15));
#234 = B_SPLINE_CURVE_WITH_KNOTS ('', 1, (#232, #233), .UNSPECIFIED., .F., .U., (2, 2), (0., 1.), .UNSPECIFIED.);
#235 = EDGE_CURVE ('', #183, #231, #234, .T.);
#236 = ORIENTED_EDGE ('', *, *, #235, .F.);
#237 = ORIENTED_EDGE ('', *, *, #200, .T.);
#238 = ORIENTED_EDGE ('', *, *, #235, .T.);
#239 = EDGE_LOOP ('', (#236, #237, #238));
#240 = FACE_OUTER_BOUND ('', #239, .T.);
#241 = CARTESIAN_POINT ('', (-101.75, 4.99999999999999, -1.22464679914735E-15));
#242 = CARTESIAN_POINT ('', (-101.75, 6.23039059066216E-15, -6.23039059066216E-15));
#243 = CARTESIAN_POINT ('', (-101.75, 4.99999999999997, 19.9999999999999));
#244 = CARTESIAN_POINT ('', (-101.75, 6.23039059066216E-15, -6.23039059066216E-15));
#245 = CARTESIAN_POINT ('', (-101.75, -15., 9.99999999999995));
#246 = CARTESIAN_POINT ('', (-101.75, 6.23039059066216E-15, -6.23039059066216E-15));
#247 = CARTESIAN_POINT ('', (-101.75, -14.9999999999999, -9.99999999999999));
#248 = CARTESIAN_POINT ('', (-101.75, 6.23039059066216E-15, -6.23039059066216E-15));
#249 = CARTESIAN_POINT ('', (-101.75, 5.00000000000001, -20.));
#250 = CARTESIAN_POINT ('', (-101.75, 6.23039059066216E-15, -6.23039059066216E-15));
#251 = CARTESIAN_POINT ('', (-101.75, 4.99999999999999, -1.22464679914735E-15));
#252 = CARTESIAN_POINT ('', (-101.75, 6.23039059066216E-15, -6.23039059066216E-15));
#253 = (
   BOUNDED_SURFACE ()
   B_SPLINE_SURFACE (5, 1, ((#241, #242), (#243, #244), (#245, #246), (#247, #248), (#249, #250), (#251, #252)), .UNSPECIFIED., .T., .F., .U.)
   B_SPLINE_SURFACE_WITH_KNOTS ((6, 6), (2, 2), (0., 1.), (0., 1.), .UNSPECIFIED.)
   SURFACE ()
   GEOMETRIC_REPRESENTATION_ITEM ()
   RATIONAL_B_SPLINE_SURFACE (((5., 5.), (1., 1.), (1., 1.), (1., 1.), (1., 1.), (5., 5.)))
   REPRESENTATION_ITEM ('')
);
#254 = ADVANCED_FACE ('', (#240), #253, .T.);
#255 = CLOSED_SHELL ('', (#85, #133, #181, #229, #254));
#256 = CARTESIAN_POINT ('', (-102., 4.74999999999999, -1.16341445918998E-15));
#257 = VERTEX_POINT ('', #256);
#258 = CARTESIAN_POINT ('', (-101.75, 4.99999999999999, -1.22464679914735E-15));
#259 = CARTESIAN_POINT ('', (-101.833333333333, 4.91666666666665, -1.20423601916156E-15));
#260 = CARTESIAN_POINT ('', (-101.916666666666, 4.83333333333332, -1.18382523917577E-15));
#261 = CARTESIAN_POINT ('', (-102., 4.74999999999999, -1.16341445918998E-15));
#262 = B_SPLINE_CURVE_WITH_KNOTS ('', 3, (#258, #259, #260, #261), .UNSPECIFIED., .F., .U., (4, 4), (0., 1.), .UNSPECIFIED.);
#263 = EDGE_CURVE ('', #183, #257, #262, .T.);
#264 = ORIENTED_EDGE ('', *, *, #263, .F.);
#265 = ORIENTED_EDGE ('', *, *, #200, .T.);
#266 = ORIENTED_EDGE ('', *, *, #263, .T.);
#267 = CARTESIAN_POINT ('', (-102., 4.74999999999999, -1.16341445918998E-15));
#268 = CARTESIAN_POINT ('', (-102., 4.74999999999997, 18.9999999999999));
#269 = CARTESIAN_POINT ('', (-102., -14.25, 9.49999999999995));
#270 = CARTESIAN_POINT ('', (-102., -14.2499999999999, -9.5));
#271 = CARTESIAN_POINT ('', (-102., 4.75000000000001, -19.));
#272 = CARTESIAN_POINT ('', (-102., 4.74999999999999, -1.16341445918998E-15));
#273 = (
   BOUNDED_CURVE ()
   B_SPLINE_CURVE (5, (#267, #268, #269, #270, #271, #272), .UNSPECIFIED., .T., .U.)
   B_SPLINE_CURVE_WITH_KNOTS ((6, 6), (0., 1.), .UNSPECIFIED.)
   CURVE ()
   GEOMETRIC_REPRESENTATION_ITEM ()
   RATIONAL_B_SPLINE_CURVE ((5., 1., 1., 1., 1., 5.))
   REPRESENTATION_ITEM ('')
);
#274 = EDGE_CURVE ('', #257, #257, #273, .T.);
#275 = ORIENTED_EDGE ('', *, *, #274, .F.);
#276 = EDGE_LOOP ('', (#264, #265, #266, #275));
#277 = FACE_OUTER_BOUND ('', #276, .T.);
#278 = CARTESIAN_POINT ('', (-101.75, 4.99999999999999, -1.22464679914735E-15));
#279 = CARTESIAN_POINT ('', (-101.833333333333, 4.91666666666665, -1.20423601916156E-15));
#280 = CARTESIAN_POINT ('', (-101.916666666666, 4.83333333333332, -1.18382523917577E-15));
#281 = CARTESIAN_POINT ('', (-102., 4.74999999999999, -1.16341445918998E-15));
#282 = CARTESIAN_POINT ('', (-101.75, 4.99999999999997, 19.9999999999999));
#283 = CARTESIAN_POINT ('', (-101.833333333333, 4.91666666666663, 19.6666666666666));
#284 = CARTESIAN_POINT ('', (-101.916666666666, 4.8333333333333, 19.3333333333332));
#285 = CARTESIAN_POINT ('', (-102., 4.74999999999997, 18.9999999999999));
#286 = CARTESIAN_POINT ('', (-101.75, -15., 9.99999999999995));
#287 = CARTESIAN_POINT ('', (-101.833333333333, -14.7499999999999, 9.83333333333327));
#288 = CARTESIAN_POINT ('', (-101.916666666666, -14.4999999999999, 9.6666666666666));
#289 = CARTESIAN_POINT ('', (-102., -14.25, 9.49999999999995));
#290 = CARTESIAN_POINT ('', (-101.75, -14.9999999999999, -9.99999999999999));
#291 = CARTESIAN_POINT ('', (-101.833333333333, -14.7499999999999, -9.83333333333331));
#292 = CARTESIAN_POINT ('', (-101.916666666666, -14.4999999999999, -9.66666666666665));
#293 = CARTESIAN_POINT ('', (-102., -14.2499999999999, -9.5));
#294 = CARTESIAN_POINT ('', (-101.75, 5.00000000000001, -20.));
#295 = CARTESIAN_POINT ('', (-101.833333333333, 4.91666666666667, -19.6666666666666));
#296 = CARTESIAN_POINT ('', (-101.916666666666, 4.83333333333334, -19.3333333333333));
#297 = CARTESIAN_POINT ('', (-102., 4.75000000000001, -19.));
#298 = CARTESIAN_POINT ('', (-101.75, 4.99999999999999, -1.22464679914735E-15));
#299 = CARTESIAN_POINT ('', (-101.833333333333, 4.91666666666665, -1.20423601916156E-15));
#300 = CARTESIAN_POINT ('', (-101.916666666666, 4.83333333333332, -1.18382523917577E-15));
#301 = CARTESIAN_POINT ('', (-102., 4.74999999999999, -1.16341445918998E-15));
#302 = (
   BOUNDED_SURFACE ()
   B_SPLINE_SURFACE (5, 3, ((#278, #279, #280, #281), (#282, #283, #284, #285), (#286, #287, #288, #289), (#290, #291, #292, #293), (#294, #295, #296, #297), (#298, #299, #300, #301)), .UNSPECIFIED., .T., .F., .U.)
   B_SPLINE_SURFACE_WITH_KNOTS ((6, 6), (4, 4), (0., 1.), (0., 1.), .UNSPECIFIED.)
   SURFACE ()
   GEOMETRIC_REPRESENTATION_ITEM ()
   RATIONAL_B_SPLINE_SURFACE (((5., 5., 5., 5.), (1., 1., 1., 1.), (1., 1., 1., 1.), (1., 1., 1., 1.), (1., 1., 1., 1.), (5., 5., 5., 5.)))
   REPRESENTATION_ITEM ('')
);
#303 = ADVANCED_FACE ('', (#277), #302, .T.);
#304 = OPEN_SHELL ('', (#303));
#305 = (
   LENGTH_UNIT ()
   NAMED_UNIT (*)
   SI_UNIT (.MILLI., .METRE.)
);
#306 = (
   NAMED_UNIT (*)
   SI_UNIT ($, .STERADIAN.)
   SOLID_ANGLE_UNIT ()
);
#307 = (
   NAMED_UNIT (*)
   SI_UNIT ($, .RADIAN.)
   PLANE_ANGLE_UNIT ()
);
#308 = UNCERTAINTY_MEASURE_WITH_UNIT (LENGTH_MEASURE(0.001), #305, 'DISTANCE_ACCURACY_VALUE', '');
#309 = (
   GEOMETRIC_REPRESENTATION_CONTEXT (3)
   GLOBAL_UNCERTAINTY_ASSIGNED_CONTEXT ((#308))
   GLOBAL_UNIT_ASSIGNED_CONTEXT ((#305, #306, #307))
   REPRESENTATION_CONTEXT ('', '3D')
);
#310 = SHAPE_REPRESENTATION ('', (), #309);
#311 = APPLICATION_CONTEXT ('configuration controlled 3D designs of mechanical parts and assemblies');
#312 = APPLICATION_PROTOCOL_DEFINITION ('International Standard', 'config_control_design', 1997, #311);
#313 = MECHANICAL_CONTEXT ('', #311, 'mechanical');
#314 = PRODUCT ('', '', '', (#313));
#315 = PERSON_AND_ORGANIZATION_ROLE ('design_owner');
#316 = PERSON ('', '', $, $, $, $);
#317 = ORGANIZATION ($, '', '');
#318 = PERSON_AND_ORGANIZATION (#316, #317);
#319 = CC_DESIGN_PERSON_AND_ORGANIZATION_ASSIGNMENT (#318, #315, (#314));
#320 = PRODUCT_RELATED_PRODUCT_CATEGORY ('detail', $, (#314));
#321 = PRODUCT_DEFINITION_FORMATION_WITH_SPECIFIED_SOURCE ('', '', #314, .NOT_KNOWN.);
#322 = APPROVAL_STATUS ('approved');
#323 = APPROVAL (#322, '');
#324 = CALENDAR_DATE (2021, 8, 1);
#325 = COORDINATED_UNIVERSAL_TIME_OFFSET (0, $, .AHEAD.);
#326 = LOCAL_TIME (13, 21, 22., #325);
#327 = DATE_AND_TIME (#324, #326);
#328 = APPROVAL_DATE_TIME (#327, #323);
#329 = APPROVAL_ROLE ('');
#330 = PERSON ('', '', $, $, $, $);
#331 = ORGANIZATION ($, '', '');
#332 = PERSON_AND_ORGANIZATION (#330, #331);
#333 = APPROVAL_PERSON_ORGANIZATION (#332, #323, #329);
#334 = CC_DESIGN_APPROVAL (#323, (#321));
#335 = PERSON_AND_ORGANIZATION_ROLE ('creator');
#336 = PERSON ('', '', $, $, $, $);
#337 = ORGANIZATION ($, '', '');
#338 = PERSON_AND_ORGANIZATION (#336, #337);
#339 = CC_DESIGN_PERSON_AND_ORGANIZATION_ASSIGNMENT (#338, #335, (#321));
#340 = PERSON_AND_ORGANIZATION_ROLE ('part_supplier');
#341 = PERSON ('', '', $, $, $, $);
#342 = ORGANIZATION ($, '', '');
#343 = PERSON_AND_ORGANIZATION (#341, #342);
#344 = CC_DESIGN_PERSON_AND_ORGANIZATION_ASSIGNMENT (#343, #340, (#321));
#345 = SECURITY_CLASSIFICATION_LEVEL ('unclassified');
#346 = SECURITY_CLASSIFICATION ('', '', #345);
#347 = APPROVAL_STATUS ('approved');
#348 = APPROVAL (#347, '');
#349 = CALENDAR_DATE (2021, 8, 1);
#350 = COORDINATED_UNIVERSAL_TIME_OFFSET (0, $, .AHEAD.);
#351 = LOCAL_TIME (13, 21, 22., #350);
#352 = DATE_AND_TIME (#349, #351);
#353 = APPROVAL_DATE_TIME (#352, #348);
#354 = APPROVAL_ROLE ('');
#355 = PERSON ('', '', $, $, $, $);
#356 = ORGANIZATION ($, '', '');
#357 = PERSON_AND_ORGANIZATION (#355, #356);
#358 = APPROVAL_PERSON_ORGANIZATION (#357, #348, #354);
#359 = CC_DESIGN_APPROVAL (#348, (#346));
#360 = DATE_TIME_ROLE ('classification_date');
#361 = CALENDAR_DATE (2021, 8, 1);
#362 = COORDINATED_UNIVERSAL_TIME_OFFSET (0, $, .AHEAD.);
#363 = LOCAL_TIME (13, 21, 22., #362);
#364 = DATE_AND_TIME (#361, #363);
#365 = CC_DESIGN_DATE_AND_TIME_ASSIGNMENT (#364, #360, (#346));
#366 = PERSON_AND_ORGANIZATION_ROLE ('classification_officer');
#367 = PERSON ('', '', $, $, $, $);
#368 = ORGANIZATION ($, '', '');
#369 = PERSON_AND_ORGANIZATION (#367, #368);
#370 = CC_DESIGN_PERSON_AND_ORGANIZATION_ASSIGNMENT (#369, #366, (#346));
#371 = CC_DESIGN_SECURITY_CLASSIFICATION (#346, (#321));
#372 = DESIGN_CONTEXT ('', #311, 'design');
#373 = PRODUCT_DEFINITION ('', '', #321, #372);
#374 = APPROVAL_STATUS ('approved');
#375 = APPROVAL (#374, '');
#376 = CALENDAR_DATE (2021, 8, 1);
#377 = COORDINATED_UNIVERSAL_TIME_OFFSET (0, $, .AHEAD.);
#378 = LOCAL_TIME (13, 21, 22., #377);
#379 = DATE_AND_TIME (#376, #378);
#380 = APPROVAL_DATE_TIME (#379, #375);
#381 = APPROVAL_ROLE ('');
#382 = PERSON ('', '', $, $, $, $);
#383 = ORGANIZATION ($, '', '');
#384 = PERSON_AND_ORGANIZATION (#382, #383);
#385 = APPROVAL_PERSON_ORGANIZATION (#384, #375, #381);
#386 = CC_DESIGN_APPROVAL (#375, (#373));
#387 = DATE_TIME_ROLE ('creation_date');
#388 = CALENDAR_DATE (2021, 8, 1);
#389 = COORDINATED_UNIVERSAL_TIME_OFFSET (0, $, .AHEAD.);
#390 = LOCAL_TIME (13, 21, 22., #389);
#391 = DATE_AND_TIME (#388, #390);
#392 = CC_DESIGN_DATE_AND_TIME_ASSIGNMENT (#391, #387, (#373));
#393 = PERSON_AND_ORGANIZATION_ROLE ('creator');
#394 = PERSON ('', '', $, $, $, $);
#395 = ORGANIZATION ($, '', '');
#396 = PERSON_AND_ORGANIZATION (#394, #395);
#397 = CC_DESIGN_PERSON_AND_ORGANIZATION_ASSIGNMENT (#396, #393, (#373));
#398 = PRODUCT_DEFINITION_SHAPE ('', '', #373);
#399 = SHAPE_DEFINITION_REPRESENTATION (#398, #310);
#400 = SHAPE_REPRESENTATION_RELATIONSHIP ('', '', #310, #401);
#401 = MANIFOLD_SURFACE_SHAPE_REPRESENTATION ('', (#1), #309);
ENDSEC;
END-ISO-10303-21;
