ISO-10303-21;
HEADER;
FILE_DESCRIPTION ((), '1');
FILE_NAME ('C:\\Users\\kevin\\157 Range\\157 0400-0.50RA.STP', '2021-01-07T08:02:18', ('Unknown'), ('mafordeurope'), 'OneCNC-XR7 Mill 3D Expert', 'OneCNC-XR7 Mill 3D Expert', '');
FILE_SCHEMA (('CONFIG_CONTROL_DESIGN'));
ENDSEC;

DATA;
#1 = CARTESIAN_POINT ('', (0., 0., 0.));
#2 = VERTEX_POINT ('', #1);
#3 = CARTESIAN_POINT ('', (2.46519032881566E-32, 1.5, -3.67394039744206E-16));
#4 = VERTEX_POINT ('', #3);
#5 = CARTESIAN_POINT ('', (0., 0., 0.));
#6 = CARTESIAN_POINT ('', (6.16297582203915E-33, 0.5, -1.22464679914735E-16));
#7 = CARTESIAN_POINT ('', (1.23259516440783E-32, 1., -2.44929359829471E-16));
#8 = CARTESIAN_POINT ('', (2.46519032881566E-32, 1.5, -3.67394039744206E-16));
#9 = B_SPLINE_CURVE_WITH_KNOTS ('', 3, (#5, #6, #7, #8), .UNSPECIFIED., .F., .U., (4, 4), (0., 1.), .UNSPECIFIED.);
#10 = EDGE_CURVE ('', #2, #4, #9, .T.);
#11 = ORIENTED_EDGE ('', *, *, #10, .F.);
#12 = ORIENTED_EDGE ('', *, *, #10, .T.);
#13 = CARTESIAN_POINT ('', (2.46519032881566E-32, 1.5, -3.67394039744206E-16));
#14 = CARTESIAN_POINT ('', (-3.67394039744206E-16, 1.5, 6.));
#15 = CARTESIAN_POINT ('', (-5.51091059616309E-16, -4.5, 3.));
#16 = CARTESIAN_POINT ('', (-1.83697019872103E-16, -4.5, -3.));
#17 = CARTESIAN_POINT ('', (3.67394039744206E-16, 1.5, -6.));
#18 = CARTESIAN_POINT ('', (2.46519032881566E-32, 1.5, -3.67394039744206E-16));
#19 = (
   BOUNDED_CURVE ()
   B_SPLINE_CURVE (5, (#13, #14, #15, #16, #17, #18), .UNSPECIFIED., .T., .U.)
   B_SPLINE_CURVE_WITH_KNOTS ((6, 6), (0., 1.), .UNSPECIFIED.)
   CURVE ()
   GEOMETRIC_REPRESENTATION_ITEM ()
   RATIONAL_B_SPLINE_CURVE ((5., 1., 1., 1., 1., 5.))
   REPRESENTATION_ITEM ('')
);
#20 = EDGE_CURVE ('', #4, #4, #19, .T.);
#21 = ORIENTED_EDGE ('', *, *, #20, .F.);
#22 = EDGE_LOOP ('', (#11, #12, #21));
#23 = FACE_OUTER_BOUND ('', #22, .F.);
#24 = CARTESIAN_POINT ('', (0., 0., 0.));
#25 = CARTESIAN_POINT ('', (6.16297582203915E-33, 0.5, -1.22464679914735E-16));
#26 = CARTESIAN_POINT ('', (1.23259516440783E-32, 1., -2.44929359829471E-16));
#27 = CARTESIAN_POINT ('', (2.46519032881566E-32, 1.5, -3.67394039744206E-16));
#28 = CARTESIAN_POINT ('', (0., 0., 0.));
#29 = CARTESIAN_POINT ('', (-1.22464679914735E-16, 0.5, 2.));
#30 = CARTESIAN_POINT ('', (-2.44929359829471E-16, 1., 4.));
#31 = CARTESIAN_POINT ('', (-3.67394039744206E-16, 1.5, 6.));
#32 = CARTESIAN_POINT ('', (0., 0., 0.));
#33 = CARTESIAN_POINT ('', (-1.83697019872103E-16, -1.5, 1.));
#34 = CARTESIAN_POINT ('', (-3.67394039744206E-16, -3., 2.));
#35 = CARTESIAN_POINT ('', (-5.51091059616309E-16, -4.5, 3.));
#36 = CARTESIAN_POINT ('', (0., 0., 0.));
#37 = CARTESIAN_POINT ('', (-6.12323399573677E-17, -1.5, -1.));
#38 = CARTESIAN_POINT ('', (-1.22464679914735E-16, -3., -2.));
#39 = CARTESIAN_POINT ('', (-1.83697019872103E-16, -4.5, -3.));
#40 = CARTESIAN_POINT ('', (0., 0., 0.));
#41 = CARTESIAN_POINT ('', (1.22464679914735E-16, 0.5, -2.));
#42 = CARTESIAN_POINT ('', (2.44929359829471E-16, 0.999999999999999, -4.));
#43 = CARTESIAN_POINT ('', (3.67394039744206E-16, 1.5, -6.));
#44 = CARTESIAN_POINT ('', (0., 0., 0.));
#45 = CARTESIAN_POINT ('', (6.16297582203915E-33, 0.5, -1.22464679914735E-16));
#46 = CARTESIAN_POINT ('', (1.23259516440783E-32, 1., -2.44929359829471E-16));
#47 = CARTESIAN_POINT ('', (2.46519032881566E-32, 1.5, -3.67394039744206E-16));
#48 = (
   BOUNDED_SURFACE ()
   B_SPLINE_SURFACE (5, 3, ((#24, #25, #26, #27), (#28, #29, #30, #31), (#32, #33, #34, #35), (#36, #37, #38, #39), (#40, #41, #42, #43), (#44, #45, #46, #47)), .UNSPECIFIED., .T., .F., .U.)
   B_SPLINE_SURFACE_WITH_KNOTS ((6, 6), (4, 4), (0., 1.), (0., 1.), .UNSPECIFIED.)
   SURFACE ()
   GEOMETRIC_REPRESENTATION_ITEM ()
   RATIONAL_B_SPLINE_SURFACE (((5., 5., 5., 5.), (1., 1., 1., 1.), (1., 1., 1., 1.), (1., 1., 1., 1.), (1., 1., 1., 1.), (5., 5., 5., 5.)))
   REPRESENTATION_ITEM ('')
);
#49 = ADVANCED_FACE ('', (#23), #48, .F.);
#50 = CARTESIAN_POINT ('', (-0.5, 2., -4.89858719658941E-16));
#51 = VERTEX_POINT ('', #50);
#52 = CARTESIAN_POINT ('', (2.46519032881566E-32, 1.5, -3.67394039744206E-16));
#53 = CARTESIAN_POINT ('', (1.23259516440783E-32, 1.62227611019124, -3.97343049135784E-16));
#54 = CARTESIAN_POINT ('', (-0.0671333266242755, 1.79497859847258, -4.3964295903149E-16));
#55 = CARTESIAN_POINT ('', (-0.272698983066411, 1.96209719120231, -4.80575208964384E-16));
#56 = CARTESIAN_POINT ('', (-0.411989930024649, 2., -4.89858719658941E-16));
#57 = CARTESIAN_POINT ('', (-0.5, 2., -4.89858719658941E-16));
#58 = B_SPLINE_CURVE_WITH_KNOTS ('', 3, (#52, #53, #54, #55, #56, #57), .UNSPECIFIED., .F., .U., (4, 1, 1, 4), (0., 0.467060336615637, 0.66382629571742, 1.), .UNSPECIFIED.);
#59 = EDGE_CURVE ('', #4, #51, #58, .T.);
#60 = ORIENTED_EDGE ('', *, *, #59, .F.);
#61 = ORIENTED_EDGE ('', *, *, #20, .T.);
#62 = ORIENTED_EDGE ('', *, *, #59, .T.);
#63 = CARTESIAN_POINT ('', (-0.5, 2., -4.89858719658941E-16));
#64 = CARTESIAN_POINT ('', (-0.5, 2., 8.));
#65 = CARTESIAN_POINT ('', (-0.500000000000001, -6., 4.));
#66 = CARTESIAN_POINT ('', (-0.5, -6., -4.));
#67 = CARTESIAN_POINT ('', (-0.5, 2., -8.));
#68 = CARTESIAN_POINT ('', (-0.5, 2., -4.89858719658941E-16));
#69 = (
   BOUNDED_CURVE ()
   B_SPLINE_CURVE (5, (#63, #64, #65, #66, #67, #68), .UNSPECIFIED., .T., .U.)
   B_SPLINE_CURVE_WITH_KNOTS ((6, 6), (0., 1.), .UNSPECIFIED.)
   CURVE ()
   GEOMETRIC_REPRESENTATION_ITEM ()
   RATIONAL_B_SPLINE_CURVE ((5., 1., 1., 1., 1., 5.))
   REPRESENTATION_ITEM ('')
);
#70 = EDGE_CURVE ('', #51, #51, #69, .T.);
#71 = ORIENTED_EDGE ('', *, *, #70, .F.);
#72 = EDGE_LOOP ('', (#60, #61, #62, #71));
#73 = FACE_OUTER_BOUND ('', #72, .F.);
#74 = CARTESIAN_POINT ('', (2.46519032881566E-32, 1.5, -3.67394039744206E-16));
#75 = CARTESIAN_POINT ('', (1.23259516440783E-32, 1.62227611019124, -3.97343049135784E-16));
#76 = CARTESIAN_POINT ('', (-0.0671333266242755, 1.79497859847258, -4.3964295903149E-16));
#77 = CARTESIAN_POINT ('', (-0.272698983066411, 1.96209719120231, -4.80575208964384E-16));
#78 = CARTESIAN_POINT ('', (-0.411989930024649, 2., -4.89858719658941E-16));
#79 = CARTESIAN_POINT ('', (-0.5, 2., -4.89858719658941E-16));
#80 = CARTESIAN_POINT ('', (-3.67394039744206E-16, 1.5, 6.));
#81 = CARTESIAN_POINT ('', (-3.97343049135784E-16, 1.62227611019124, 6.48910444076495));
#82 = CARTESIAN_POINT ('', (-0.0671333266242759, 1.79497859847258, 7.17991439389033));
#83 = CARTESIAN_POINT ('', (-0.272698983066411, 1.96209719120231, 7.84838876480924));
#84 = CARTESIAN_POINT ('', (-0.411989930024649, 2., 8.));
#85 = CARTESIAN_POINT ('', (-0.5, 2., 8.));
#86 = CARTESIAN_POINT ('', (-5.51091059616309E-16, -4.5, 3.));
#87 = CARTESIAN_POINT ('', (-5.96014573703676E-16, -4.86682833057371, 3.24455222038248));
#88 = CARTESIAN_POINT ('', (-0.0671333266242761, -5.38493579541774, 3.58995719694516));
#89 = CARTESIAN_POINT ('', (-0.272698983066412, -5.88629157360693, 3.92419438240462));
#90 = CARTESIAN_POINT ('', (-0.411989930024649, -6., 4.));
#91 = CARTESIAN_POINT ('', (-0.500000000000001, -6., 4.));
#92 = CARTESIAN_POINT ('', (-1.83697019872103E-16, -4.5, -3.));
#93 = CARTESIAN_POINT ('', (-1.98671524567892E-16, -4.86682833057372, -3.24455222038248));
#94 = CARTESIAN_POINT ('', (-0.0671333266242757, -5.38493579541775, -3.58995719694516));
#95 = CARTESIAN_POINT ('', (-0.272698983066411, -5.88629157360693, -3.92419438240462));
#96 = CARTESIAN_POINT ('', (-0.411989930024649, -6., -4.));
#97 = CARTESIAN_POINT ('', (-0.5, -6., -4.));
#98 = CARTESIAN_POINT ('', (3.67394039744206E-16, 1.5, -6.));
#99 = CARTESIAN_POINT ('', (3.97343049135784E-16, 1.62227611019124, -6.48910444076495));
#100 = CARTESIAN_POINT ('', (-0.067133326624275, 1.79497859847258, -7.17991439389033));
#101 = CARTESIAN_POINT ('', (-0.272698983066411, 1.96209719120231, -7.84838876480924));
#102 = CARTESIAN_POINT ('', (-0.411989930024648, 2., -8.));
#103 = CARTESIAN_POINT ('', (-0.5, 2., -8.));
#104 = CARTESIAN_POINT ('', (2.46519032881566E-32, 1.5, -3.67394039744206E-16));
#105 = CARTESIAN_POINT ('', (1.23259516440783E-32, 1.62227611019124, -3.97343049135784E-16));
#106 = CARTESIAN_POINT ('', (-0.0671333266242755, 1.79497859847258, -4.3964295903149E-16));
#107 = CARTESIAN_POINT ('', (-0.272698983066411, 1.96209719120231, -4.80575208964384E-16));
#108 = CARTESIAN_POINT ('', (-0.411989930024649, 2., -4.89858719658941E-16));
#109 = CARTESIAN_POINT ('', (-0.5, 2., -4.89858719658941E-16));
#110 = (
   BOUNDED_SURFACE ()
   B_SPLINE_SURFACE (5, 3, ((#74, #75, #76, #77, #78, #79), (#80, #81, #82, #83, #84, #85), (#86, #87, #88, #89, #90, #91), (#92, #93, #94, #95, #96, #97), (#98, #99, #100, #101, #102, #103), (#104, #105, #106, #107, #108, #109)), .UNSPECIFIED., .T., .F., .U.)
   B_SPLINE_SURFACE_WITH_KNOTS ((6, 6), (4, 1, 1, 4), (0., 1.), (0., 0.467060336615637, 0.66382629571742, 1.), .UNSPECIFIED.)
   SURFACE ()
   GEOMETRIC_REPRESENTATION_ITEM ()
   RATIONAL_B_SPLINE_SURFACE (((5., 5., 5., 5., 5., 5.), (1., 1., 1., 1., 1., 1.), (1., 1., 1., 1., 1., 1.), (1., 1., 1., 1., 1., 1.), (1., 1., 1., 1., 1., 1.), (5., 5., 5., 5., 5., 5.)))
   REPRESENTATION_ITEM ('')
);
#111 = ADVANCED_FACE ('', (#73), #110, .F.);
#112 = CARTESIAN_POINT ('', (-12., 2., -4.89858719658941E-16));
#113 = VERTEX_POINT ('', #112);
#114 = CARTESIAN_POINT ('', (-0.5, 2., -4.89858719658941E-16));
#115 = CARTESIAN_POINT ('', (-4.33333333333333, 2., -4.89858719658941E-16));
#116 = CARTESIAN_POINT ('', (-8.16666666666668, 2., -4.89858719658941E-16));
#117 = CARTESIAN_POINT ('', (-12., 2., -4.89858719658941E-16));
#118 = B_SPLINE_CURVE_WITH_KNOTS ('', 3, (#114, #115, #116, #117), .UNSPECIFIED., .F., .U., (4, 4), (0., 1.), .UNSPECIFIED.);
#119 = EDGE_CURVE ('', #51, #113, #118, .T.);
#120 = ORIENTED_EDGE ('', *, *, #119, .F.);
#121 = ORIENTED_EDGE ('', *, *, #70, .T.);
#122 = ORIENTED_EDGE ('', *, *, #119, .T.);
#123 = CARTESIAN_POINT ('', (-12., 2., -4.89858719658941E-16));
#124 = CARTESIAN_POINT ('', (-12., 2., 8.));
#125 = CARTESIAN_POINT ('', (-12., -6., 4.));
#126 = CARTESIAN_POINT ('', (-12., -6., -4.));
#127 = CARTESIAN_POINT ('', (-12., 2., -8.));
#128 = CARTESIAN_POINT ('', (-12., 2., -4.89858719658941E-16));
#129 = (
   BOUNDED_CURVE ()
   B_SPLINE_CURVE (5, (#123, #124, #125, #126, #127, #128), .UNSPECIFIED., .T., .U.)
   B_SPLINE_CURVE_WITH_KNOTS ((6, 6), (0., 1.), .UNSPECIFIED.)
   CURVE ()
   GEOMETRIC_REPRESENTATION_ITEM ()
   RATIONAL_B_SPLINE_CURVE ((5., 1., 1., 1., 1., 5.))
   REPRESENTATION_ITEM ('')
);
#130 = EDGE_CURVE ('', #113, #113, #129, .T.);
#131 = ORIENTED_EDGE ('', *, *, #130, .F.);
#132 = EDGE_LOOP ('', (#120, #121, #122, #131));
#133 = FACE_OUTER_BOUND ('', #132, .F.);
#134 = CARTESIAN_POINT ('', (-0.5, 2., -4.89858719658941E-16));
#135 = CARTESIAN_POINT ('', (-4.33333333333333, 2., -4.89858719658941E-16));
#136 = CARTESIAN_POINT ('', (-8.16666666666668, 2., -4.89858719658941E-16));
#137 = CARTESIAN_POINT ('', (-12., 2., -4.89858719658941E-16));
#138 = CARTESIAN_POINT ('', (-0.5, 2., 8.));
#139 = CARTESIAN_POINT ('', (-4.33333333333333, 2., 8.));
#140 = CARTESIAN_POINT ('', (-8.16666666666668, 2., 8.));
#141 = CARTESIAN_POINT ('', (-12., 2., 8.));
#142 = CARTESIAN_POINT ('', (-0.500000000000001, -6., 4.));
#143 = CARTESIAN_POINT ('', (-4.33333333333333, -6., 4.));
#144 = CARTESIAN_POINT ('', (-8.16666666666668, -6., 4.));
#145 = CARTESIAN_POINT ('', (-12., -6., 4.));
#146 = CARTESIAN_POINT ('', (-0.5, -6., -4.));
#147 = CARTESIAN_POINT ('', (-4.33333333333333, -6., -4.));
#148 = CARTESIAN_POINT ('', (-8.16666666666668, -6., -4.));
#149 = CARTESIAN_POINT ('', (-12., -6., -4.));
#150 = CARTESIAN_POINT ('', (-0.5, 2., -8.));
#151 = CARTESIAN_POINT ('', (-4.33333333333333, 2., -8.));
#152 = CARTESIAN_POINT ('', (-8.16666666666668, 2., -8.));
#153 = CARTESIAN_POINT ('', (-12., 2., -8.));
#154 = CARTESIAN_POINT ('', (-0.5, 2., -4.89858719658941E-16));
#155 = CARTESIAN_POINT ('', (-4.33333333333333, 2., -4.89858719658941E-16));
#156 = CARTESIAN_POINT ('', (-8.16666666666668, 2., -4.89858719658941E-16));
#157 = CARTESIAN_POINT ('', (-12., 2., -4.89858719658941E-16));
#158 = (
   BOUNDED_SURFACE ()
   B_SPLINE_SURFACE (5, 3, ((#134, #135, #136, #137), (#138, #139, #140, #141), (#142, #143, #144, #145), (#146, #147, #148, #149), (#150, #151, #152, #153), (#154, #155, #156, #157)), .UNSPECIFIED., .T., .F., .U.)
   B_SPLINE_SURFACE_WITH_KNOTS ((6, 6), (4, 4), (0., 1.), (0., 1.), .UNSPECIFIED.)
   SURFACE ()
   GEOMETRIC_REPRESENTATION_ITEM ()
   RATIONAL_B_SPLINE_SURFACE (((5., 5., 5., 5.), (1., 1., 1., 1.), (1., 1., 1., 1.), (1., 1., 1., 1.), (1., 1., 1., 1.), (5., 5., 5., 5.)))
   REPRESENTATION_ITEM ('')
);
#159 = ADVANCED_FACE ('', (#133), #158, .F.);
#160 = CARTESIAN_POINT ('', (-15.7320508075689, 3., -7.34788079488412E-16));
#161 = VERTEX_POINT ('', #160);
#162 = CARTESIAN_POINT ('', (-12., 2., -4.89858719658941E-16));
#163 = CARTESIAN_POINT ('', (-13.2440169358563, 2.33333333333333, -5.71501839602097E-16));
#164 = CARTESIAN_POINT ('', (-14.4880338717125, 2.66666666666667, -6.53144959545255E-16));
#165 = CARTESIAN_POINT ('', (-15.7320508075689, 3., -7.34788079488412E-16));
#166 = B_SPLINE_CURVE_WITH_KNOTS ('', 3, (#162, #163, #164, #165), .UNSPECIFIED., .F., .U., (4, 4), (0., 1.), .UNSPECIFIED.);
#167 = EDGE_CURVE ('', #113, #161, #166, .T.);
#168 = ORIENTED_EDGE ('', *, *, #167, .F.);
#169 = ORIENTED_EDGE ('', *, *, #130, .T.);
#170 = ORIENTED_EDGE ('', *, *, #167, .T.);
#171 = CARTESIAN_POINT ('', (-15.7320508075689, 3., -7.34788079488412E-16));
#172 = CARTESIAN_POINT ('', (-15.7320508075689, 3., 12.));
#173 = CARTESIAN_POINT ('', (-15.7320508075689, -8.99999999999999, 6.));
#174 = CARTESIAN_POINT ('', (-15.7320508075689, -8.99999999999999, -6.));
#175 = CARTESIAN_POINT ('', (-15.7320508075689, 3., -12.));
#176 = CARTESIAN_POINT ('', (-15.7320508075689, 3., -7.34788079488412E-16));
#177 = (
   BOUNDED_CURVE ()
   B_SPLINE_CURVE (5, (#171, #172, #173, #174, #175, #176), .UNSPECIFIED., .T., .U.)
   B_SPLINE_CURVE_WITH_KNOTS ((6, 6), (0., 1.), .UNSPECIFIED.)
   CURVE ()
   GEOMETRIC_REPRESENTATION_ITEM ()
   RATIONAL_B_SPLINE_CURVE ((5., 1., 1., 1., 1., 5.))
   REPRESENTATION_ITEM ('')
);
#178 = EDGE_CURVE ('', #161, #161, #177, .T.);
#179 = ORIENTED_EDGE ('', *, *, #178, .F.);
#180 = EDGE_LOOP ('', (#168, #169, #170, #179));
#181 = FACE_OUTER_BOUND ('', #180, .F.);
#182 = CARTESIAN_POINT ('', (-12., 2., -4.89858719658941E-16));
#183 = CARTESIAN_POINT ('', (-13.2440169358563, 2.33333333333333, -5.71501839602097E-16));
#184 = CARTESIAN_POINT ('', (-14.4880338717125, 2.66666666666667, -6.53144959545255E-16));
#185 = CARTESIAN_POINT ('', (-15.7320508075689, 3., -7.34788079488412E-16));
#186 = CARTESIAN_POINT ('', (-12., 2., 8.));
#187 = CARTESIAN_POINT ('', (-13.2440169358563, 2.33333333333333, 9.33333333333331));
#188 = CARTESIAN_POINT ('', (-14.4880338717125, 2.66666666666667, 10.6666666666667));
#189 = CARTESIAN_POINT ('', (-15.7320508075689, 3., 12.));
#190 = CARTESIAN_POINT ('', (-12., -6., 4.));
#191 = CARTESIAN_POINT ('', (-13.2440169358563, -6.99999999999998, 4.66666666666665));
#192 = CARTESIAN_POINT ('', (-14.4880338717125, -8., 5.33333333333333));
#193 = CARTESIAN_POINT ('', (-15.7320508075689, -8.99999999999999, 6.));
#194 = CARTESIAN_POINT ('', (-12., -6., -4.));
#195 = CARTESIAN_POINT ('', (-13.2440169358563, -6.99999999999998, -4.66666666666666));
#196 = CARTESIAN_POINT ('', (-14.4880338717125, -7.99999999999999, -5.33333333333333));
#197 = CARTESIAN_POINT ('', (-15.7320508075689, -8.99999999999999, -6.));
#198 = CARTESIAN_POINT ('', (-12., 2., -8.));
#199 = CARTESIAN_POINT ('', (-13.2440169358563, 2.33333333333333, -9.33333333333331));
#200 = CARTESIAN_POINT ('', (-14.4880338717125, 2.66666666666667, -10.6666666666667));
#201 = CARTESIAN_POINT ('', (-15.7320508075689, 3., -12.));
#202 = CARTESIAN_POINT ('', (-12., 2., -4.89858719658941E-16));
#203 = CARTESIAN_POINT ('', (-13.2440169358563, 2.33333333333333, -5.71501839602097E-16));
#204 = CARTESIAN_POINT ('', (-14.4880338717125, 2.66666666666667, -6.53144959545255E-16));
#205 = CARTESIAN_POINT ('', (-15.7320508075689, 3., -7.34788079488412E-16));
#206 = (
   BOUNDED_SURFACE ()
   B_SPLINE_SURFACE (5, 3, ((#182, #183, #184, #185), (#186, #187, #188, #189), (#190, #191, #192, #193), (#194, #195, #196, #197), (#198, #199, #200, #201), (#202, #203, #204, #205)), .UNSPECIFIED., .T., .F., .U.)
   B_SPLINE_SURFACE_WITH_KNOTS ((6, 6), (4, 4), (0., 1.), (0., 1.), .UNSPECIFIED.)
   SURFACE ()
   GEOMETRIC_REPRESENTATION_ITEM ()
   RATIONAL_B_SPLINE_SURFACE (((5., 5., 5., 5.), (1., 1., 1., 1.), (1., 1., 1., 1.), (1., 1., 1., 1.), (1., 1., 1., 1.), (5., 5., 5., 5.)))
   REPRESENTATION_ITEM ('')
);
#207 = ADVANCED_FACE ('', (#181), #206, .F.);
#208 = CARTESIAN_POINT ('', (-75., 3., -7.34788079488411E-16));
#209 = VERTEX_POINT ('', #208);
#210 = CARTESIAN_POINT ('', (-15.7320508075689, 3., -7.34788079488412E-16));
#211 = CARTESIAN_POINT ('', (-35.4880338717125, 3., -7.34788079488412E-16));
#212 = CARTESIAN_POINT ('', (-55.2440169358561, 3., -7.34788079488411E-16));
#213 = CARTESIAN_POINT ('', (-75., 3., -7.34788079488411E-16));
#214 = B_SPLINE_CURVE_WITH_KNOTS ('', 3, (#210, #211, #212, #213), .UNSPECIFIED., .F., .U., (4, 4), (0., 1.), .UNSPECIFIED.);
#215 = EDGE_CURVE ('', #161, #209, #214, .T.);
#216 = ORIENTED_EDGE ('', *, *, #215, .F.);
#217 = ORIENTED_EDGE ('', *, *, #178, .T.);
#218 = ORIENTED_EDGE ('', *, *, #215, .T.);
#219 = CARTESIAN_POINT ('', (-75., 3., -7.34788079488411E-16));
#220 = CARTESIAN_POINT ('', (-75., 2.99999999999998, 12.));
#221 = CARTESIAN_POINT ('', (-75., -8.99999999999999, 5.99999999999998));
#222 = CARTESIAN_POINT ('', (-75., -8.99999999999997, -6.00000000000001));
#223 = CARTESIAN_POINT ('', (-75., 3.00000000000002, -12.));
#224 = CARTESIAN_POINT ('', (-75., 3., -7.34788079488411E-16));
#225 = (
   BOUNDED_CURVE ()
   B_SPLINE_CURVE (5, (#219, #220, #221, #222, #223, #224), .UNSPECIFIED., .T., .U.)
   B_SPLINE_CURVE_WITH_KNOTS ((6, 6), (0., 1.), .UNSPECIFIED.)
   CURVE ()
   GEOMETRIC_REPRESENTATION_ITEM ()
   RATIONAL_B_SPLINE_CURVE ((5., 1., 1., 1., 1., 5.))
   REPRESENTATION_ITEM ('')
);
#226 = EDGE_CURVE ('', #209, #209, #225, .T.);
#227 = ORIENTED_EDGE ('', *, *, #226, .F.);
#228 = EDGE_LOOP ('', (#216, #217, #218, #227));
#229 = FACE_OUTER_BOUND ('', #228, .F.);
#230 = CARTESIAN_POINT ('', (-15.7320508075689, 3., -7.34788079488412E-16));
#231 = CARTESIAN_POINT ('', (-35.4880338717125, 3., -7.34788079488412E-16));
#232 = CARTESIAN_POINT ('', (-55.2440169358561, 3., -7.34788079488411E-16));
#233 = CARTESIAN_POINT ('', (-75., 3., -7.34788079488411E-16));
#234 = CARTESIAN_POINT ('', (-15.7320508075689, 3., 12.));
#235 = CARTESIAN_POINT ('', (-35.4880338717125, 3., 12.));
#236 = CARTESIAN_POINT ('', (-55.2440169358561, 2.99999999999999, 12.));
#237 = CARTESIAN_POINT ('', (-75., 2.99999999999998, 12.));
#238 = CARTESIAN_POINT ('', (-15.7320508075689, -8.99999999999999, 6.));
#239 = CARTESIAN_POINT ('', (-35.4880338717125, -9., 5.99999999999999));
#240 = CARTESIAN_POINT ('', (-55.2440169358561, -8.99999999999999, 5.99999999999998));
#241 = CARTESIAN_POINT ('', (-75., -8.99999999999999, 5.99999999999998));
#242 = CARTESIAN_POINT ('', (-15.7320508075689, -8.99999999999999, -6.));
#243 = CARTESIAN_POINT ('', (-35.4880338717125, -8.99999999999999, -6.00000000000001));
#244 = CARTESIAN_POINT ('', (-55.2440169358561, -8.99999999999998, -6.));
#245 = CARTESIAN_POINT ('', (-75., -8.99999999999997, -6.00000000000001));
#246 = CARTESIAN_POINT ('', (-15.7320508075689, 3., -12.));
#247 = CARTESIAN_POINT ('', (-35.4880338717125, 3.00000000000001, -12.));
#248 = CARTESIAN_POINT ('', (-55.2440169358561, 3.00000000000001, -12.));
#249 = CARTESIAN_POINT ('', (-75., 3.00000000000002, -12.));
#250 = CARTESIAN_POINT ('', (-15.7320508075689, 3., -7.34788079488412E-16));
#251 = CARTESIAN_POINT ('', (-35.4880338717125, 3., -7.34788079488412E-16));
#252 = CARTESIAN_POINT ('', (-55.2440169358561, 3., -7.34788079488411E-16));
#253 = CARTESIAN_POINT ('', (-75., 3., -7.34788079488411E-16));
#254 = (
   BOUNDED_SURFACE ()
   B_SPLINE_SURFACE (5, 3, ((#230, #231, #232, #233), (#234, #235, #236, #237), (#238, #239, #240, #241), (#242, #243, #244, #245), (#246, #247, #248, #249), (#250, #251, #252, #253)), .UNSPECIFIED., .T., .F., .U.)
   B_SPLINE_SURFACE_WITH_KNOTS ((6, 6), (4, 4), (0., 1.), (0., 1.), .UNSPECIFIED.)
   SURFACE ()
   GEOMETRIC_REPRESENTATION_ITEM ()
   RATIONAL_B_SPLINE_SURFACE (((5., 5., 5., 5.), (1., 1., 1., 1.), (1., 1., 1., 1.), (1., 1., 1., 1.), (1., 1., 1., 1.), (5., 5., 5., 5.)))
   REPRESENTATION_ITEM ('')
);
#255 = ADVANCED_FACE ('', (#229), #254, .F.);
#256 = CARTESIAN_POINT ('', (-75., 4.59242549680257E-15, -4.59242549680257E-15));
#257 = VERTEX_POINT ('', #256);
#258 = CARTESIAN_POINT ('', (-75., 3., -7.34788079488411E-16));
#259 = CARTESIAN_POINT ('', (-75., 2., -4.8985871965894E-16));
#260 = CARTESIAN_POINT ('', (-75., 1., -2.44929359829469E-16));
#261 = CARTESIAN_POINT ('', (-75., 4.59242549680257E-15, -4.59242549680257E-15));
#262 = B_SPLINE_CURVE_WITH_KNOTS ('', 3, (#258, #259, #260, #261), .UNSPECIFIED., .F., .U., (4, 4), (0., 1.), .UNSPECIFIED.);
#263 = EDGE_CURVE ('', #209, #257, #262, .T.);
#264 = ORIENTED_EDGE ('', *, *, #263, .F.);
#265 = ORIENTED_EDGE ('', *, *, #226, .T.);
#266 = ORIENTED_EDGE ('', *, *, #263, .T.);
#267 = EDGE_LOOP ('', (#264, #265, #266));
#268 = FACE_OUTER_BOUND ('', #267, .F.);
#269 = CARTESIAN_POINT ('', (-75., 3., -7.34788079488411E-16));
#270 = CARTESIAN_POINT ('', (-75., 2., -4.8985871965894E-16));
#271 = CARTESIAN_POINT ('', (-75., 1., -2.44929359829469E-16));
#272 = CARTESIAN_POINT ('', (-75., 4.59242549680257E-15, -4.59242549680257E-15));
#273 = CARTESIAN_POINT ('', (-75., 2.99999999999998, 12.));
#274 = CARTESIAN_POINT ('', (-75., 1.99999999999998, 7.99999999999998));
#275 = CARTESIAN_POINT ('', (-75., 0.999999999999983, 3.99999999999998));
#276 = CARTESIAN_POINT ('', (-75., 4.59242549680257E-15, -4.59242549680257E-15));
#277 = CARTESIAN_POINT ('', (-75., -8.99999999999999, 5.99999999999998));
#278 = CARTESIAN_POINT ('', (-75., -5.99999999999999, 3.99999999999997));
#279 = CARTESIAN_POINT ('', (-75., -2.99999999999999, 1.99999999999997));
#280 = CARTESIAN_POINT ('', (-75., 4.59242549680257E-15, -4.59242549680257E-15));
#281 = CARTESIAN_POINT ('', (-75., -8.99999999999997, -6.00000000000001));
#282 = CARTESIAN_POINT ('', (-75., -5.99999999999997, -4.00000000000001));
#283 = CARTESIAN_POINT ('', (-75., -2.99999999999997, -2.00000000000001));
#284 = CARTESIAN_POINT ('', (-75., 4.59242549680257E-15, -4.59242549680257E-15));
#285 = CARTESIAN_POINT ('', (-75., 3.00000000000002, -12.));
#286 = CARTESIAN_POINT ('', (-75., 2.00000000000002, -7.99999999999998));
#287 = CARTESIAN_POINT ('', (-75., 1.00000000000002, -3.99999999999998));
#288 = CARTESIAN_POINT ('', (-75., 4.59242549680257E-15, -4.59242549680257E-15));
#289 = CARTESIAN_POINT ('', (-75., 3., -7.34788079488411E-16));
#290 = CARTESIAN_POINT ('', (-75., 2., -4.8985871965894E-16));
#291 = CARTESIAN_POINT ('', (-75., 1., -2.44929359829469E-16));
#292 = CARTESIAN_POINT ('', (-75., 4.59242549680257E-15, -4.59242549680257E-15));
#293 = (
   BOUNDED_SURFACE ()
   B_SPLINE_SURFACE (5, 3, ((#269, #270, #271, #272), (#273, #274, #275, #276), (#277, #278, #279, #280), (#281, #282, #283, #284), (#285, #286, #287, #288), (#289, #290, #291, #292)), .UNSPECIFIED., .T., .F., .U.)
   B_SPLINE_SURFACE_WITH_KNOTS ((6, 6), (4, 4), (0., 1.), (0., 1.), .UNSPECIFIED.)
   SURFACE ()
   GEOMETRIC_REPRESENTATION_ITEM ()
   RATIONAL_B_SPLINE_SURFACE (((5., 5., 5., 5.), (1., 1., 1., 1.), (1., 1., 1., 1.), (1., 1., 1., 1.), (1., 1., 1., 1.), (5., 5., 5., 5.)))
   REPRESENTATION_ITEM ('')
);
#294 = ADVANCED_FACE ('', (#268), #293, .F.);
#295 = CLOSED_SHELL ('', (#49, #111, #159, #207, #255, #294));
#296 = MANIFOLD_SOLID_BREP ('', #295);
#297 = (
   LENGTH_UNIT ()
   NAMED_UNIT (*)
   SI_UNIT (.MILLI., .METRE.)
);
#298 = (
   NAMED_UNIT (*)
   SI_UNIT ($, .STERADIAN.)
   SOLID_ANGLE_UNIT ()
);
#299 = (
   NAMED_UNIT (*)
   SI_UNIT ($, .RADIAN.)
   PLANE_ANGLE_UNIT ()
);
#300 = UNCERTAINTY_MEASURE_WITH_UNIT (LENGTH_MEASURE(0.001), #297, 'DISTANCE_ACCURACY_VALUE', '');
#301 = (
   GEOMETRIC_REPRESENTATION_CONTEXT (3)
   GLOBAL_UNCERTAINTY_ASSIGNED_CONTEXT ((#300))
   GLOBAL_UNIT_ASSIGNED_CONTEXT ((#297, #298, #299))
   REPRESENTATION_CONTEXT ('', '3D')
);
#302 = SHAPE_REPRESENTATION ('', (), #301);
#303 = APPLICATION_CONTEXT ('configuration controlled 3D designs of mechanical parts and assemblies');
#304 = APPLICATION_PROTOCOL_DEFINITION ('International Standard', 'config_control_design', 1997, #303);
#305 = MECHANICAL_CONTEXT ('', #303, 'mechanical');
#306 = PRODUCT ('', '', '', (#305));
#307 = PERSON_AND_ORGANIZATION_ROLE ('design_owner');
#308 = PERSON ('', '', $, $, $, $);
#309 = ORGANIZATION ($, '', '');
#310 = PERSON_AND_ORGANIZATION (#308, #309);
#311 = CC_DESIGN_PERSON_AND_ORGANIZATION_ASSIGNMENT (#310, #307, (#306));
#312 = PRODUCT_RELATED_PRODUCT_CATEGORY ('detail', $, (#306));
#313 = PRODUCT_DEFINITION_FORMATION_WITH_SPECIFIED_SOURCE ('', '', #306, .NOT_KNOWN.);
#314 = APPROVAL_STATUS ('approved');
#315 = APPROVAL (#314, '');
#316 = CALENDAR_DATE (2021, 7, 1);
#317 = COORDINATED_UNIVERSAL_TIME_OFFSET (0, $, .AHEAD.);
#318 = LOCAL_TIME (8, 2, 18., #317);
#319 = DATE_AND_TIME (#316, #318);
#320 = APPROVAL_DATE_TIME (#319, #315);
#321 = APPROVAL_ROLE ('');
#322 = PERSON ('', '', $, $, $, $);
#323 = ORGANIZATION ($, '', '');
#324 = PERSON_AND_ORGANIZATION (#322, #323);
#325 = APPROVAL_PERSON_ORGANIZATION (#324, #315, #321);
#326 = CC_DESIGN_APPROVAL (#315, (#313));
#327 = PERSON_AND_ORGANIZATION_ROLE ('creator');
#328 = PERSON ('', '', $, $, $, $);
#329 = ORGANIZATION ($, '', '');
#330 = PERSON_AND_ORGANIZATION (#328, #329);
#331 = CC_DESIGN_PERSON_AND_ORGANIZATION_ASSIGNMENT (#330, #327, (#313));
#332 = PERSON_AND_ORGANIZATION_ROLE ('part_supplier');
#333 = PERSON ('', '', $, $, $, $);
#334 = ORGANIZATION ($, '', '');
#335 = PERSON_AND_ORGANIZATION (#333, #334);
#336 = CC_DESIGN_PERSON_AND_ORGANIZATION_ASSIGNMENT (#335, #332, (#313));
#337 = SECURITY_CLASSIFICATION_LEVEL ('unclassified');
#338 = SECURITY_CLASSIFICATION ('', '', #337);
#339 = APPROVAL_STATUS ('approved');
#340 = APPROVAL (#339, '');
#341 = CALENDAR_DATE (2021, 7, 1);
#342 = COORDINATED_UNIVERSAL_TIME_OFFSET (0, $, .AHEAD.);
#343 = LOCAL_TIME (8, 2, 18., #342);
#344 = DATE_AND_TIME (#341, #343);
#345 = APPROVAL_DATE_TIME (#344, #340);
#346 = APPROVAL_ROLE ('');
#347 = PERSON ('', '', $, $, $, $);
#348 = ORGANIZATION ($, '', '');
#349 = PERSON_AND_ORGANIZATION (#347, #348);
#350 = APPROVAL_PERSON_ORGANIZATION (#349, #340, #346);
#351 = CC_DESIGN_APPROVAL (#340, (#338));
#352 = DATE_TIME_ROLE ('classification_date');
#353 = CALENDAR_DATE (2021, 7, 1);
#354 = COORDINATED_UNIVERSAL_TIME_OFFSET (0, $, .AHEAD.);
#355 = LOCAL_TIME (8, 2, 18., #354);
#356 = DATE_AND_TIME (#353, #355);
#357 = CC_DESIGN_DATE_AND_TIME_ASSIGNMENT (#356, #352, (#338));
#358 = PERSON_AND_ORGANIZATION_ROLE ('classification_officer');
#359 = PERSON ('', '', $, $, $, $);
#360 = ORGANIZATION ($, '', '');
#361 = PERSON_AND_ORGANIZATION (#359, #360);
#362 = CC_DESIGN_PERSON_AND_ORGANIZATION_ASSIGNMENT (#361, #358, (#338));
#363 = CC_DESIGN_SECURITY_CLASSIFICATION (#338, (#313));
#364 = DESIGN_CONTEXT ('', #303, 'design');
#365 = PRODUCT_DEFINITION ('', '', #313, #364);
#366 = APPROVAL_STATUS ('approved');
#367 = APPROVAL (#366, '');
#368 = CALENDAR_DATE (2021, 7, 1);
#369 = COORDINATED_UNIVERSAL_TIME_OFFSET (0, $, .AHEAD.);
#370 = LOCAL_TIME (8, 2, 18., #369);
#371 = DATE_AND_TIME (#368, #370);
#372 = APPROVAL_DATE_TIME (#371, #367);
#373 = APPROVAL_ROLE ('');
#374 = PERSON ('', '', $, $, $, $);
#375 = ORGANIZATION ($, '', '');
#376 = PERSON_AND_ORGANIZATION (#374, #375);
#377 = APPROVAL_PERSON_ORGANIZATION (#376, #367, #373);
#378 = CC_DESIGN_APPROVAL (#367, (#365));
#379 = DATE_TIME_ROLE ('creation_date');
#380 = CALENDAR_DATE (2021, 7, 1);
#381 = COORDINATED_UNIVERSAL_TIME_OFFSET (0, $, .AHEAD.);
#382 = LOCAL_TIME (8, 2, 18., #381);
#383 = DATE_AND_TIME (#380, #382);
#384 = CC_DESIGN_DATE_AND_TIME_ASSIGNMENT (#383, #379, (#365));
#385 = PERSON_AND_ORGANIZATION_ROLE ('creator');
#386 = PERSON ('', '', $, $, $, $);
#387 = ORGANIZATION ($, '', '');
#388 = PERSON_AND_ORGANIZATION (#386, #387);
#389 = CC_DESIGN_PERSON_AND_ORGANIZATION_ASSIGNMENT (#388, #385, (#365));
#390 = PRODUCT_DEFINITION_SHAPE ('', '', #365);
#391 = SHAPE_DEFINITION_REPRESENTATION (#390, #302);
#392 = SHAPE_REPRESENTATION_RELATIONSHIP ('', '', #302, #393);
#393 = ADVANCED_BREP_SHAPE_REPRESENTATION ('', (#296), #301);
ENDSEC;
END-ISO-10303-21;
