ISO-10303-21;
HEADER;
FILE_DESCRIPTION ((), '1');
FILE_NAME ('C:\\Users\\kevin\\157 Range\\157 0400A.STP', '2021-01-07T07:52:05', ('Unknown'), ('mafordeurope'), 'OneCNC-XR7 Mill 3D Expert', 'OneCNC-XR7 Mill 3D Expert', '');
FILE_SCHEMA (('CONFIG_CONTROL_DESIGN'));
ENDSEC;

DATA;
#1 = CARTESIAN_POINT ('', (0., 0., 0.));
#2 = VERTEX_POINT ('', #1);
#3 = CARTESIAN_POINT ('', (2.46519032881566E-32, 2., -4.89858719658941E-16));
#4 = VERTEX_POINT ('', #3);
#5 = CARTESIAN_POINT ('', (0., 0., 0.));
#6 = CARTESIAN_POINT ('', (1.23259516440783E-32, 0.666666666666667, -1.63286239886314E-16));
#7 = CARTESIAN_POINT ('', (2.46519032881566E-32, 1.33333333333334, -3.26572479772629E-16));
#8 = CARTESIAN_POINT ('', (2.46519032881566E-32, 2., -4.89858719658941E-16));
#9 = B_SPLINE_CURVE_WITH_KNOTS ('', 3, (#5, #6, #7, #8), .UNSPECIFIED., .F., .U., (4, 4), (0., 1.), .UNSPECIFIED.);
#10 = EDGE_CURVE ('', #2, #4, #9, .T.);
#11 = ORIENTED_EDGE ('', *, *, #10, .F.);
#12 = ORIENTED_EDGE ('', *, *, #10, .T.);
#13 = CARTESIAN_POINT ('', (2.46519032881566E-32, 2., -4.89858719658941E-16));
#14 = CARTESIAN_POINT ('', (-4.89858719658941E-16, 2., 8.));
#15 = CARTESIAN_POINT ('', (-7.34788079488412E-16, -6., 4.));
#16 = CARTESIAN_POINT ('', (-2.44929359829471E-16, -6., -4.));
#17 = CARTESIAN_POINT ('', (4.89858719658941E-16, 2., -8.));
#18 = CARTESIAN_POINT ('', (2.46519032881566E-32, 2., -4.89858719658941E-16));
#19 = (
   BOUNDED_CURVE ()
   B_SPLINE_CURVE (5, (#13, #14, #15, #16, #17, #18), .UNSPECIFIED., .T., .U.)
   B_SPLINE_CURVE_WITH_KNOTS ((6, 6), (0., 1.), .UNSPECIFIED.)
   CURVE ()
   GEOMETRIC_REPRESENTATION_ITEM ()
   RATIONAL_B_SPLINE_CURVE ((5., 1., 1., 1., 1., 5.))
   REPRESENTATION_ITEM ('')
);
#20 = EDGE_CURVE ('', #4, #4, #19, .T.);
#21 = ORIENTED_EDGE ('', *, *, #20, .F.);
#22 = EDGE_LOOP ('', (#11, #12, #21));
#23 = FACE_OUTER_BOUND ('', #22, .F.);
#24 = CARTESIAN_POINT ('', (0., 0., 0.));
#25 = CARTESIAN_POINT ('', (1.23259516440783E-32, 0.666666666666667, -1.63286239886314E-16));
#26 = CARTESIAN_POINT ('', (2.46519032881566E-32, 1.33333333333334, -3.26572479772629E-16));
#27 = CARTESIAN_POINT ('', (2.46519032881566E-32, 2., -4.89858719658941E-16));
#28 = CARTESIAN_POINT ('', (0., 0., 0.));
#29 = CARTESIAN_POINT ('', (-1.63286239886314E-16, 0.666666666666667, 2.66666666666667));
#30 = CARTESIAN_POINT ('', (-3.26572479772628E-16, 1.33333333333334, 5.33333333333335));
#31 = CARTESIAN_POINT ('', (-4.89858719658941E-16, 2., 8.));
#32 = CARTESIAN_POINT ('', (0., 0., 0.));
#33 = CARTESIAN_POINT ('', (-2.44929359829471E-16, -2., 1.33333333333333));
#34 = CARTESIAN_POINT ('', (-4.89858719658943E-16, -4.00000000000001, 2.66666666666668));
#35 = CARTESIAN_POINT ('', (-7.34788079488412E-16, -6., 4.));
#36 = CARTESIAN_POINT ('', (0., 0., 0.));
#37 = CARTESIAN_POINT ('', (-8.16431199431569E-17, -2., -1.33333333333333));
#38 = CARTESIAN_POINT ('', (-1.63286239886314E-16, -4.00000000000001, -2.66666666666667));
#39 = CARTESIAN_POINT ('', (-2.44929359829471E-16, -6., -4.));
#40 = CARTESIAN_POINT ('', (0., 0., 0.));
#41 = CARTESIAN_POINT ('', (1.63286239886314E-16, 0.666666666666666, -2.66666666666667));
#42 = CARTESIAN_POINT ('', (3.26572479772628E-16, 1.33333333333334, -5.33333333333335));
#43 = CARTESIAN_POINT ('', (4.89858719658941E-16, 2., -8.));
#44 = CARTESIAN_POINT ('', (0., 0., 0.));
#45 = CARTESIAN_POINT ('', (1.23259516440783E-32, 0.666666666666667, -1.63286239886314E-16));
#46 = CARTESIAN_POINT ('', (2.46519032881566E-32, 1.33333333333334, -3.26572479772629E-16));
#47 = CARTESIAN_POINT ('', (2.46519032881566E-32, 2., -4.89858719658941E-16));
#48 = (
   BOUNDED_SURFACE ()
   B_SPLINE_SURFACE (5, 3, ((#24, #25, #26, #27), (#28, #29, #30, #31), (#32, #33, #34, #35), (#36, #37, #38, #39), (#40, #41, #42, #43), (#44, #45, #46, #47)), .UNSPECIFIED., .T., .F., .U.)
   B_SPLINE_SURFACE_WITH_KNOTS ((6, 6), (4, 4), (0., 1.), (0., 1.), .UNSPECIFIED.)
   SURFACE ()
   GEOMETRIC_REPRESENTATION_ITEM ()
   RATIONAL_B_SPLINE_SURFACE (((5., 5., 5., 5.), (1., 1., 1., 1.), (1., 1., 1., 1.), (1., 1., 1., 1.), (1., 1., 1., 1.), (5., 5., 5., 5.)))
   REPRESENTATION_ITEM ('')
);
#49 = ADVANCED_FACE ('', (#23), #48, .F.);
#50 = CARTESIAN_POINT ('', (-12., 2., -4.89858719658941E-16));
#51 = VERTEX_POINT ('', #50);
#52 = CARTESIAN_POINT ('', (-1.22464679914735E-16, 2., -4.89858719658941E-16));
#53 = CARTESIAN_POINT ('', (-4., 2., -4.89858719658941E-16));
#54 = CARTESIAN_POINT ('', (-8., 2., -4.89858719658941E-16));
#55 = CARTESIAN_POINT ('', (-12., 2., -4.89858719658941E-16));
#56 = B_SPLINE_CURVE_WITH_KNOTS ('', 3, (#52, #53, #54, #55), .UNSPECIFIED., .F., .U., (4, 4), (0., 1.), .UNSPECIFIED.);
#57 = EDGE_CURVE ('', #4, #51, #56, .T.);
#58 = ORIENTED_EDGE ('', *, *, #57, .F.);
#59 = ORIENTED_EDGE ('', *, *, #20, .T.);
#60 = ORIENTED_EDGE ('', *, *, #57, .T.);
#61 = CARTESIAN_POINT ('', (-12., 2., -4.89858719658941E-16));
#62 = CARTESIAN_POINT ('', (-12., 2., 8.));
#63 = CARTESIAN_POINT ('', (-12., -6., 4.));
#64 = CARTESIAN_POINT ('', (-12., -6., -4.));
#65 = CARTESIAN_POINT ('', (-12., 2., -8.));
#66 = CARTESIAN_POINT ('', (-12., 2., -4.89858719658941E-16));
#67 = (
   BOUNDED_CURVE ()
   B_SPLINE_CURVE (5, (#61, #62, #63, #64, #65, #66), .UNSPECIFIED., .T., .U.)
   B_SPLINE_CURVE_WITH_KNOTS ((6, 6), (0., 1.), .UNSPECIFIED.)
   CURVE ()
   GEOMETRIC_REPRESENTATION_ITEM ()
   RATIONAL_B_SPLINE_CURVE ((5., 1., 1., 1., 1., 5.))
   REPRESENTATION_ITEM ('')
);
#68 = EDGE_CURVE ('', #51, #51, #67, .T.);
#69 = ORIENTED_EDGE ('', *, *, #68, .F.);
#70 = EDGE_LOOP ('', (#58, #59, #60, #69));
#71 = FACE_OUTER_BOUND ('', #70, .F.);
#72 = CARTESIAN_POINT ('', (-1.22464679914735E-16, 2., -4.89858719658941E-16));
#73 = CARTESIAN_POINT ('', (-4., 2., -4.89858719658941E-16));
#74 = CARTESIAN_POINT ('', (-8., 2., -4.89858719658941E-16));
#75 = CARTESIAN_POINT ('', (-12., 2., -4.89858719658941E-16));
#76 = CARTESIAN_POINT ('', (-6.12323399573676E-16, 2., 8.));
#77 = CARTESIAN_POINT ('', (-4., 2., 8.));
#78 = CARTESIAN_POINT ('', (-8., 2., 8.));
#79 = CARTESIAN_POINT ('', (-12., 2., 8.));
#80 = CARTESIAN_POINT ('', (-8.57252759403147E-16, -6., 4.));
#81 = CARTESIAN_POINT ('', (-4., -6., 4.));
#82 = CARTESIAN_POINT ('', (-8., -6., 4.));
#83 = CARTESIAN_POINT ('', (-12., -6., 4.));
#84 = CARTESIAN_POINT ('', (-3.67394039744206E-16, -6., -4.));
#85 = CARTESIAN_POINT ('', (-4., -6., -4.));
#86 = CARTESIAN_POINT ('', (-8., -6., -4.));
#87 = CARTESIAN_POINT ('', (-12., -6., -4.));
#88 = CARTESIAN_POINT ('', (3.67394039744206E-16, 2., -8.));
#89 = CARTESIAN_POINT ('', (-4., 2., -8.));
#90 = CARTESIAN_POINT ('', (-8., 2., -8.));
#91 = CARTESIAN_POINT ('', (-12., 2., -8.));
#92 = CARTESIAN_POINT ('', (-1.22464679914735E-16, 2., -4.89858719658941E-16));
#93 = CARTESIAN_POINT ('', (-4., 2., -4.89858719658941E-16));
#94 = CARTESIAN_POINT ('', (-8., 2., -4.89858719658941E-16));
#95 = CARTESIAN_POINT ('', (-12., 2., -4.89858719658941E-16));
#96 = (
   BOUNDED_SURFACE ()
   B_SPLINE_SURFACE (5, 3, ((#72, #73, #74, #75), (#76, #77, #78, #79), (#80, #81, #82, #83), (#84, #85, #86, #87), (#88, #89, #90, #91), (#92, #93, #94, #95)), .UNSPECIFIED., .T., .F., .U.)
   B_SPLINE_SURFACE_WITH_KNOTS ((6, 6), (4, 4), (0., 1.), (0., 1.), .UNSPECIFIED.)
   SURFACE ()
   GEOMETRIC_REPRESENTATION_ITEM ()
   RATIONAL_B_SPLINE_SURFACE (((5., 5., 5., 5.), (1., 1., 1., 1.), (1., 1., 1., 1.), (1., 1., 1., 1.), (1., 1., 1., 1.), (5., 5., 5., 5.)))
   REPRESENTATION_ITEM ('')
);
#97 = ADVANCED_FACE ('', (#71), #96, .F.);
#98 = CARTESIAN_POINT ('', (-15.7320508075689, 3., -7.34788079488412E-16));
#99 = VERTEX_POINT ('', #98);
#100 = CARTESIAN_POINT ('', (-12., 2., -4.89858719658941E-16));
#101 = CARTESIAN_POINT ('', (-13.2440169358563, 2.33333333333333, -5.71501839602097E-16));
#102 = CARTESIAN_POINT ('', (-14.4880338717125, 2.66666666666667, -6.53144959545255E-16));
#103 = CARTESIAN_POINT ('', (-15.7320508075689, 3., -7.34788079488412E-16));
#104 = B_SPLINE_CURVE_WITH_KNOTS ('', 3, (#100, #101, #102, #103), .UNSPECIFIED., .F., .U., (4, 4), (0., 1.), .UNSPECIFIED.);
#105 = EDGE_CURVE ('', #51, #99, #104, .T.);
#106 = ORIENTED_EDGE ('', *, *, #105, .F.);
#107 = ORIENTED_EDGE ('', *, *, #68, .T.);
#108 = ORIENTED_EDGE ('', *, *, #105, .T.);
#109 = CARTESIAN_POINT ('', (-15.7320508075689, 3., -7.34788079488412E-16));
#110 = CARTESIAN_POINT ('', (-15.7320508075689, 3., 12.));
#111 = CARTESIAN_POINT ('', (-15.7320508075689, -8.99999999999999, 6.));
#112 = CARTESIAN_POINT ('', (-15.7320508075689, -8.99999999999999, -6.));
#113 = CARTESIAN_POINT ('', (-15.7320508075689, 3., -12.));
#114 = CARTESIAN_POINT ('', (-15.7320508075689, 3., -7.34788079488412E-16));
#115 = (
   BOUNDED_CURVE ()
   B_SPLINE_CURVE (5, (#109, #110, #111, #112, #113, #114), .UNSPECIFIED., .T., .U.)
   B_SPLINE_CURVE_WITH_KNOTS ((6, 6), (0., 1.), .UNSPECIFIED.)
   CURVE ()
   GEOMETRIC_REPRESENTATION_ITEM ()
   RATIONAL_B_SPLINE_CURVE ((5., 1., 1., 1., 1., 5.))
   REPRESENTATION_ITEM ('')
);
#116 = EDGE_CURVE ('', #99, #99, #115, .T.);
#117 = ORIENTED_EDGE ('', *, *, #116, .F.);
#118 = EDGE_LOOP ('', (#106, #107, #108, #117));
#119 = FACE_OUTER_BOUND ('', #118, .F.);
#120 = CARTESIAN_POINT ('', (-12., 2., -4.89858719658941E-16));
#121 = CARTESIAN_POINT ('', (-13.2440169358563, 2.33333333333333, -5.71501839602097E-16));
#122 = CARTESIAN_POINT ('', (-14.4880338717125, 2.66666666666667, -6.53144959545255E-16));
#123 = CARTESIAN_POINT ('', (-15.7320508075689, 3., -7.34788079488412E-16));
#124 = CARTESIAN_POINT ('', (-12., 2., 8.));
#125 = CARTESIAN_POINT ('', (-13.2440169358563, 2.33333333333333, 9.33333333333331));
#126 = CARTESIAN_POINT ('', (-14.4880338717125, 2.66666666666667, 10.6666666666667));
#127 = CARTESIAN_POINT ('', (-15.7320508075689, 3., 12.));
#128 = CARTESIAN_POINT ('', (-12., -6., 4.));
#129 = CARTESIAN_POINT ('', (-13.2440169358563, -6.99999999999998, 4.66666666666665));
#130 = CARTESIAN_POINT ('', (-14.4880338717125, -8., 5.33333333333333));
#131 = CARTESIAN_POINT ('', (-15.7320508075689, -8.99999999999999, 6.));
#132 = CARTESIAN_POINT ('', (-12., -6., -4.));
#133 = CARTESIAN_POINT ('', (-13.2440169358563, -6.99999999999998, -4.66666666666666));
#134 = CARTESIAN_POINT ('', (-14.4880338717125, -7.99999999999999, -5.33333333333333));
#135 = CARTESIAN_POINT ('', (-15.7320508075689, -8.99999999999999, -6.));
#136 = CARTESIAN_POINT ('', (-12., 2., -8.));
#137 = CARTESIAN_POINT ('', (-13.2440169358563, 2.33333333333333, -9.33333333333331));
#138 = CARTESIAN_POINT ('', (-14.4880338717125, 2.66666666666667, -10.6666666666667));
#139 = CARTESIAN_POINT ('', (-15.7320508075689, 3., -12.));
#140 = CARTESIAN_POINT ('', (-12., 2., -4.89858719658941E-16));
#141 = CARTESIAN_POINT ('', (-13.2440169358563, 2.33333333333333, -5.71501839602097E-16));
#142 = CARTESIAN_POINT ('', (-14.4880338717125, 2.66666666666667, -6.53144959545255E-16));
#143 = CARTESIAN_POINT ('', (-15.7320508075689, 3., -7.34788079488412E-16));
#144 = (
   BOUNDED_SURFACE ()
   B_SPLINE_SURFACE (5, 3, ((#120, #121, #122, #123), (#124, #125, #126, #127), (#128, #129, #130, #131), (#132, #133, #134, #135), (#136, #137, #138, #139), (#140, #141, #142, #143)), .UNSPECIFIED., .T., .F., .U.)
   B_SPLINE_SURFACE_WITH_KNOTS ((6, 6), (4, 4), (0., 1.), (0., 1.), .UNSPECIFIED.)
   SURFACE ()
   GEOMETRIC_REPRESENTATION_ITEM ()
   RATIONAL_B_SPLINE_SURFACE (((5., 5., 5., 5.), (1., 1., 1., 1.), (1., 1., 1., 1.), (1., 1., 1., 1.), (1., 1., 1., 1.), (5., 5., 5., 5.)))
   REPRESENTATION_ITEM ('')
);
#145 = ADVANCED_FACE ('', (#119), #144, .F.);
#146 = CARTESIAN_POINT ('', (-75., 3., -7.34788079488411E-16));
#147 = VERTEX_POINT ('', #146);
#148 = CARTESIAN_POINT ('', (-15.7320508075689, 3., -7.34788079488412E-16));
#149 = CARTESIAN_POINT ('', (-35.4880338717125, 3., -7.34788079488412E-16));
#150 = CARTESIAN_POINT ('', (-55.2440169358561, 3., -7.34788079488411E-16));
#151 = CARTESIAN_POINT ('', (-75., 3., -7.34788079488411E-16));
#152 = B_SPLINE_CURVE_WITH_KNOTS ('', 3, (#148, #149, #150, #151), .UNSPECIFIED., .F., .U., (4, 4), (0., 1.), .UNSPECIFIED.);
#153 = EDGE_CURVE ('', #99, #147, #152, .T.);
#154 = ORIENTED_EDGE ('', *, *, #153, .F.);
#155 = ORIENTED_EDGE ('', *, *, #116, .T.);
#156 = ORIENTED_EDGE ('', *, *, #153, .T.);
#157 = CARTESIAN_POINT ('', (-75., 3., -7.34788079488411E-16));
#158 = CARTESIAN_POINT ('', (-75., 2.99999999999998, 12.));
#159 = CARTESIAN_POINT ('', (-75., -8.99999999999999, 5.99999999999998));
#160 = CARTESIAN_POINT ('', (-75., -8.99999999999997, -6.00000000000001));
#161 = CARTESIAN_POINT ('', (-75., 3.00000000000002, -12.));
#162 = CARTESIAN_POINT ('', (-75., 3., -7.34788079488411E-16));
#163 = (
   BOUNDED_CURVE ()
   B_SPLINE_CURVE (5, (#157, #158, #159, #160, #161, #162), .UNSPECIFIED., .T., .U.)
   B_SPLINE_CURVE_WITH_KNOTS ((6, 6), (0., 1.), .UNSPECIFIED.)
   CURVE ()
   GEOMETRIC_REPRESENTATION_ITEM ()
   RATIONAL_B_SPLINE_CURVE ((5., 1., 1., 1., 1., 5.))
   REPRESENTATION_ITEM ('')
);
#164 = EDGE_CURVE ('', #147, #147, #163, .T.);
#165 = ORIENTED_EDGE ('', *, *, #164, .F.);
#166 = EDGE_LOOP ('', (#154, #155, #156, #165));
#167 = FACE_OUTER_BOUND ('', #166, .F.);
#168 = CARTESIAN_POINT ('', (-15.7320508075689, 3., -7.34788079488412E-16));
#169 = CARTESIAN_POINT ('', (-35.4880338717125, 3., -7.34788079488412E-16));
#170 = CARTESIAN_POINT ('', (-55.2440169358561, 3., -7.34788079488411E-16));
#171 = CARTESIAN_POINT ('', (-75., 3., -7.34788079488411E-16));
#172 = CARTESIAN_POINT ('', (-15.7320508075689, 3., 12.));
#173 = CARTESIAN_POINT ('', (-35.4880338717125, 3., 12.));
#174 = CARTESIAN_POINT ('', (-55.2440169358561, 2.99999999999999, 12.));
#175 = CARTESIAN_POINT ('', (-75., 2.99999999999998, 12.));
#176 = CARTESIAN_POINT ('', (-15.7320508075689, -8.99999999999999, 6.));
#177 = CARTESIAN_POINT ('', (-35.4880338717125, -9., 5.99999999999999));
#178 = CARTESIAN_POINT ('', (-55.2440169358561, -8.99999999999999, 5.99999999999998));
#179 = CARTESIAN_POINT ('', (-75., -8.99999999999999, 5.99999999999998));
#180 = CARTESIAN_POINT ('', (-15.7320508075689, -8.99999999999999, -6.));
#181 = CARTESIAN_POINT ('', (-35.4880338717125, -8.99999999999999, -6.00000000000001));
#182 = CARTESIAN_POINT ('', (-55.2440169358561, -8.99999999999998, -6.));
#183 = CARTESIAN_POINT ('', (-75., -8.99999999999997, -6.00000000000001));
#184 = CARTESIAN_POINT ('', (-15.7320508075689, 3., -12.));
#185 = CARTESIAN_POINT ('', (-35.4880338717125, 3.00000000000001, -12.));
#186 = CARTESIAN_POINT ('', (-55.2440169358561, 3.00000000000001, -12.));
#187 = CARTESIAN_POINT ('', (-75., 3.00000000000002, -12.));
#188 = CARTESIAN_POINT ('', (-15.7320508075689, 3., -7.34788079488412E-16));
#189 = CARTESIAN_POINT ('', (-35.4880338717125, 3., -7.34788079488412E-16));
#190 = CARTESIAN_POINT ('', (-55.2440169358561, 3., -7.34788079488411E-16));
#191 = CARTESIAN_POINT ('', (-75., 3., -7.34788079488411E-16));
#192 = (
   BOUNDED_SURFACE ()
   B_SPLINE_SURFACE (5, 3, ((#168, #169, #170, #171), (#172, #173, #174, #175), (#176, #177, #178, #179), (#180, #181, #182, #183), (#184, #185, #186, #187), (#188, #189, #190, #191)), .UNSPECIFIED., .T., .F., .U.)
   B_SPLINE_SURFACE_WITH_KNOTS ((6, 6), (4, 4), (0., 1.), (0., 1.), .UNSPECIFIED.)
   SURFACE ()
   GEOMETRIC_REPRESENTATION_ITEM ()
   RATIONAL_B_SPLINE_SURFACE (((5., 5., 5., 5.), (1., 1., 1., 1.), (1., 1., 1., 1.), (1., 1., 1., 1.), (1., 1., 1., 1.), (5., 5., 5., 5.)))
   REPRESENTATION_ITEM ('')
);
#193 = ADVANCED_FACE ('', (#167), #192, .F.);
#194 = CARTESIAN_POINT ('', (-75., 4.59242549680257E-15, -4.59242549680257E-15));
#195 = VERTEX_POINT ('', #194);
#196 = CARTESIAN_POINT ('', (-75., 3., -7.34788079488411E-16));
#197 = CARTESIAN_POINT ('', (-75., 2., -4.8985871965894E-16));
#198 = CARTESIAN_POINT ('', (-75., 1., -2.44929359829469E-16));
#199 = CARTESIAN_POINT ('', (-75., 4.59242549680257E-15, -4.59242549680257E-15));
#200 = B_SPLINE_CURVE_WITH_KNOTS ('', 3, (#196, #197, #198, #199), .UNSPECIFIED., .F., .U., (4, 4), (0., 1.), .UNSPECIFIED.);
#201 = EDGE_CURVE ('', #147, #195, #200, .T.);
#202 = ORIENTED_EDGE ('', *, *, #201, .F.);
#203 = ORIENTED_EDGE ('', *, *, #164, .T.);
#204 = ORIENTED_EDGE ('', *, *, #201, .T.);
#205 = EDGE_LOOP ('', (#202, #203, #204));
#206 = FACE_OUTER_BOUND ('', #205, .F.);
#207 = CARTESIAN_POINT ('', (-75., 3., -7.34788079488411E-16));
#208 = CARTESIAN_POINT ('', (-75., 2., -4.8985871965894E-16));
#209 = CARTESIAN_POINT ('', (-75., 1., -2.44929359829469E-16));
#210 = CARTESIAN_POINT ('', (-75., 4.59242549680257E-15, -4.59242549680257E-15));
#211 = CARTESIAN_POINT ('', (-75., 2.99999999999998, 12.));
#212 = CARTESIAN_POINT ('', (-75., 1.99999999999998, 7.99999999999998));
#213 = CARTESIAN_POINT ('', (-75., 0.999999999999983, 3.99999999999998));
#214 = CARTESIAN_POINT ('', (-75., 4.59242549680257E-15, -4.59242549680257E-15));
#215 = CARTESIAN_POINT ('', (-75., -8.99999999999999, 5.99999999999998));
#216 = CARTESIAN_POINT ('', (-75., -5.99999999999999, 3.99999999999997));
#217 = CARTESIAN_POINT ('', (-75., -2.99999999999999, 1.99999999999997));
#218 = CARTESIAN_POINT ('', (-75., 4.59242549680257E-15, -4.59242549680257E-15));
#219 = CARTESIAN_POINT ('', (-75., -8.99999999999997, -6.00000000000001));
#220 = CARTESIAN_POINT ('', (-75., -5.99999999999997, -4.00000000000001));
#221 = CARTESIAN_POINT ('', (-75., -2.99999999999997, -2.00000000000001));
#222 = CARTESIAN_POINT ('', (-75., 4.59242549680257E-15, -4.59242549680257E-15));
#223 = CARTESIAN_POINT ('', (-75., 3.00000000000002, -12.));
#224 = CARTESIAN_POINT ('', (-75., 2.00000000000002, -7.99999999999998));
#225 = CARTESIAN_POINT ('', (-75., 1.00000000000002, -3.99999999999998));
#226 = CARTESIAN_POINT ('', (-75., 4.59242549680257E-15, -4.59242549680257E-15));
#227 = CARTESIAN_POINT ('', (-75., 3., -7.34788079488411E-16));
#228 = CARTESIAN_POINT ('', (-75., 2., -4.8985871965894E-16));
#229 = CARTESIAN_POINT ('', (-75., 1., -2.44929359829469E-16));
#230 = CARTESIAN_POINT ('', (-75., 4.59242549680257E-15, -4.59242549680257E-15));
#231 = (
   BOUNDED_SURFACE ()
   B_SPLINE_SURFACE (5, 3, ((#207, #208, #209, #210), (#211, #212, #213, #214), (#215, #216, #217, #218), (#219, #220, #221, #222), (#223, #224, #225, #226), (#227, #228, #229, #230)), .UNSPECIFIED., .T., .F., .U.)
   B_SPLINE_SURFACE_WITH_KNOTS ((6, 6), (4, 4), (0., 1.), (0., 1.), .UNSPECIFIED.)
   SURFACE ()
   GEOMETRIC_REPRESENTATION_ITEM ()
   RATIONAL_B_SPLINE_SURFACE (((5., 5., 5., 5.), (1., 1., 1., 1.), (1., 1., 1., 1.), (1., 1., 1., 1.), (1., 1., 1., 1.), (5., 5., 5., 5.)))
   REPRESENTATION_ITEM ('')
);
#232 = ADVANCED_FACE ('', (#206), #231, .F.);
#233 = CLOSED_SHELL ('', (#49, #97, #145, #193, #232));
#234 = MANIFOLD_SOLID_BREP ('', #233);
#235 = (
   LENGTH_UNIT ()
   NAMED_UNIT (*)
   SI_UNIT (.MILLI., .METRE.)
);
#236 = (
   NAMED_UNIT (*)
   SI_UNIT ($, .STERADIAN.)
   SOLID_ANGLE_UNIT ()
);
#237 = (
   NAMED_UNIT (*)
   SI_UNIT ($, .RADIAN.)
   PLANE_ANGLE_UNIT ()
);
#238 = UNCERTAINTY_MEASURE_WITH_UNIT (LENGTH_MEASURE(0.001), #235, 'DISTANCE_ACCURACY_VALUE', '');
#239 = (
   GEOMETRIC_REPRESENTATION_CONTEXT (3)
   GLOBAL_UNCERTAINTY_ASSIGNED_CONTEXT ((#238))
   GLOBAL_UNIT_ASSIGNED_CONTEXT ((#235, #236, #237))
   REPRESENTATION_CONTEXT ('', '3D')
);
#240 = SHAPE_REPRESENTATION ('', (), #239);
#241 = APPLICATION_CONTEXT ('configuration controlled 3D designs of mechanical parts and assemblies');
#242 = APPLICATION_PROTOCOL_DEFINITION ('International Standard', 'config_control_design', 1997, #241);
#243 = MECHANICAL_CONTEXT ('', #241, 'mechanical');
#244 = PRODUCT ('', '', '', (#243));
#245 = PERSON_AND_ORGANIZATION_ROLE ('design_owner');
#246 = PERSON ('', '', $, $, $, $);
#247 = ORGANIZATION ($, '', '');
#248 = PERSON_AND_ORGANIZATION (#246, #247);
#249 = CC_DESIGN_PERSON_AND_ORGANIZATION_ASSIGNMENT (#248, #245, (#244));
#250 = PRODUCT_RELATED_PRODUCT_CATEGORY ('detail', $, (#244));
#251 = PRODUCT_DEFINITION_FORMATION_WITH_SPECIFIED_SOURCE ('', '', #244, .NOT_KNOWN.);
#252 = APPROVAL_STATUS ('approved');
#253 = APPROVAL (#252, '');
#254 = CALENDAR_DATE (2021, 7, 1);
#255 = COORDINATED_UNIVERSAL_TIME_OFFSET (0, $, .AHEAD.);
#256 = LOCAL_TIME (7, 52, 5., #255);
#257 = DATE_AND_TIME (#254, #256);
#258 = APPROVAL_DATE_TIME (#257, #253);
#259 = APPROVAL_ROLE ('');
#260 = PERSON ('', '', $, $, $, $);
#261 = ORGANIZATION ($, '', '');
#262 = PERSON_AND_ORGANIZATION (#260, #261);
#263 = APPROVAL_PERSON_ORGANIZATION (#262, #253, #259);
#264 = CC_DESIGN_APPROVAL (#253, (#251));
#265 = PERSON_AND_ORGANIZATION_ROLE ('creator');
#266 = PERSON ('', '', $, $, $, $);
#267 = ORGANIZATION ($, '', '');
#268 = PERSON_AND_ORGANIZATION (#266, #267);
#269 = CC_DESIGN_PERSON_AND_ORGANIZATION_ASSIGNMENT (#268, #265, (#251));
#270 = PERSON_AND_ORGANIZATION_ROLE ('part_supplier');
#271 = PERSON ('', '', $, $, $, $);
#272 = ORGANIZATION ($, '', '');
#273 = PERSON_AND_ORGANIZATION (#271, #272);
#274 = CC_DESIGN_PERSON_AND_ORGANIZATION_ASSIGNMENT (#273, #270, (#251));
#275 = SECURITY_CLASSIFICATION_LEVEL ('unclassified');
#276 = SECURITY_CLASSIFICATION ('', '', #275);
#277 = APPROVAL_STATUS ('approved');
#278 = APPROVAL (#277, '');
#279 = CALENDAR_DATE (2021, 7, 1);
#280 = COORDINATED_UNIVERSAL_TIME_OFFSET (0, $, .AHEAD.);
#281 = LOCAL_TIME (7, 52, 5., #280);
#282 = DATE_AND_TIME (#279, #281);
#283 = APPROVAL_DATE_TIME (#282, #278);
#284 = APPROVAL_ROLE ('');
#285 = PERSON ('', '', $, $, $, $);
#286 = ORGANIZATION ($, '', '');
#287 = PERSON_AND_ORGANIZATION (#285, #286);
#288 = APPROVAL_PERSON_ORGANIZATION (#287, #278, #284);
#289 = CC_DESIGN_APPROVAL (#278, (#276));
#290 = DATE_TIME_ROLE ('classification_date');
#291 = CALENDAR_DATE (2021, 7, 1);
#292 = COORDINATED_UNIVERSAL_TIME_OFFSET (0, $, .AHEAD.);
#293 = LOCAL_TIME (7, 52, 5., #292);
#294 = DATE_AND_TIME (#291, #293);
#295 = CC_DESIGN_DATE_AND_TIME_ASSIGNMENT (#294, #290, (#276));
#296 = PERSON_AND_ORGANIZATION_ROLE ('classification_officer');
#297 = PERSON ('', '', $, $, $, $);
#298 = ORGANIZATION ($, '', '');
#299 = PERSON_AND_ORGANIZATION (#297, #298);
#300 = CC_DESIGN_PERSON_AND_ORGANIZATION_ASSIGNMENT (#299, #296, (#276));
#301 = CC_DESIGN_SECURITY_CLASSIFICATION (#276, (#251));
#302 = DESIGN_CONTEXT ('', #241, 'design');
#303 = PRODUCT_DEFINITION ('', '', #251, #302);
#304 = APPROVAL_STATUS ('approved');
#305 = APPROVAL (#304, '');
#306 = CALENDAR_DATE (2021, 7, 1);
#307 = COORDINATED_UNIVERSAL_TIME_OFFSET (0, $, .AHEAD.);
#308 = LOCAL_TIME (7, 52, 5., #307);
#309 = DATE_AND_TIME (#306, #308);
#310 = APPROVAL_DATE_TIME (#309, #305);
#311 = APPROVAL_ROLE ('');
#312 = PERSON ('', '', $, $, $, $);
#313 = ORGANIZATION ($, '', '');
#314 = PERSON_AND_ORGANIZATION (#312, #313);
#315 = APPROVAL_PERSON_ORGANIZATION (#314, #305, #311);
#316 = CC_DESIGN_APPROVAL (#305, (#303));
#317 = DATE_TIME_ROLE ('creation_date');
#318 = CALENDAR_DATE (2021, 7, 1);
#319 = COORDINATED_UNIVERSAL_TIME_OFFSET (0, $, .AHEAD.);
#320 = LOCAL_TIME (7, 52, 5., #319);
#321 = DATE_AND_TIME (#318, #320);
#322 = CC_DESIGN_DATE_AND_TIME_ASSIGNMENT (#321, #317, (#303));
#323 = PERSON_AND_ORGANIZATION_ROLE ('creator');
#324 = PERSON ('', '', $, $, $, $);
#325 = ORGANIZATION ($, '', '');
#326 = PERSON_AND_ORGANIZATION (#324, #325);
#327 = CC_DESIGN_PERSON_AND_ORGANIZATION_ASSIGNMENT (#326, #323, (#303));
#328 = PRODUCT_DEFINITION_SHAPE ('', '', #303);
#329 = SHAPE_DEFINITION_REPRESENTATION (#328, #240);
#330 = SHAPE_REPRESENTATION_RELATIONSHIP ('', '', #240, #331);
#331 = ADVANCED_BREP_SHAPE_REPRESENTATION ('', (#234), #239);
ENDSEC;
END-ISO-10303-21;
