ISO-10303-21;
HEADER;
FILE_DESCRIPTION ((), '1');
FILE_NAME ('C:\\Users\\kevin\\157 Range\\157 0500A.STP', '2021-01-07T08:12:10', ('Unknown'), ('mafordeurope'), 'OneCNC-XR7 Mill 3D Expert', 'OneCNC-XR7 Mill 3D Expert', '');
FILE_SCHEMA (('CONFIG_CONTROL_DESIGN'));
ENDSEC;

DATA;
#1 = CARTESIAN_POINT ('', (0., 0., 0.));
#2 = VERTEX_POINT ('', #1);
#3 = CARTESIAN_POINT ('', (4.93038065763132E-32, 2.5, -6.12323399573677E-16));
#4 = VERTEX_POINT ('', #3);
#5 = CARTESIAN_POINT ('', (0., 0., 0.));
#6 = CARTESIAN_POINT ('', (6.16297582203915E-33, 0.833333333333333, -2.04107799857892E-16));
#7 = CARTESIAN_POINT ('', (2.46519032881566E-32, 1.66666666666667, -4.08215599715786E-16));
#8 = CARTESIAN_POINT ('', (4.93038065763132E-32, 2.5, -6.12323399573677E-16));
#9 = B_SPLINE_CURVE_WITH_KNOTS ('', 3, (#5, #6, #7, #8), .UNSPECIFIED., .F., .U., (4, 4), (0., 1.), .UNSPECIFIED.);
#10 = EDGE_CURVE ('', #2, #4, #9, .T.);
#11 = ORIENTED_EDGE ('', *, *, #10, .F.);
#12 = ORIENTED_EDGE ('', *, *, #10, .T.);
#13 = CARTESIAN_POINT ('', (4.93038065763132E-32, 2.5, -6.12323399573677E-16));
#14 = CARTESIAN_POINT ('', (-6.12323399573676E-16, 2.5, 10.));
#15 = CARTESIAN_POINT ('', (-9.18485099360515E-16, -7.5, 5.));
#16 = CARTESIAN_POINT ('', (-3.06161699786838E-16, -7.5, -5.));
#17 = CARTESIAN_POINT ('', (6.12323399573677E-16, 2.5, -10.));
#18 = CARTESIAN_POINT ('', (4.93038065763132E-32, 2.5, -6.12323399573677E-16));
#19 = (
   BOUNDED_CURVE ()
   B_SPLINE_CURVE (5, (#13, #14, #15, #16, #17, #18), .UNSPECIFIED., .T., .U.)
   B_SPLINE_CURVE_WITH_KNOTS ((6, 6), (0., 1.), .UNSPECIFIED.)
   CURVE ()
   GEOMETRIC_REPRESENTATION_ITEM ()
   RATIONAL_B_SPLINE_CURVE ((5., 1., 1., 1., 1., 5.))
   REPRESENTATION_ITEM ('')
);
#20 = EDGE_CURVE ('', #4, #4, #19, .T.);
#21 = ORIENTED_EDGE ('', *, *, #20, .F.);
#22 = EDGE_LOOP ('', (#11, #12, #21));
#23 = FACE_OUTER_BOUND ('', #22, .F.);
#24 = CARTESIAN_POINT ('', (0., 0., 0.));
#25 = CARTESIAN_POINT ('', (6.16297582203915E-33, 0.833333333333333, -2.04107799857892E-16));
#26 = CARTESIAN_POINT ('', (2.46519032881566E-32, 1.66666666666667, -4.08215599715786E-16));
#27 = CARTESIAN_POINT ('', (4.93038065763132E-32, 2.5, -6.12323399573677E-16));
#28 = CARTESIAN_POINT ('', (0., 0., 0.));
#29 = CARTESIAN_POINT ('', (-2.04107799857892E-16, 0.833333333333334, 3.33333333333333));
#30 = CARTESIAN_POINT ('', (-4.08215599715785E-16, 1.66666666666667, 6.66666666666669));
#31 = CARTESIAN_POINT ('', (-6.12323399573676E-16, 2.5, 10.));
#32 = CARTESIAN_POINT ('', (0., 0., 0.));
#33 = CARTESIAN_POINT ('', (-3.06161699786838E-16, -2.5, 1.66666666666667));
#34 = CARTESIAN_POINT ('', (-6.12323399573678E-16, -5.00000000000001, 3.33333333333334));
#35 = CARTESIAN_POINT ('', (-9.18485099360515E-16, -7.5, 5.));
#36 = CARTESIAN_POINT ('', (0., 0., 0.));
#37 = CARTESIAN_POINT ('', (-1.02053899928946E-16, -2.5, -1.66666666666667));
#38 = CARTESIAN_POINT ('', (-2.04107799857893E-16, -5.00000000000002, -3.33333333333334));
#39 = CARTESIAN_POINT ('', (-3.06161699786838E-16, -7.5, -5.));
#40 = CARTESIAN_POINT ('', (0., 0., 0.));
#41 = CARTESIAN_POINT ('', (2.04107799857892E-16, 0.833333333333333, -3.33333333333333));
#42 = CARTESIAN_POINT ('', (4.08215599715785E-16, 1.66666666666667, -6.66666666666669));
#43 = CARTESIAN_POINT ('', (6.12323399573677E-16, 2.5, -10.));
#44 = CARTESIAN_POINT ('', (0., 0., 0.));
#45 = CARTESIAN_POINT ('', (6.16297582203915E-33, 0.833333333333333, -2.04107799857892E-16));
#46 = CARTESIAN_POINT ('', (2.46519032881566E-32, 1.66666666666667, -4.08215599715786E-16));
#47 = CARTESIAN_POINT ('', (4.93038065763132E-32, 2.5, -6.12323399573677E-16));
#48 = (
   BOUNDED_SURFACE ()
   B_SPLINE_SURFACE (5, 3, ((#24, #25, #26, #27), (#28, #29, #30, #31), (#32, #33, #34, #35), (#36, #37, #38, #39), (#40, #41, #42, #43), (#44, #45, #46, #47)), .UNSPECIFIED., .T., .F., .U.)
   B_SPLINE_SURFACE_WITH_KNOTS ((6, 6), (4, 4), (0., 1.), (0., 1.), .UNSPECIFIED.)
   SURFACE ()
   GEOMETRIC_REPRESENTATION_ITEM ()
   RATIONAL_B_SPLINE_SURFACE (((5., 5., 5., 5.), (1., 1., 1., 1.), (1., 1., 1., 1.), (1., 1., 1., 1.), (1., 1., 1., 1.), (5., 5., 5., 5.)))
   REPRESENTATION_ITEM ('')
);
#49 = ADVANCED_FACE ('', (#23), #48, .F.);
#50 = CARTESIAN_POINT ('', (-15., 2.5, -6.12323399573676E-16));
#51 = VERTEX_POINT ('', #50);
#52 = CARTESIAN_POINT ('', (-1.53080849893419E-16, 2.5, -6.12323399573677E-16));
#53 = CARTESIAN_POINT ('', (-5., 2.5, -6.12323399573677E-16));
#54 = CARTESIAN_POINT ('', (-9.99999999999998, 2.5, -6.12323399573677E-16));
#55 = CARTESIAN_POINT ('', (-15., 2.5, -6.12323399573676E-16));
#56 = B_SPLINE_CURVE_WITH_KNOTS ('', 3, (#52, #53, #54, #55), .UNSPECIFIED., .F., .U., (4, 4), (0., 1.), .UNSPECIFIED.);
#57 = EDGE_CURVE ('', #4, #51, #56, .T.);
#58 = ORIENTED_EDGE ('', *, *, #57, .F.);
#59 = ORIENTED_EDGE ('', *, *, #20, .T.);
#60 = ORIENTED_EDGE ('', *, *, #57, .T.);
#61 = CARTESIAN_POINT ('', (-15., 2.5, -6.12323399573676E-16));
#62 = CARTESIAN_POINT ('', (-15., 2.5, 9.99999999999999));
#63 = CARTESIAN_POINT ('', (-15., -7.5, 5.));
#64 = CARTESIAN_POINT ('', (-15., -7.5, -5.));
#65 = CARTESIAN_POINT ('', (-15., 2.5, -10.));
#66 = CARTESIAN_POINT ('', (-15., 2.5, -6.12323399573676E-16));
#67 = (
   BOUNDED_CURVE ()
   B_SPLINE_CURVE (5, (#61, #62, #63, #64, #65, #66), .UNSPECIFIED., .T., .U.)
   B_SPLINE_CURVE_WITH_KNOTS ((6, 6), (0., 1.), .UNSPECIFIED.)
   CURVE ()
   GEOMETRIC_REPRESENTATION_ITEM ()
   RATIONAL_B_SPLINE_CURVE ((5., 1., 1., 1., 1., 5.))
   REPRESENTATION_ITEM ('')
);
#68 = EDGE_CURVE ('', #51, #51, #67, .T.);
#69 = ORIENTED_EDGE ('', *, *, #68, .F.);
#70 = EDGE_LOOP ('', (#58, #59, #60, #69));
#71 = FACE_OUTER_BOUND ('', #70, .F.);
#72 = CARTESIAN_POINT ('', (-1.53080849893419E-16, 2.5, -6.12323399573677E-16));
#73 = CARTESIAN_POINT ('', (-5., 2.5, -6.12323399573677E-16));
#74 = CARTESIAN_POINT ('', (-9.99999999999998, 2.5, -6.12323399573677E-16));
#75 = CARTESIAN_POINT ('', (-15., 2.5, -6.12323399573676E-16));
#76 = CARTESIAN_POINT ('', (-7.65404249467096E-16, 2.5, 10.));
#77 = CARTESIAN_POINT ('', (-5., 2.5, 10.));
#78 = CARTESIAN_POINT ('', (-9.99999999999998, 2.5, 10.));
#79 = CARTESIAN_POINT ('', (-15., 2.5, 9.99999999999999));
#80 = CARTESIAN_POINT ('', (-1.07156594925393E-15, -7.5, 5.));
#81 = CARTESIAN_POINT ('', (-5., -7.5, 5.));
#82 = CARTESIAN_POINT ('', (-9.99999999999998, -7.5, 5.));
#83 = CARTESIAN_POINT ('', (-15., -7.5, 5.));
#84 = CARTESIAN_POINT ('', (-4.59242549680258E-16, -7.5, -5.));
#85 = CARTESIAN_POINT ('', (-5., -7.5, -5.));
#86 = CARTESIAN_POINT ('', (-9.99999999999998, -7.5, -5.));
#87 = CARTESIAN_POINT ('', (-15., -7.5, -5.));
#88 = CARTESIAN_POINT ('', (4.59242549680257E-16, 2.5, -10.));
#89 = CARTESIAN_POINT ('', (-5., 2.5, -10.));
#90 = CARTESIAN_POINT ('', (-9.99999999999998, 2.5, -10.));
#91 = CARTESIAN_POINT ('', (-15., 2.5, -10.));
#92 = CARTESIAN_POINT ('', (-1.53080849893419E-16, 2.5, -6.12323399573677E-16));
#93 = CARTESIAN_POINT ('', (-5., 2.5, -6.12323399573677E-16));
#94 = CARTESIAN_POINT ('', (-9.99999999999998, 2.5, -6.12323399573677E-16));
#95 = CARTESIAN_POINT ('', (-15., 2.5, -6.12323399573676E-16));
#96 = (
   BOUNDED_SURFACE ()
   B_SPLINE_SURFACE (5, 3, ((#72, #73, #74, #75), (#76, #77, #78, #79), (#80, #81, #82, #83), (#84, #85, #86, #87), (#88, #89, #90, #91), (#92, #93, #94, #95)), .UNSPECIFIED., .T., .F., .U.)
   B_SPLINE_SURFACE_WITH_KNOTS ((6, 6), (4, 4), (0., 1.), (0., 1.), .UNSPECIFIED.)
   SURFACE ()
   GEOMETRIC_REPRESENTATION_ITEM ()
   RATIONAL_B_SPLINE_SURFACE (((5., 5., 5., 5.), (1., 1., 1., 1.), (1., 1., 1., 1.), (1., 1., 1., 1.), (1., 1., 1., 1.), (5., 5., 5., 5.)))
   REPRESENTATION_ITEM ('')
);
#97 = ADVANCED_FACE ('', (#71), #96, .F.);
#98 = CARTESIAN_POINT ('', (-16.8660254037844, 3., -7.34788079488412E-16));
#99 = VERTEX_POINT ('', #98);
#100 = CARTESIAN_POINT ('', (-15., 2.5, -6.12323399573676E-16));
#101 = CARTESIAN_POINT ('', (-15.6220084679281, 2.66666666666667, -6.53144959545256E-16));
#102 = CARTESIAN_POINT ('', (-16.2440169358563, 2.83333333333333, -6.93966519516833E-16));
#103 = CARTESIAN_POINT ('', (-16.8660254037844, 3., -7.34788079488412E-16));
#104 = B_SPLINE_CURVE_WITH_KNOTS ('', 3, (#100, #101, #102, #103), .UNSPECIFIED., .F., .U., (4, 4), (0., 1.), .UNSPECIFIED.);
#105 = EDGE_CURVE ('', #51, #99, #104, .T.);
#106 = ORIENTED_EDGE ('', *, *, #105, .F.);
#107 = ORIENTED_EDGE ('', *, *, #68, .T.);
#108 = ORIENTED_EDGE ('', *, *, #105, .T.);
#109 = CARTESIAN_POINT ('', (-16.8660254037844, 3., -7.34788079488412E-16));
#110 = CARTESIAN_POINT ('', (-16.8660254037844, 3., 12.));
#111 = CARTESIAN_POINT ('', (-16.8660254037844, -8.99999999999999, 6.));
#112 = CARTESIAN_POINT ('', (-16.8660254037844, -8.99999999999999, -6.));
#113 = CARTESIAN_POINT ('', (-16.8660254037844, 3., -12.));
#114 = CARTESIAN_POINT ('', (-16.8660254037844, 3., -7.34788079488412E-16));
#115 = (
   BOUNDED_CURVE ()
   B_SPLINE_CURVE (5, (#109, #110, #111, #112, #113, #114), .UNSPECIFIED., .T., .U.)
   B_SPLINE_CURVE_WITH_KNOTS ((6, 6), (0., 1.), .UNSPECIFIED.)
   CURVE ()
   GEOMETRIC_REPRESENTATION_ITEM ()
   RATIONAL_B_SPLINE_CURVE ((5., 1., 1., 1., 1., 5.))
   REPRESENTATION_ITEM ('')
);
#116 = EDGE_CURVE ('', #99, #99, #115, .T.);
#117 = ORIENTED_EDGE ('', *, *, #116, .F.);
#118 = EDGE_LOOP ('', (#106, #107, #108, #117));
#119 = FACE_OUTER_BOUND ('', #118, .F.);
#120 = CARTESIAN_POINT ('', (-15., 2.5, -6.12323399573676E-16));
#121 = CARTESIAN_POINT ('', (-15.6220084679281, 2.66666666666667, -6.53144959545256E-16));
#122 = CARTESIAN_POINT ('', (-16.2440169358563, 2.83333333333333, -6.93966519516833E-16));
#123 = CARTESIAN_POINT ('', (-16.8660254037844, 3., -7.34788079488412E-16));
#124 = CARTESIAN_POINT ('', (-15., 2.5, 9.99999999999999));
#125 = CARTESIAN_POINT ('', (-15.6220084679281, 2.66666666666667, 10.6666666666667));
#126 = CARTESIAN_POINT ('', (-16.2440169358563, 2.83333333333333, 11.3333333333333));
#127 = CARTESIAN_POINT ('', (-16.8660254037844, 3., 12.));
#128 = CARTESIAN_POINT ('', (-15., -7.5, 5.));
#129 = CARTESIAN_POINT ('', (-15.6220084679281, -8.00000000000001, 5.33333333333334));
#130 = CARTESIAN_POINT ('', (-16.2440169358563, -8.49999999999999, 5.66666666666666));
#131 = CARTESIAN_POINT ('', (-16.8660254037844, -8.99999999999999, 6.));
#132 = CARTESIAN_POINT ('', (-15., -7.5, -5.));
#133 = CARTESIAN_POINT ('', (-15.6220084679281, -8.00000000000001, -5.33333333333334));
#134 = CARTESIAN_POINT ('', (-16.2440169358563, -8.49999999999999, -5.66666666666667));
#135 = CARTESIAN_POINT ('', (-16.8660254037844, -8.99999999999999, -6.));
#136 = CARTESIAN_POINT ('', (-15., 2.5, -10.));
#137 = CARTESIAN_POINT ('', (-15.6220084679281, 2.66666666666667, -10.6666666666667));
#138 = CARTESIAN_POINT ('', (-16.2440169358563, 2.83333333333333, -11.3333333333333));
#139 = CARTESIAN_POINT ('', (-16.8660254037844, 3., -12.));
#140 = CARTESIAN_POINT ('', (-15., 2.5, -6.12323399573676E-16));
#141 = CARTESIAN_POINT ('', (-15.6220084679281, 2.66666666666667, -6.53144959545256E-16));
#142 = CARTESIAN_POINT ('', (-16.2440169358563, 2.83333333333333, -6.93966519516833E-16));
#143 = CARTESIAN_POINT ('', (-16.8660254037844, 3., -7.34788079488412E-16));
#144 = (
   BOUNDED_SURFACE ()
   B_SPLINE_SURFACE (5, 3, ((#120, #121, #122, #123), (#124, #125, #126, #127), (#128, #129, #130, #131), (#132, #133, #134, #135), (#136, #137, #138, #139), (#140, #141, #142, #143)), .UNSPECIFIED., .T., .F., .U.)
   B_SPLINE_SURFACE_WITH_KNOTS ((6, 6), (4, 4), (0., 1.), (0., 1.), .UNSPECIFIED.)
   SURFACE ()
   GEOMETRIC_REPRESENTATION_ITEM ()
   RATIONAL_B_SPLINE_SURFACE (((5., 5., 5., 5.), (1., 1., 1., 1.), (1., 1., 1., 1.), (1., 1., 1., 1.), (1., 1., 1., 1.), (5., 5., 5., 5.)))
   REPRESENTATION_ITEM ('')
);
#145 = ADVANCED_FACE ('', (#119), #144, .F.);
#146 = CARTESIAN_POINT ('', (-89.75, 3., -7.34788079488411E-16));
#147 = VERTEX_POINT ('', #146);
#148 = CARTESIAN_POINT ('', (-16.8660254037844, 3., -7.34788079488412E-16));
#149 = CARTESIAN_POINT ('', (-41.160683602523, 3.00000000000001, -7.34788079488414E-16));
#150 = CARTESIAN_POINT ('', (-65.4553418012614, 3., -7.34788079488411E-16));
#151 = CARTESIAN_POINT ('', (-89.75, 3., -7.34788079488411E-16));
#152 = B_SPLINE_CURVE_WITH_KNOTS ('', 3, (#148, #149, #150, #151), .UNSPECIFIED., .F., .U., (4, 4), (0., 1.), .UNSPECIFIED.);
#153 = EDGE_CURVE ('', #99, #147, #152, .T.);
#154 = ORIENTED_EDGE ('', *, *, #153, .F.);
#155 = ORIENTED_EDGE ('', *, *, #116, .T.);
#156 = ORIENTED_EDGE ('', *, *, #153, .T.);
#157 = CARTESIAN_POINT ('', (-89.75, 3., -7.34788079488411E-16));
#158 = CARTESIAN_POINT ('', (-89.75, 2.99999999999998, 12.));
#159 = CARTESIAN_POINT ('', (-89.75, -8.99999999999999, 5.99999999999997));
#160 = CARTESIAN_POINT ('', (-89.75, -8.99999999999997, -6.00000000000001));
#161 = CARTESIAN_POINT ('', (-89.75, 3.00000000000002, -12.));
#162 = CARTESIAN_POINT ('', (-89.75, 3., -7.34788079488411E-16));
#163 = (
   BOUNDED_CURVE ()
   B_SPLINE_CURVE (5, (#157, #158, #159, #160, #161, #162), .UNSPECIFIED., .T., .U.)
   B_SPLINE_CURVE_WITH_KNOTS ((6, 6), (0., 1.), .UNSPECIFIED.)
   CURVE ()
   GEOMETRIC_REPRESENTATION_ITEM ()
   RATIONAL_B_SPLINE_CURVE ((5., 1., 1., 1., 1., 5.))
   REPRESENTATION_ITEM ('')
);
#164 = EDGE_CURVE ('', #147, #147, #163, .T.);
#165 = ORIENTED_EDGE ('', *, *, #164, .F.);
#166 = EDGE_LOOP ('', (#154, #155, #156, #165));
#167 = FACE_OUTER_BOUND ('', #166, .F.);
#168 = CARTESIAN_POINT ('', (-16.8660254037844, 3., -7.34788079488412E-16));
#169 = CARTESIAN_POINT ('', (-41.160683602523, 3.00000000000001, -7.34788079488414E-16));
#170 = CARTESIAN_POINT ('', (-65.4553418012614, 3., -7.34788079488411E-16));
#171 = CARTESIAN_POINT ('', (-89.75, 3., -7.34788079488411E-16));
#172 = CARTESIAN_POINT ('', (-16.8660254037844, 3., 12.));
#173 = CARTESIAN_POINT ('', (-41.160683602523, 3., 12.));
#174 = CARTESIAN_POINT ('', (-65.4553418012614, 2.99999999999999, 12.));
#175 = CARTESIAN_POINT ('', (-89.75, 2.99999999999998, 12.));
#176 = CARTESIAN_POINT ('', (-16.8660254037844, -8.99999999999999, 6.));
#177 = CARTESIAN_POINT ('', (-41.160683602523, -9.00000000000003, 6.00000000000001));
#178 = CARTESIAN_POINT ('', (-65.4553418012614, -8.99999999999999, 5.99999999999998));
#179 = CARTESIAN_POINT ('', (-89.75, -8.99999999999999, 5.99999999999997));
#180 = CARTESIAN_POINT ('', (-16.8660254037844, -8.99999999999999, -6.));
#181 = CARTESIAN_POINT ('', (-41.160683602523, -9.00000000000002, -6.00000000000003));
#182 = CARTESIAN_POINT ('', (-65.4553418012614, -8.99999999999998, -6.00000000000001));
#183 = CARTESIAN_POINT ('', (-89.75, -8.99999999999997, -6.00000000000001));
#184 = CARTESIAN_POINT ('', (-16.8660254037844, 3., -12.));
#185 = CARTESIAN_POINT ('', (-41.160683602523, 3.00000000000002, -12.));
#186 = CARTESIAN_POINT ('', (-65.4553418012614, 3.00000000000001, -12.));
#187 = CARTESIAN_POINT ('', (-89.75, 3.00000000000002, -12.));
#188 = CARTESIAN_POINT ('', (-16.8660254037844, 3., -7.34788079488412E-16));
#189 = CARTESIAN_POINT ('', (-41.160683602523, 3.00000000000001, -7.34788079488414E-16));
#190 = CARTESIAN_POINT ('', (-65.4553418012614, 3., -7.34788079488411E-16));
#191 = CARTESIAN_POINT ('', (-89.75, 3., -7.34788079488411E-16));
#192 = (
   BOUNDED_SURFACE ()
   B_SPLINE_SURFACE (5, 3, ((#168, #169, #170, #171), (#172, #173, #174, #175), (#176, #177, #178, #179), (#180, #181, #182, #183), (#184, #185, #186, #187), (#188, #189, #190, #191)), .UNSPECIFIED., .T., .F., .U.)
   B_SPLINE_SURFACE_WITH_KNOTS ((6, 6), (4, 4), (0., 1.), (0., 1.), .UNSPECIFIED.)
   SURFACE ()
   GEOMETRIC_REPRESENTATION_ITEM ()
   RATIONAL_B_SPLINE_SURFACE (((5., 5., 5., 5.), (1., 1., 1., 1.), (1., 1., 1., 1.), (1., 1., 1., 1.), (1., 1., 1., 1.), (5., 5., 5., 5.)))
   REPRESENTATION_ITEM ('')
);
#193 = ADVANCED_FACE ('', (#167), #192, .F.);
#194 = CARTESIAN_POINT ('', (-90., 2.75, -6.73555739531043E-16));
#195 = VERTEX_POINT ('', #194);
#196 = CARTESIAN_POINT ('', (-89.75, 3., -7.34788079488411E-16));
#197 = CARTESIAN_POINT ('', (-89.8333333333333, 2.91666666666667, -7.14377299502622E-16));
#198 = CARTESIAN_POINT ('', (-89.9166666666664, 2.83333333333333, -6.9396651951683E-16));
#199 = CARTESIAN_POINT ('', (-90., 2.75, -6.73555739531043E-16));
#200 = B_SPLINE_CURVE_WITH_KNOTS ('', 3, (#196, #197, #198, #199), .UNSPECIFIED., .F., .U., (4, 4), (0., 1.), .UNSPECIFIED.);
#201 = EDGE_CURVE ('', #147, #195, #200, .T.);
#202 = ORIENTED_EDGE ('', *, *, #201, .F.);
#203 = ORIENTED_EDGE ('', *, *, #164, .T.);
#204 = ORIENTED_EDGE ('', *, *, #201, .T.);
#205 = CARTESIAN_POINT ('', (-90., 2.75, -6.73555739531043E-16));
#206 = CARTESIAN_POINT ('', (-90., 2.74999999999998, 11.));
#207 = CARTESIAN_POINT ('', (-90., -8.24999999999999, 5.49999999999997));
#208 = CARTESIAN_POINT ('', (-90., -8.24999999999997, -5.50000000000001));
#209 = CARTESIAN_POINT ('', (-90., 2.75000000000002, -11.));
#210 = CARTESIAN_POINT ('', (-90., 2.75, -6.73555739531043E-16));
#211 = (
   BOUNDED_CURVE ()
   B_SPLINE_CURVE (5, (#205, #206, #207, #208, #209, #210), .UNSPECIFIED., .T., .U.)
   B_SPLINE_CURVE_WITH_KNOTS ((6, 6), (0., 1.), .UNSPECIFIED.)
   CURVE ()
   GEOMETRIC_REPRESENTATION_ITEM ()
   RATIONAL_B_SPLINE_CURVE ((5., 1., 1., 1., 1., 5.))
   REPRESENTATION_ITEM ('')
);
#212 = EDGE_CURVE ('', #195, #195, #211, .T.);
#213 = ORIENTED_EDGE ('', *, *, #212, .F.);
#214 = EDGE_LOOP ('', (#202, #203, #204, #213));
#215 = FACE_OUTER_BOUND ('', #214, .F.);
#216 = CARTESIAN_POINT ('', (-89.75, 3., -7.34788079488411E-16));
#217 = CARTESIAN_POINT ('', (-89.8333333333333, 2.91666666666667, -7.14377299502622E-16));
#218 = CARTESIAN_POINT ('', (-89.9166666666664, 2.83333333333333, -6.9396651951683E-16));
#219 = CARTESIAN_POINT ('', (-90., 2.75, -6.73555739531043E-16));
#220 = CARTESIAN_POINT ('', (-89.75, 2.99999999999998, 12.));
#221 = CARTESIAN_POINT ('', (-89.8333333333333, 2.91666666666665, 11.6666666666666));
#222 = CARTESIAN_POINT ('', (-89.9166666666664, 2.83333333333331, 11.3333333333333));
#223 = CARTESIAN_POINT ('', (-90., 2.74999999999998, 11.));
#224 = CARTESIAN_POINT ('', (-89.75, -8.99999999999999, 5.99999999999997));
#225 = CARTESIAN_POINT ('', (-89.8333333333333, -8.74999999999999, 5.8333333333333));
#226 = CARTESIAN_POINT ('', (-89.9166666666664, -8.49999999999996, 5.66666666666662));
#227 = CARTESIAN_POINT ('', (-90., -8.24999999999999, 5.49999999999997));
#228 = CARTESIAN_POINT ('', (-89.75, -8.99999999999997, -6.00000000000001));
#229 = CARTESIAN_POINT ('', (-89.8333333333333, -8.74999999999997, -5.83333333333334));
#230 = CARTESIAN_POINT ('', (-89.9166666666664, -8.49999999999995, -5.66666666666666));
#231 = CARTESIAN_POINT ('', (-90., -8.24999999999997, -5.50000000000001));
#232 = CARTESIAN_POINT ('', (-89.75, 3.00000000000002, -12.));
#233 = CARTESIAN_POINT ('', (-89.8333333333333, 2.91666666666668, -11.6666666666666));
#234 = CARTESIAN_POINT ('', (-89.9166666666664, 2.83333333333335, -11.3333333333333));
#235 = CARTESIAN_POINT ('', (-90., 2.75000000000002, -11.));
#236 = CARTESIAN_POINT ('', (-89.75, 3., -7.34788079488411E-16));
#237 = CARTESIAN_POINT ('', (-89.8333333333333, 2.91666666666667, -7.14377299502622E-16));
#238 = CARTESIAN_POINT ('', (-89.9166666666664, 2.83333333333333, -6.9396651951683E-16));
#239 = CARTESIAN_POINT ('', (-90., 2.75, -6.73555739531043E-16));
#240 = (
   BOUNDED_SURFACE ()
   B_SPLINE_SURFACE (5, 3, ((#216, #217, #218, #219), (#220, #221, #222, #223), (#224, #225, #226, #227), (#228, #229, #230, #231), (#232, #233, #234, #235), (#236, #237, #238, #239)), .UNSPECIFIED., .T., .F., .U.)
   B_SPLINE_SURFACE_WITH_KNOTS ((6, 6), (4, 4), (0., 1.), (0., 1.), .UNSPECIFIED.)
   SURFACE ()
   GEOMETRIC_REPRESENTATION_ITEM ()
   RATIONAL_B_SPLINE_SURFACE (((5., 5., 5., 5.), (1., 1., 1., 1.), (1., 1., 1., 1.), (1., 1., 1., 1.), (1., 1., 1., 1.), (5., 5., 5., 5.)))
   REPRESENTATION_ITEM ('')
);
#241 = ADVANCED_FACE ('', (#215), #240, .F.);
#242 = CARTESIAN_POINT ('', (-90., 5.51091059616309E-15, -5.51091059616309E-15));
#243 = VERTEX_POINT ('', #242);
#244 = CARTESIAN_POINT ('', (-90., 2.75, -6.73555739531043E-16));
#245 = CARTESIAN_POINT ('', (-90., 1.83333333333333, -4.49037159687361E-16));
#246 = CARTESIAN_POINT ('', (-90., 0.916666666666666, -2.2451857984368E-16));
#247 = CARTESIAN_POINT ('', (-90., 5.51091059616309E-15, -5.51091059616309E-15));
#248 = B_SPLINE_CURVE_WITH_KNOTS ('', 3, (#244, #245, #246, #247), .UNSPECIFIED., .F., .U., (4, 4), (0., 1.), .UNSPECIFIED.);
#249 = EDGE_CURVE ('', #195, #243, #248, .T.);
#250 = ORIENTED_EDGE ('', *, *, #249, .F.);
#251 = ORIENTED_EDGE ('', *, *, #212, .T.);
#252 = ORIENTED_EDGE ('', *, *, #249, .T.);
#253 = EDGE_LOOP ('', (#250, #251, #252));
#254 = FACE_OUTER_BOUND ('', #253, .F.);
#255 = CARTESIAN_POINT ('', (-90., 2.75, -6.73555739531043E-16));
#256 = CARTESIAN_POINT ('', (-90., 1.83333333333333, -4.49037159687361E-16));
#257 = CARTESIAN_POINT ('', (-90., 0.916666666666666, -2.2451857984368E-16));
#258 = CARTESIAN_POINT ('', (-90., 5.51091059616309E-15, -5.51091059616309E-15));
#259 = CARTESIAN_POINT ('', (-90., 2.74999999999998, 11.));
#260 = CARTESIAN_POINT ('', (-90., 1.83333333333331, 7.3333333333333));
#261 = CARTESIAN_POINT ('', (-90., 0.916666666666645, 3.66666666666664));
#262 = CARTESIAN_POINT ('', (-90., 5.51091059616309E-15, -5.51091059616309E-15));
#263 = CARTESIAN_POINT ('', (-90., -8.24999999999999, 5.49999999999997));
#264 = CARTESIAN_POINT ('', (-90., -5.49999999999998, 3.66666666666663));
#265 = CARTESIAN_POINT ('', (-90., -2.74999999999999, 1.8333333333333));
#266 = CARTESIAN_POINT ('', (-90., 5.51091059616309E-15, -5.51091059616309E-15));
#267 = CARTESIAN_POINT ('', (-90., -8.24999999999997, -5.50000000000001));
#268 = CARTESIAN_POINT ('', (-90., -5.49999999999996, -3.66666666666667));
#269 = CARTESIAN_POINT ('', (-90., -2.74999999999997, -1.83333333333334));
#270 = CARTESIAN_POINT ('', (-90., 5.51091059616309E-15, -5.51091059616309E-15));
#271 = CARTESIAN_POINT ('', (-90., 2.75000000000002, -11.));
#272 = CARTESIAN_POINT ('', (-90., 1.83333333333335, -7.3333333333333));
#273 = CARTESIAN_POINT ('', (-90., 0.916666666666688, -3.66666666666664));
#274 = CARTESIAN_POINT ('', (-90., 5.51091059616309E-15, -5.51091059616309E-15));
#275 = CARTESIAN_POINT ('', (-90., 2.75, -6.73555739531043E-16));
#276 = CARTESIAN_POINT ('', (-90., 1.83333333333333, -4.49037159687361E-16));
#277 = CARTESIAN_POINT ('', (-90., 0.916666666666666, -2.2451857984368E-16));
#278 = CARTESIAN_POINT ('', (-90., 5.51091059616309E-15, -5.51091059616309E-15));
#279 = (
   BOUNDED_SURFACE ()
   B_SPLINE_SURFACE (5, 3, ((#255, #256, #257, #258), (#259, #260, #261, #262), (#263, #264, #265, #266), (#267, #268, #269, #270), (#271, #272, #273, #274), (#275, #276, #277, #278)), .UNSPECIFIED., .T., .F., .U.)
   B_SPLINE_SURFACE_WITH_KNOTS ((6, 6), (4, 4), (0., 1.), (0., 1.), .UNSPECIFIED.)
   SURFACE ()
   GEOMETRIC_REPRESENTATION_ITEM ()
   RATIONAL_B_SPLINE_SURFACE (((5., 5., 5., 5.), (1., 1., 1., 1.), (1., 1., 1., 1.), (1., 1., 1., 1.), (1., 1., 1., 1.), (5., 5., 5., 5.)))
   REPRESENTATION_ITEM ('')
);
#280 = ADVANCED_FACE ('', (#254), #279, .F.);
#281 = CLOSED_SHELL ('', (#49, #97, #145, #193, #241, #280));
#282 = MANIFOLD_SOLID_BREP ('', #281);
#283 = (
   LENGTH_UNIT ()
   NAMED_UNIT (*)
   SI_UNIT (.MILLI., .METRE.)
);
#284 = (
   NAMED_UNIT (*)
   SI_UNIT ($, .STERADIAN.)
   SOLID_ANGLE_UNIT ()
);
#285 = (
   NAMED_UNIT (*)
   SI_UNIT ($, .RADIAN.)
   PLANE_ANGLE_UNIT ()
);
#286 = UNCERTAINTY_MEASURE_WITH_UNIT (LENGTH_MEASURE(0.001), #283, 'DISTANCE_ACCURACY_VALUE', '');
#287 = (
   GEOMETRIC_REPRESENTATION_CONTEXT (3)
   GLOBAL_UNCERTAINTY_ASSIGNED_CONTEXT ((#286))
   GLOBAL_UNIT_ASSIGNED_CONTEXT ((#283, #284, #285))
   REPRESENTATION_CONTEXT ('', '3D')
);
#288 = SHAPE_REPRESENTATION ('', (), #287);
#289 = APPLICATION_CONTEXT ('configuration controlled 3D designs of mechanical parts and assemblies');
#290 = APPLICATION_PROTOCOL_DEFINITION ('International Standard', 'config_control_design', 1997, #289);
#291 = MECHANICAL_CONTEXT ('', #289, 'mechanical');
#292 = PRODUCT ('', '', '', (#291));
#293 = PERSON_AND_ORGANIZATION_ROLE ('design_owner');
#294 = PERSON ('', '', $, $, $, $);
#295 = ORGANIZATION ($, '', '');
#296 = PERSON_AND_ORGANIZATION (#294, #295);
#297 = CC_DESIGN_PERSON_AND_ORGANIZATION_ASSIGNMENT (#296, #293, (#292));
#298 = PRODUCT_RELATED_PRODUCT_CATEGORY ('detail', $, (#292));
#299 = PRODUCT_DEFINITION_FORMATION_WITH_SPECIFIED_SOURCE ('', '', #292, .NOT_KNOWN.);
#300 = APPROVAL_STATUS ('approved');
#301 = APPROVAL (#300, '');
#302 = CALENDAR_DATE (2021, 7, 1);
#303 = COORDINATED_UNIVERSAL_TIME_OFFSET (0, $, .AHEAD.);
#304 = LOCAL_TIME (8, 12, 10., #303);
#305 = DATE_AND_TIME (#302, #304);
#306 = APPROVAL_DATE_TIME (#305, #301);
#307 = APPROVAL_ROLE ('');
#308 = PERSON ('', '', $, $, $, $);
#309 = ORGANIZATION ($, '', '');
#310 = PERSON_AND_ORGANIZATION (#308, #309);
#311 = APPROVAL_PERSON_ORGANIZATION (#310, #301, #307);
#312 = CC_DESIGN_APPROVAL (#301, (#299));
#313 = PERSON_AND_ORGANIZATION_ROLE ('creator');
#314 = PERSON ('', '', $, $, $, $);
#315 = ORGANIZATION ($, '', '');
#316 = PERSON_AND_ORGANIZATION (#314, #315);
#317 = CC_DESIGN_PERSON_AND_ORGANIZATION_ASSIGNMENT (#316, #313, (#299));
#318 = PERSON_AND_ORGANIZATION_ROLE ('part_supplier');
#319 = PERSON ('', '', $, $, $, $);
#320 = ORGANIZATION ($, '', '');
#321 = PERSON_AND_ORGANIZATION (#319, #320);
#322 = CC_DESIGN_PERSON_AND_ORGANIZATION_ASSIGNMENT (#321, #318, (#299));
#323 = SECURITY_CLASSIFICATION_LEVEL ('unclassified');
#324 = SECURITY_CLASSIFICATION ('', '', #323);
#325 = APPROVAL_STATUS ('approved');
#326 = APPROVAL (#325, '');
#327 = CALENDAR_DATE (2021, 7, 1);
#328 = COORDINATED_UNIVERSAL_TIME_OFFSET (0, $, .AHEAD.);
#329 = LOCAL_TIME (8, 12, 10., #328);
#330 = DATE_AND_TIME (#327, #329);
#331 = APPROVAL_DATE_TIME (#330, #326);
#332 = APPROVAL_ROLE ('');
#333 = PERSON ('', '', $, $, $, $);
#334 = ORGANIZATION ($, '', '');
#335 = PERSON_AND_ORGANIZATION (#333, #334);
#336 = APPROVAL_PERSON_ORGANIZATION (#335, #326, #332);
#337 = CC_DESIGN_APPROVAL (#326, (#324));
#338 = DATE_TIME_ROLE ('classification_date');
#339 = CALENDAR_DATE (2021, 7, 1);
#340 = COORDINATED_UNIVERSAL_TIME_OFFSET (0, $, .AHEAD.);
#341 = LOCAL_TIME (8, 12, 10., #340);
#342 = DATE_AND_TIME (#339, #341);
#343 = CC_DESIGN_DATE_AND_TIME_ASSIGNMENT (#342, #338, (#324));
#344 = PERSON_AND_ORGANIZATION_ROLE ('classification_officer');
#345 = PERSON ('', '', $, $, $, $);
#346 = ORGANIZATION ($, '', '');
#347 = PERSON_AND_ORGANIZATION (#345, #346);
#348 = CC_DESIGN_PERSON_AND_ORGANIZATION_ASSIGNMENT (#347, #344, (#324));
#349 = CC_DESIGN_SECURITY_CLASSIFICATION (#324, (#299));
#350 = DESIGN_CONTEXT ('', #289, 'design');
#351 = PRODUCT_DEFINITION ('', '', #299, #350);
#352 = APPROVAL_STATUS ('approved');
#353 = APPROVAL (#352, '');
#354 = CALENDAR_DATE (2021, 7, 1);
#355 = COORDINATED_UNIVERSAL_TIME_OFFSET (0, $, .AHEAD.);
#356 = LOCAL_TIME (8, 12, 10., #355);
#357 = DATE_AND_TIME (#354, #356);
#358 = APPROVAL_DATE_TIME (#357, #353);
#359 = APPROVAL_ROLE ('');
#360 = PERSON ('', '', $, $, $, $);
#361 = ORGANIZATION ($, '', '');
#362 = PERSON_AND_ORGANIZATION (#360, #361);
#363 = APPROVAL_PERSON_ORGANIZATION (#362, #353, #359);
#364 = CC_DESIGN_APPROVAL (#353, (#351));
#365 = DATE_TIME_ROLE ('creation_date');
#366 = CALENDAR_DATE (2021, 7, 1);
#367 = COORDINATED_UNIVERSAL_TIME_OFFSET (0, $, .AHEAD.);
#368 = LOCAL_TIME (8, 12, 10., #367);
#369 = DATE_AND_TIME (#366, #368);
#370 = CC_DESIGN_DATE_AND_TIME_ASSIGNMENT (#369, #365, (#351));
#371 = PERSON_AND_ORGANIZATION_ROLE ('creator');
#372 = PERSON ('', '', $, $, $, $);
#373 = ORGANIZATION ($, '', '');
#374 = PERSON_AND_ORGANIZATION (#372, #373);
#375 = CC_DESIGN_PERSON_AND_ORGANIZATION_ASSIGNMENT (#374, #371, (#351));
#376 = PRODUCT_DEFINITION_SHAPE ('', '', #351);
#377 = SHAPE_DEFINITION_REPRESENTATION (#376, #288);
#378 = SHAPE_REPRESENTATION_RELATIONSHIP ('', '', #288, #379);
#379 = ADVANCED_BREP_SHAPE_REPRESENTATION ('', (#282), #287);
ENDSEC;
END-ISO-10303-21;
