ISO-10303-21;
HEADER;
FILE_DESCRIPTION ((), '1');
FILE_NAME ('C:\\Users\\kevin\\157 Range\\157 0600-1.00RA.STP', '2021-01-07T08:20:37', ('Unknown'), ('mafordeurope'), 'OneCNC-XR7 Mill 3D Expert', 'OneCNC-XR7 Mill 3D Expert', '');
FILE_SCHEMA (('CONFIG_CONTROL_DESIGN'));
ENDSEC;

DATA;
#1 = CARTESIAN_POINT ('', (0., 0., 0.));
#2 = VERTEX_POINT ('', #1);
#3 = CARTESIAN_POINT ('', (2.46519032881566E-32, 2., -4.89858719658941E-16));
#4 = VERTEX_POINT ('', #3);
#5 = CARTESIAN_POINT ('', (0., 0., 0.));
#6 = CARTESIAN_POINT ('', (1.23259516440783E-32, 0.666666666666667, -1.63286239886314E-16));
#7 = CARTESIAN_POINT ('', (2.46519032881566E-32, 1.33333333333334, -3.26572479772629E-16));
#8 = CARTESIAN_POINT ('', (2.46519032881566E-32, 2., -4.89858719658941E-16));
#9 = B_SPLINE_CURVE_WITH_KNOTS ('', 3, (#5, #6, #7, #8), .UNSPECIFIED., .F., .U., (4, 4), (0., 1.), .UNSPECIFIED.);
#10 = EDGE_CURVE ('', #2, #4, #9, .T.);
#11 = ORIENTED_EDGE ('', *, *, #10, .F.);
#12 = ORIENTED_EDGE ('', *, *, #10, .T.);
#13 = CARTESIAN_POINT ('', (2.46519032881566E-32, 2., -4.89858719658941E-16));
#14 = CARTESIAN_POINT ('', (-4.89858719658941E-16, 2., 8.));
#15 = CARTESIAN_POINT ('', (-7.34788079488412E-16, -6., 4.));
#16 = CARTESIAN_POINT ('', (-2.44929359829471E-16, -6., -4.));
#17 = CARTESIAN_POINT ('', (4.89858719658941E-16, 2., -8.));
#18 = CARTESIAN_POINT ('', (2.46519032881566E-32, 2., -4.89858719658941E-16));
#19 = (
   BOUNDED_CURVE ()
   B_SPLINE_CURVE (5, (#13, #14, #15, #16, #17, #18), .UNSPECIFIED., .T., .U.)
   B_SPLINE_CURVE_WITH_KNOTS ((6, 6), (0., 1.), .UNSPECIFIED.)
   CURVE ()
   GEOMETRIC_REPRESENTATION_ITEM ()
   RATIONAL_B_SPLINE_CURVE ((5., 1., 1., 1., 1., 5.))
   REPRESENTATION_ITEM ('')
);
#20 = EDGE_CURVE ('', #4, #4, #19, .T.);
#21 = ORIENTED_EDGE ('', *, *, #20, .F.);
#22 = EDGE_LOOP ('', (#11, #12, #21));
#23 = FACE_OUTER_BOUND ('', #22, .F.);
#24 = CARTESIAN_POINT ('', (0., 0., 0.));
#25 = CARTESIAN_POINT ('', (1.23259516440783E-32, 0.666666666666667, -1.63286239886314E-16));
#26 = CARTESIAN_POINT ('', (2.46519032881566E-32, 1.33333333333334, -3.26572479772629E-16));
#27 = CARTESIAN_POINT ('', (2.46519032881566E-32, 2., -4.89858719658941E-16));
#28 = CARTESIAN_POINT ('', (0., 0., 0.));
#29 = CARTESIAN_POINT ('', (-1.63286239886314E-16, 0.666666666666667, 2.66666666666667));
#30 = CARTESIAN_POINT ('', (-3.26572479772628E-16, 1.33333333333334, 5.33333333333335));
#31 = CARTESIAN_POINT ('', (-4.89858719658941E-16, 2., 8.));
#32 = CARTESIAN_POINT ('', (0., 0., 0.));
#33 = CARTESIAN_POINT ('', (-2.44929359829471E-16, -2., 1.33333333333333));
#34 = CARTESIAN_POINT ('', (-4.89858719658943E-16, -4.00000000000001, 2.66666666666668));
#35 = CARTESIAN_POINT ('', (-7.34788079488412E-16, -6., 4.));
#36 = CARTESIAN_POINT ('', (0., 0., 0.));
#37 = CARTESIAN_POINT ('', (-8.16431199431569E-17, -2., -1.33333333333333));
#38 = CARTESIAN_POINT ('', (-1.63286239886314E-16, -4.00000000000001, -2.66666666666667));
#39 = CARTESIAN_POINT ('', (-2.44929359829471E-16, -6., -4.));
#40 = CARTESIAN_POINT ('', (0., 0., 0.));
#41 = CARTESIAN_POINT ('', (1.63286239886314E-16, 0.666666666666666, -2.66666666666667));
#42 = CARTESIAN_POINT ('', (3.26572479772628E-16, 1.33333333333334, -5.33333333333335));
#43 = CARTESIAN_POINT ('', (4.89858719658941E-16, 2., -8.));
#44 = CARTESIAN_POINT ('', (0., 0., 0.));
#45 = CARTESIAN_POINT ('', (1.23259516440783E-32, 0.666666666666667, -1.63286239886314E-16));
#46 = CARTESIAN_POINT ('', (2.46519032881566E-32, 1.33333333333334, -3.26572479772629E-16));
#47 = CARTESIAN_POINT ('', (2.46519032881566E-32, 2., -4.89858719658941E-16));
#48 = (
   BOUNDED_SURFACE ()
   B_SPLINE_SURFACE (5, 3, ((#24, #25, #26, #27), (#28, #29, #30, #31), (#32, #33, #34, #35), (#36, #37, #38, #39), (#40, #41, #42, #43), (#44, #45, #46, #47)), .UNSPECIFIED., .T., .F., .U.)
   B_SPLINE_SURFACE_WITH_KNOTS ((6, 6), (4, 4), (0., 1.), (0., 1.), .UNSPECIFIED.)
   SURFACE ()
   GEOMETRIC_REPRESENTATION_ITEM ()
   RATIONAL_B_SPLINE_SURFACE (((5., 5., 5., 5.), (1., 1., 1., 1.), (1., 1., 1., 1.), (1., 1., 1., 1.), (1., 1., 1., 1.), (5., 5., 5., 5.)))
   REPRESENTATION_ITEM ('')
);
#49 = ADVANCED_FACE ('', (#23), #48, .F.);
#50 = CARTESIAN_POINT ('', (-1., 3., -7.34788079488412E-16));
#51 = VERTEX_POINT ('', #50);
#52 = CARTESIAN_POINT ('', (2.46519032881566E-32, 2., -4.89858719658941E-16));
#53 = CARTESIAN_POINT ('', (2.46519032881566E-32, 2.10925537777972, -5.16618569396456E-16));
#54 = CARTESIAN_POINT ('', (-0.0405284603756882, 2.35374193361112, -5.76500505003151E-16));
#55 = CARTESIAN_POINT ('', (-0.220054300201926, 2.65969993063218, -6.51438601348228E-16));
#56 = CARTESIAN_POINT ('', (-0.545397966132823, 2.92419438240463, -7.16221058099299E-16));
#57 = CARTESIAN_POINT ('', (-0.823979860049297, 3., -7.34788079488412E-16));
#58 = CARTESIAN_POINT ('', (-1., 3., -7.34788079488412E-16));
#59 = B_SPLINE_CURVE_WITH_KNOTS ('', 3, (#52, #53, #54, #55, #56, #57, #58), .UNSPECIFIED., .F., .U., (4, 1, 1, 1, 4), (0., 0.208662401196191, 0.467060336615637, 0.66382629571742, 1.), .UNSPECIFIED.);
#60 = EDGE_CURVE ('', #4, #51, #59, .T.);
#61 = ORIENTED_EDGE ('', *, *, #60, .F.);
#62 = ORIENTED_EDGE ('', *, *, #20, .T.);
#63 = ORIENTED_EDGE ('', *, *, #60, .T.);
#64 = CARTESIAN_POINT ('', (-1., 3., -7.34788079488412E-16));
#65 = CARTESIAN_POINT ('', (-1., 3., 12.));
#66 = CARTESIAN_POINT ('', (-1., -9., 6.));
#67 = CARTESIAN_POINT ('', (-1., -9., -6.));
#68 = CARTESIAN_POINT ('', (-0.999999999999999, 3., -12.));
#69 = CARTESIAN_POINT ('', (-1., 3., -7.34788079488412E-16));
#70 = (
   BOUNDED_CURVE ()
   B_SPLINE_CURVE (5, (#64, #65, #66, #67, #68, #69), .UNSPECIFIED., .T., .U.)
   B_SPLINE_CURVE_WITH_KNOTS ((6, 6), (0., 1.), .UNSPECIFIED.)
   CURVE ()
   GEOMETRIC_REPRESENTATION_ITEM ()
   RATIONAL_B_SPLINE_CURVE ((5., 1., 1., 1., 1., 5.))
   REPRESENTATION_ITEM ('')
);
#71 = EDGE_CURVE ('', #51, #51, #70, .T.);
#72 = ORIENTED_EDGE ('', *, *, #71, .F.);
#73 = EDGE_LOOP ('', (#61, #62, #63, #72));
#74 = FACE_OUTER_BOUND ('', #73, .F.);
#75 = CARTESIAN_POINT ('', (2.46519032881566E-32, 2., -4.89858719658941E-16));
#76 = CARTESIAN_POINT ('', (2.46519032881566E-32, 2.10925537777972, -5.16618569396456E-16));
#77 = CARTESIAN_POINT ('', (-0.0405284603756882, 2.35374193361112, -5.76500505003151E-16));
#78 = CARTESIAN_POINT ('', (-0.220054300201926, 2.65969993063218, -6.51438601348228E-16));
#79 = CARTESIAN_POINT ('', (-0.545397966132823, 2.92419438240463, -7.16221058099299E-16));
#80 = CARTESIAN_POINT ('', (-0.823979860049297, 3., -7.34788079488412E-16));
#81 = CARTESIAN_POINT ('', (-1., 3., -7.34788079488412E-16));
#82 = CARTESIAN_POINT ('', (-4.89858719658941E-16, 2., 8.));
#83 = CARTESIAN_POINT ('', (-5.16618569396456E-16, 2.10925537777973, 8.4370215111189));
#84 = CARTESIAN_POINT ('', (-0.0405284603756888, 2.35374193361112, 9.41496773444447));
#85 = CARTESIAN_POINT ('', (-0.220054300201927, 2.65969993063219, 10.6387997225287));
#86 = CARTESIAN_POINT ('', (-0.545397966132824, 2.92419438240463, 11.6967775296185));
#87 = CARTESIAN_POINT ('', (-0.823979860049298, 3., 12.));
#88 = CARTESIAN_POINT ('', (-1., 3., 12.));
#89 = CARTESIAN_POINT ('', (-7.34788079488412E-16, -6., 4.));
#90 = CARTESIAN_POINT ('', (-7.74927854094684E-16, -6.32776613333917, 4.21851075555945));
#91 = CARTESIAN_POINT ('', (-0.0405284603756891, -7.06122580083335, 4.70748386722224));
#92 = CARTESIAN_POINT ('', (-0.220054300201927, -7.97909979189655, 5.31939986126437));
#93 = CARTESIAN_POINT ('', (-0.545397966132825, -8.77258314721387, 5.84838876480925));
#94 = CARTESIAN_POINT ('', (-0.823979860049298, -9., 6.));
#95 = CARTESIAN_POINT ('', (-1., -9., 6.));
#96 = CARTESIAN_POINT ('', (-2.44929359829471E-16, -6., -4.));
#97 = CARTESIAN_POINT ('', (-2.58309284698228E-16, -6.32776613333917, -4.21851075555945));
#98 = CARTESIAN_POINT ('', (-0.0405284603756885, -7.06122580083335, -4.70748386722223));
#99 = CARTESIAN_POINT ('', (-0.220054300201927, -7.97909979189655, -5.31939986126437));
#100 = CARTESIAN_POINT ('', (-0.545397966132824, -8.77258314721388, -5.84838876480925));
#101 = CARTESIAN_POINT ('', (-0.823979860049298, -9., -6.));
#102 = CARTESIAN_POINT ('', (-1., -9., -6.));
#103 = CARTESIAN_POINT ('', (4.89858719658941E-16, 2., -8.));
#104 = CARTESIAN_POINT ('', (5.16618569396456E-16, 2.10925537777972, -8.4370215111189));
#105 = CARTESIAN_POINT ('', (-0.0405284603756876, 2.35374193361112, -9.41496773444447));
#106 = CARTESIAN_POINT ('', (-0.220054300201926, 2.65969993063218, -10.6387997225287));
#107 = CARTESIAN_POINT ('', (-0.545397966132823, 2.92419438240462, -11.6967775296185));
#108 = CARTESIAN_POINT ('', (-0.823979860049297, 3., -12.));
#109 = CARTESIAN_POINT ('', (-0.999999999999999, 3., -12.));
#110 = CARTESIAN_POINT ('', (2.46519032881566E-32, 2., -4.89858719658941E-16));
#111 = CARTESIAN_POINT ('', (2.46519032881566E-32, 2.10925537777972, -5.16618569396456E-16));
#112 = CARTESIAN_POINT ('', (-0.0405284603756882, 2.35374193361112, -5.76500505003151E-16));
#113 = CARTESIAN_POINT ('', (-0.220054300201926, 2.65969993063218, -6.51438601348228E-16));
#114 = CARTESIAN_POINT ('', (-0.545397966132823, 2.92419438240463, -7.16221058099299E-16));
#115 = CARTESIAN_POINT ('', (-0.823979860049297, 3., -7.34788079488412E-16));
#116 = CARTESIAN_POINT ('', (-1., 3., -7.34788079488412E-16));
#117 = (
   BOUNDED_SURFACE ()
   B_SPLINE_SURFACE (5, 3, ((#75, #76, #77, #78, #79, #80, #81), (#82, #83, #84, #85, #86, #87, #88), (#89, #90, #91, #92, #93, #94, #95), (#96, #97, #98, #99, #100, #101, #102), (#103, #104, #105, #106, #107, #108, #109), (#110, #111, #112, #113, #114, #115, #116)), .UNSPECIFIED., .T., .F., .U.)
   B_SPLINE_SURFACE_WITH_KNOTS ((6, 6), (4, 1, 1, 1, 4), (0., 1.), (0., 0.208662401196191, 0.467060336615637, 0.66382629571742, 1.), .UNSPECIFIED.)
   SURFACE ()
   GEOMETRIC_REPRESENTATION_ITEM ()
   RATIONAL_B_SPLINE_SURFACE (((5., 5., 5., 5., 5., 5., 5.), (1., 1., 1., 1., 1., 1., 1.), (1., 1., 1., 1., 1., 1., 1.), (1., 1., 1., 1., 1., 1., 1.), (1., 1., 1., 1., 1., 1., 1.), (5., 5., 5., 5., 5., 5., 5.)))
   REPRESENTATION_ITEM ('')
);
#118 = ADVANCED_FACE ('', (#74), #117, .F.);
#119 = CARTESIAN_POINT ('', (-89.75, 3., -7.34788079488411E-16));
#120 = VERTEX_POINT ('', #119);
#121 = CARTESIAN_POINT ('', (-1., 3., -7.34788079488412E-16));
#122 = CARTESIAN_POINT ('', (-30.5833333333333, 3., -7.34788079488411E-16));
#123 = CARTESIAN_POINT ('', (-60.1666666666666, 3., -7.34788079488412E-16));
#124 = CARTESIAN_POINT ('', (-89.75, 3., -7.34788079488411E-16));
#125 = B_SPLINE_CURVE_WITH_KNOTS ('', 3, (#121, #122, #123, #124), .UNSPECIFIED., .F., .U., (4, 4), (0., 1.), .UNSPECIFIED.);
#126 = EDGE_CURVE ('', #51, #120, #125, .T.);
#127 = ORIENTED_EDGE ('', *, *, #126, .F.);
#128 = ORIENTED_EDGE ('', *, *, #71, .T.);
#129 = ORIENTED_EDGE ('', *, *, #126, .T.);
#130 = CARTESIAN_POINT ('', (-89.75, 3., -7.34788079488411E-16));
#131 = CARTESIAN_POINT ('', (-89.75, 2.99999999999998, 12.));
#132 = CARTESIAN_POINT ('', (-89.75, -8.99999999999999, 5.99999999999997));
#133 = CARTESIAN_POINT ('', (-89.75, -8.99999999999997, -6.00000000000001));
#134 = CARTESIAN_POINT ('', (-89.75, 3.00000000000002, -12.));
#135 = CARTESIAN_POINT ('', (-89.75, 3., -7.34788079488411E-16));
#136 = (
   BOUNDED_CURVE ()
   B_SPLINE_CURVE (5, (#130, #131, #132, #133, #134, #135), .UNSPECIFIED., .T., .U.)
   B_SPLINE_CURVE_WITH_KNOTS ((6, 6), (0., 1.), .UNSPECIFIED.)
   CURVE ()
   GEOMETRIC_REPRESENTATION_ITEM ()
   RATIONAL_B_SPLINE_CURVE ((5., 1., 1., 1., 1., 5.))
   REPRESENTATION_ITEM ('')
);
#137 = EDGE_CURVE ('', #120, #120, #136, .T.);
#138 = ORIENTED_EDGE ('', *, *, #137, .F.);
#139 = EDGE_LOOP ('', (#127, #128, #129, #138));
#140 = FACE_OUTER_BOUND ('', #139, .F.);
#141 = CARTESIAN_POINT ('', (-1., 3., -7.34788079488412E-16));
#142 = CARTESIAN_POINT ('', (-30.5833333333333, 3., -7.34788079488411E-16));
#143 = CARTESIAN_POINT ('', (-60.1666666666666, 3., -7.34788079488412E-16));
#144 = CARTESIAN_POINT ('', (-89.75, 3., -7.34788079488411E-16));
#145 = CARTESIAN_POINT ('', (-1., 3., 12.));
#146 = CARTESIAN_POINT ('', (-30.5833333333333, 3., 12.));
#147 = CARTESIAN_POINT ('', (-60.1666666666666, 2.99999999999999, 12.));
#148 = CARTESIAN_POINT ('', (-89.75, 2.99999999999998, 12.));
#149 = CARTESIAN_POINT ('', (-1., -9., 6.));
#150 = CARTESIAN_POINT ('', (-30.5833333333333, -8.99999999999999, 5.99999999999999));
#151 = CARTESIAN_POINT ('', (-60.1666666666666, -8.99999999999999, 5.99999999999998));
#152 = CARTESIAN_POINT ('', (-89.75, -8.99999999999999, 5.99999999999997));
#153 = CARTESIAN_POINT ('', (-1., -9., -6.));
#154 = CARTESIAN_POINT ('', (-30.5833333333333, -8.99999999999999, -6.));
#155 = CARTESIAN_POINT ('', (-60.1666666666666, -8.99999999999998, -6.00000000000001));
#156 = CARTESIAN_POINT ('', (-89.75, -8.99999999999997, -6.00000000000001));
#157 = CARTESIAN_POINT ('', (-0.999999999999999, 3., -12.));
#158 = CARTESIAN_POINT ('', (-30.5833333333333, 3., -12.));
#159 = CARTESIAN_POINT ('', (-60.1666666666666, 3.00000000000001, -12.));
#160 = CARTESIAN_POINT ('', (-89.75, 3.00000000000002, -12.));
#161 = CARTESIAN_POINT ('', (-1., 3., -7.34788079488412E-16));
#162 = CARTESIAN_POINT ('', (-30.5833333333333, 3., -7.34788079488411E-16));
#163 = CARTESIAN_POINT ('', (-60.1666666666666, 3., -7.34788079488412E-16));
#164 = CARTESIAN_POINT ('', (-89.75, 3., -7.34788079488411E-16));
#165 = (
   BOUNDED_SURFACE ()
   B_SPLINE_SURFACE (5, 3, ((#141, #142, #143, #144), (#145, #146, #147, #148), (#149, #150, #151, #152), (#153, #154, #155, #156), (#157, #158, #159, #160), (#161, #162, #163, #164)), .UNSPECIFIED., .T., .F., .U.)
   B_SPLINE_SURFACE_WITH_KNOTS ((6, 6), (4, 4), (0., 1.), (0., 1.), .UNSPECIFIED.)
   SURFACE ()
   GEOMETRIC_REPRESENTATION_ITEM ()
   RATIONAL_B_SPLINE_SURFACE (((5., 5., 5., 5.), (1., 1., 1., 1.), (1., 1., 1., 1.), (1., 1., 1., 1.), (1., 1., 1., 1.), (5., 5., 5., 5.)))
   REPRESENTATION_ITEM ('')
);
#166 = ADVANCED_FACE ('', (#140), #165, .F.);
#167 = CARTESIAN_POINT ('', (-90., 2.75, -6.73555739531043E-16));
#168 = VERTEX_POINT ('', #167);
#169 = CARTESIAN_POINT ('', (-89.75, 3., -7.34788079488411E-16));
#170 = CARTESIAN_POINT ('', (-89.8333333333333, 2.91666666666667, -7.14377299502622E-16));
#171 = CARTESIAN_POINT ('', (-89.9166666666664, 2.83333333333333, -6.9396651951683E-16));
#172 = CARTESIAN_POINT ('', (-90., 2.75, -6.73555739531043E-16));
#173 = B_SPLINE_CURVE_WITH_KNOTS ('', 3, (#169, #170, #171, #172), .UNSPECIFIED., .F., .U., (4, 4), (0., 1.), .UNSPECIFIED.);
#174 = EDGE_CURVE ('', #120, #168, #173, .T.);
#175 = ORIENTED_EDGE ('', *, *, #174, .F.);
#176 = ORIENTED_EDGE ('', *, *, #137, .T.);
#177 = ORIENTED_EDGE ('', *, *, #174, .T.);
#178 = CARTESIAN_POINT ('', (-90., 2.75, -6.73555739531043E-16));
#179 = CARTESIAN_POINT ('', (-90., 2.74999999999998, 11.));
#180 = CARTESIAN_POINT ('', (-90., -8.24999999999999, 5.49999999999997));
#181 = CARTESIAN_POINT ('', (-90., -8.24999999999997, -5.50000000000001));
#182 = CARTESIAN_POINT ('', (-90., 2.75000000000002, -11.));
#183 = CARTESIAN_POINT ('', (-90., 2.75, -6.73555739531043E-16));
#184 = (
   BOUNDED_CURVE ()
   B_SPLINE_CURVE (5, (#178, #179, #180, #181, #182, #183), .UNSPECIFIED., .T., .U.)
   B_SPLINE_CURVE_WITH_KNOTS ((6, 6), (0., 1.), .UNSPECIFIED.)
   CURVE ()
   GEOMETRIC_REPRESENTATION_ITEM ()
   RATIONAL_B_SPLINE_CURVE ((5., 1., 1., 1., 1., 5.))
   REPRESENTATION_ITEM ('')
);
#185 = EDGE_CURVE ('', #168, #168, #184, .T.);
#186 = ORIENTED_EDGE ('', *, *, #185, .F.);
#187 = EDGE_LOOP ('', (#175, #176, #177, #186));
#188 = FACE_OUTER_BOUND ('', #187, .F.);
#189 = CARTESIAN_POINT ('', (-89.75, 3., -7.34788079488411E-16));
#190 = CARTESIAN_POINT ('', (-89.8333333333333, 2.91666666666667, -7.14377299502622E-16));
#191 = CARTESIAN_POINT ('', (-89.9166666666664, 2.83333333333333, -6.9396651951683E-16));
#192 = CARTESIAN_POINT ('', (-90., 2.75, -6.73555739531043E-16));
#193 = CARTESIAN_POINT ('', (-89.75, 2.99999999999998, 12.));
#194 = CARTESIAN_POINT ('', (-89.8333333333333, 2.91666666666665, 11.6666666666666));
#195 = CARTESIAN_POINT ('', (-89.9166666666664, 2.83333333333331, 11.3333333333333));
#196 = CARTESIAN_POINT ('', (-90., 2.74999999999998, 11.));
#197 = CARTESIAN_POINT ('', (-89.75, -8.99999999999999, 5.99999999999997));
#198 = CARTESIAN_POINT ('', (-89.8333333333333, -8.74999999999999, 5.8333333333333));
#199 = CARTESIAN_POINT ('', (-89.9166666666664, -8.49999999999996, 5.66666666666662));
#200 = CARTESIAN_POINT ('', (-90., -8.24999999999999, 5.49999999999997));
#201 = CARTESIAN_POINT ('', (-89.75, -8.99999999999997, -6.00000000000001));
#202 = CARTESIAN_POINT ('', (-89.8333333333333, -8.74999999999997, -5.83333333333334));
#203 = CARTESIAN_POINT ('', (-89.9166666666664, -8.49999999999995, -5.66666666666666));
#204 = CARTESIAN_POINT ('', (-90., -8.24999999999997, -5.50000000000001));
#205 = CARTESIAN_POINT ('', (-89.75, 3.00000000000002, -12.));
#206 = CARTESIAN_POINT ('', (-89.8333333333333, 2.91666666666668, -11.6666666666666));
#207 = CARTESIAN_POINT ('', (-89.9166666666664, 2.83333333333335, -11.3333333333333));
#208 = CARTESIAN_POINT ('', (-90., 2.75000000000002, -11.));
#209 = CARTESIAN_POINT ('', (-89.75, 3., -7.34788079488411E-16));
#210 = CARTESIAN_POINT ('', (-89.8333333333333, 2.91666666666667, -7.14377299502622E-16));
#211 = CARTESIAN_POINT ('', (-89.9166666666664, 2.83333333333333, -6.9396651951683E-16));
#212 = CARTESIAN_POINT ('', (-90., 2.75, -6.73555739531043E-16));
#213 = (
   BOUNDED_SURFACE ()
   B_SPLINE_SURFACE (5, 3, ((#189, #190, #191, #192), (#193, #194, #195, #196), (#197, #198, #199, #200), (#201, #202, #203, #204), (#205, #206, #207, #208), (#209, #210, #211, #212)), .UNSPECIFIED., .T., .F., .U.)
   B_SPLINE_SURFACE_WITH_KNOTS ((6, 6), (4, 4), (0., 1.), (0., 1.), .UNSPECIFIED.)
   SURFACE ()
   GEOMETRIC_REPRESENTATION_ITEM ()
   RATIONAL_B_SPLINE_SURFACE (((5., 5., 5., 5.), (1., 1., 1., 1.), (1., 1., 1., 1.), (1., 1., 1., 1.), (1., 1., 1., 1.), (5., 5., 5., 5.)))
   REPRESENTATION_ITEM ('')
);
#214 = ADVANCED_FACE ('', (#188), #213, .F.);
#215 = CARTESIAN_POINT ('', (-90., 5.51091059616309E-15, -5.51091059616309E-15));
#216 = VERTEX_POINT ('', #215);
#217 = CARTESIAN_POINT ('', (-90., 2.75, -6.73555739531043E-16));
#218 = CARTESIAN_POINT ('', (-90.0000000000001, 1.83333333333333, -4.49037159687362E-16));
#219 = CARTESIAN_POINT ('', (-89.9999999999999, 0.916666666666663, -2.24518579843679E-16));
#220 = CARTESIAN_POINT ('', (-90., 5.51091059616309E-15, -5.51091059616309E-15));
#221 = B_SPLINE_CURVE_WITH_KNOTS ('', 3, (#217, #218, #219, #220), .UNSPECIFIED., .F., .U., (4, 4), (0., 1.), .UNSPECIFIED.);
#222 = EDGE_CURVE ('', #168, #216, #221, .T.);
#223 = ORIENTED_EDGE ('', *, *, #222, .F.);
#224 = ORIENTED_EDGE ('', *, *, #185, .T.);
#225 = ORIENTED_EDGE ('', *, *, #222, .T.);
#226 = EDGE_LOOP ('', (#223, #224, #225));
#227 = FACE_OUTER_BOUND ('', #226, .F.);
#228 = CARTESIAN_POINT ('', (-90., 2.75, -6.73555739531043E-16));
#229 = CARTESIAN_POINT ('', (-90.0000000000001, 1.83333333333333, -4.49037159687362E-16));
#230 = CARTESIAN_POINT ('', (-89.9999999999999, 0.916666666666663, -2.24518579843679E-16));
#231 = CARTESIAN_POINT ('', (-90., 5.51091059616309E-15, -5.51091059616309E-15));
#232 = CARTESIAN_POINT ('', (-90., 2.74999999999998, 11.));
#233 = CARTESIAN_POINT ('', (-90.0000000000001, 1.83333333333331, 7.33333333333331));
#234 = CARTESIAN_POINT ('', (-89.9999999999999, 0.916666666666642, 3.66666666666663));
#235 = CARTESIAN_POINT ('', (-90., 5.51091059616309E-15, -5.51091059616309E-15));
#236 = CARTESIAN_POINT ('', (-90., -8.24999999999999, 5.49999999999997));
#237 = CARTESIAN_POINT ('', (-90.0000000000001, -5.49999999999998, 3.66666666666663));
#238 = CARTESIAN_POINT ('', (-89.9999999999999, -2.74999999999998, 1.83333333333329));
#239 = CARTESIAN_POINT ('', (-90., 5.51091059616309E-15, -5.51091059616309E-15));
#240 = CARTESIAN_POINT ('', (-90., -8.24999999999997, -5.50000000000001));
#241 = CARTESIAN_POINT ('', (-90.0000000000001, -5.49999999999996, -3.66666666666667));
#242 = CARTESIAN_POINT ('', (-89.9999999999999, -2.74999999999996, -1.83333333333334));
#243 = CARTESIAN_POINT ('', (-90., 5.51091059616309E-15, -5.51091059616309E-15));
#244 = CARTESIAN_POINT ('', (-90., 2.75000000000002, -11.));
#245 = CARTESIAN_POINT ('', (-90.0000000000001, 1.83333333333335, -7.33333333333331));
#246 = CARTESIAN_POINT ('', (-89.9999999999999, 0.916666666666684, -3.66666666666663));
#247 = CARTESIAN_POINT ('', (-90., 5.51091059616309E-15, -5.51091059616309E-15));
#248 = CARTESIAN_POINT ('', (-90., 2.75, -6.73555739531043E-16));
#249 = CARTESIAN_POINT ('', (-90.0000000000001, 1.83333333333333, -4.49037159687362E-16));
#250 = CARTESIAN_POINT ('', (-89.9999999999999, 0.916666666666663, -2.24518579843679E-16));
#251 = CARTESIAN_POINT ('', (-90., 5.51091059616309E-15, -5.51091059616309E-15));
#252 = (
   BOUNDED_SURFACE ()
   B_SPLINE_SURFACE (5, 3, ((#228, #229, #230, #231), (#232, #233, #234, #235), (#236, #237, #238, #239), (#240, #241, #242, #243), (#244, #245, #246, #247), (#248, #249, #250, #251)), .UNSPECIFIED., .T., .F., .U.)
   B_SPLINE_SURFACE_WITH_KNOTS ((6, 6), (4, 4), (0., 1.), (0., 1.), .UNSPECIFIED.)
   SURFACE ()
   GEOMETRIC_REPRESENTATION_ITEM ()
   RATIONAL_B_SPLINE_SURFACE (((5., 5., 5., 5.), (1., 1., 1., 1.), (1., 1., 1., 1.), (1., 1., 1., 1.), (1., 1., 1., 1.), (5., 5., 5., 5.)))
   REPRESENTATION_ITEM ('')
);
#253 = ADVANCED_FACE ('', (#227), #252, .F.);
#254 = CLOSED_SHELL ('', (#49, #118, #166, #214, #253));
#255 = MANIFOLD_SOLID_BREP ('', #254);
#256 = (
   LENGTH_UNIT ()
   NAMED_UNIT (*)
   SI_UNIT (.MILLI., .METRE.)
);
#257 = (
   NAMED_UNIT (*)
   SI_UNIT ($, .STERADIAN.)
   SOLID_ANGLE_UNIT ()
);
#258 = (
   NAMED_UNIT (*)
   SI_UNIT ($, .RADIAN.)
   PLANE_ANGLE_UNIT ()
);
#259 = UNCERTAINTY_MEASURE_WITH_UNIT (LENGTH_MEASURE(0.001), #256, 'DISTANCE_ACCURACY_VALUE', '');
#260 = (
   GEOMETRIC_REPRESENTATION_CONTEXT (3)
   GLOBAL_UNCERTAINTY_ASSIGNED_CONTEXT ((#259))
   GLOBAL_UNIT_ASSIGNED_CONTEXT ((#256, #257, #258))
   REPRESENTATION_CONTEXT ('', '3D')
);
#261 = SHAPE_REPRESENTATION ('', (), #260);
#262 = APPLICATION_CONTEXT ('configuration controlled 3D designs of mechanical parts and assemblies');
#263 = APPLICATION_PROTOCOL_DEFINITION ('International Standard', 'config_control_design', 1997, #262);
#264 = MECHANICAL_CONTEXT ('', #262, 'mechanical');
#265 = PRODUCT ('', '', '', (#264));
#266 = PERSON_AND_ORGANIZATION_ROLE ('design_owner');
#267 = PERSON ('', '', $, $, $, $);
#268 = ORGANIZATION ($, '', '');
#269 = PERSON_AND_ORGANIZATION (#267, #268);
#270 = CC_DESIGN_PERSON_AND_ORGANIZATION_ASSIGNMENT (#269, #266, (#265));
#271 = PRODUCT_RELATED_PRODUCT_CATEGORY ('detail', $, (#265));
#272 = PRODUCT_DEFINITION_FORMATION_WITH_SPECIFIED_SOURCE ('', '', #265, .NOT_KNOWN.);
#273 = APPROVAL_STATUS ('approved');
#274 = APPROVAL (#273, '');
#275 = CALENDAR_DATE (2021, 7, 1);
#276 = COORDINATED_UNIVERSAL_TIME_OFFSET (0, $, .AHEAD.);
#277 = LOCAL_TIME (8, 20, 37., #276);
#278 = DATE_AND_TIME (#275, #277);
#279 = APPROVAL_DATE_TIME (#278, #274);
#280 = APPROVAL_ROLE ('');
#281 = PERSON ('', '', $, $, $, $);
#282 = ORGANIZATION ($, '', '');
#283 = PERSON_AND_ORGANIZATION (#281, #282);
#284 = APPROVAL_PERSON_ORGANIZATION (#283, #274, #280);
#285 = CC_DESIGN_APPROVAL (#274, (#272));
#286 = PERSON_AND_ORGANIZATION_ROLE ('creator');
#287 = PERSON ('', '', $, $, $, $);
#288 = ORGANIZATION ($, '', '');
#289 = PERSON_AND_ORGANIZATION (#287, #288);
#290 = CC_DESIGN_PERSON_AND_ORGANIZATION_ASSIGNMENT (#289, #286, (#272));
#291 = PERSON_AND_ORGANIZATION_ROLE ('part_supplier');
#292 = PERSON ('', '', $, $, $, $);
#293 = ORGANIZATION ($, '', '');
#294 = PERSON_AND_ORGANIZATION (#292, #293);
#295 = CC_DESIGN_PERSON_AND_ORGANIZATION_ASSIGNMENT (#294, #291, (#272));
#296 = SECURITY_CLASSIFICATION_LEVEL ('unclassified');
#297 = SECURITY_CLASSIFICATION ('', '', #296);
#298 = APPROVAL_STATUS ('approved');
#299 = APPROVAL (#298, '');
#300 = CALENDAR_DATE (2021, 7, 1);
#301 = COORDINATED_UNIVERSAL_TIME_OFFSET (0, $, .AHEAD.);
#302 = LOCAL_TIME (8, 20, 37., #301);
#303 = DATE_AND_TIME (#300, #302);
#304 = APPROVAL_DATE_TIME (#303, #299);
#305 = APPROVAL_ROLE ('');
#306 = PERSON ('', '', $, $, $, $);
#307 = ORGANIZATION ($, '', '');
#308 = PERSON_AND_ORGANIZATION (#306, #307);
#309 = APPROVAL_PERSON_ORGANIZATION (#308, #299, #305);
#310 = CC_DESIGN_APPROVAL (#299, (#297));
#311 = DATE_TIME_ROLE ('classification_date');
#312 = CALENDAR_DATE (2021, 7, 1);
#313 = COORDINATED_UNIVERSAL_TIME_OFFSET (0, $, .AHEAD.);
#314 = LOCAL_TIME (8, 20, 37., #313);
#315 = DATE_AND_TIME (#312, #314);
#316 = CC_DESIGN_DATE_AND_TIME_ASSIGNMENT (#315, #311, (#297));
#317 = PERSON_AND_ORGANIZATION_ROLE ('classification_officer');
#318 = PERSON ('', '', $, $, $, $);
#319 = ORGANIZATION ($, '', '');
#320 = PERSON_AND_ORGANIZATION (#318, #319);
#321 = CC_DESIGN_PERSON_AND_ORGANIZATION_ASSIGNMENT (#320, #317, (#297));
#322 = CC_DESIGN_SECURITY_CLASSIFICATION (#297, (#272));
#323 = DESIGN_CONTEXT ('', #262, 'design');
#324 = PRODUCT_DEFINITION ('', '', #272, #323);
#325 = APPROVAL_STATUS ('approved');
#326 = APPROVAL (#325, '');
#327 = CALENDAR_DATE (2021, 7, 1);
#328 = COORDINATED_UNIVERSAL_TIME_OFFSET (0, $, .AHEAD.);
#329 = LOCAL_TIME (8, 20, 37., #328);
#330 = DATE_AND_TIME (#327, #329);
#331 = APPROVAL_DATE_TIME (#330, #326);
#332 = APPROVAL_ROLE ('');
#333 = PERSON ('', '', $, $, $, $);
#334 = ORGANIZATION ($, '', '');
#335 = PERSON_AND_ORGANIZATION (#333, #334);
#336 = APPROVAL_PERSON_ORGANIZATION (#335, #326, #332);
#337 = CC_DESIGN_APPROVAL (#326, (#324));
#338 = DATE_TIME_ROLE ('creation_date');
#339 = CALENDAR_DATE (2021, 7, 1);
#340 = COORDINATED_UNIVERSAL_TIME_OFFSET (0, $, .AHEAD.);
#341 = LOCAL_TIME (8, 20, 37., #340);
#342 = DATE_AND_TIME (#339, #341);
#343 = CC_DESIGN_DATE_AND_TIME_ASSIGNMENT (#342, #338, (#324));
#344 = PERSON_AND_ORGANIZATION_ROLE ('creator');
#345 = PERSON ('', '', $, $, $, $);
#346 = ORGANIZATION ($, '', '');
#347 = PERSON_AND_ORGANIZATION (#345, #346);
#348 = CC_DESIGN_PERSON_AND_ORGANIZATION_ASSIGNMENT (#347, #344, (#324));
#349 = PRODUCT_DEFINITION_SHAPE ('', '', #324);
#350 = SHAPE_DEFINITION_REPRESENTATION (#349, #261);
#351 = SHAPE_REPRESENTATION_RELATIONSHIP ('', '', #261, #352);
#352 = ADVANCED_BREP_SHAPE_REPRESENTATION ('', (#255), #260);
ENDSEC;
END-ISO-10303-21;
