ISO-10303-21;
HEADER;
FILE_DESCRIPTION ((), '1');
FILE_NAME ('C:\\Users\\kevin\\157 Range\\157 0800-0.50RA.STP', '2021-01-07T08:23:28', ('Unknown'), ('mafordeurope'), 'OneCNC-XR7 Mill 3D Expert', 'OneCNC-XR7 Mill 3D Expert', '');
FILE_SCHEMA (('CONFIG_CONTROL_DESIGN'));
ENDSEC;

DATA;
#1 = CARTESIAN_POINT ('', (0., 0., 0.));
#2 = VERTEX_POINT ('', #1);
#3 = CARTESIAN_POINT ('', (2.46519032881566E-32, 3.5, -8.57252759403147E-16));
#4 = VERTEX_POINT ('', #3);
#5 = CARTESIAN_POINT ('', (0., 0., 0.));
#6 = CARTESIAN_POINT ('', (1.23259516440783E-32, 1.16666666666667, -2.85750919801049E-16));
#7 = CARTESIAN_POINT ('', (2.46519032881566E-32, 2.33333333333333, -5.71501839602098E-16));
#8 = CARTESIAN_POINT ('', (2.46519032881566E-32, 3.5, -8.57252759403147E-16));
#9 = B_SPLINE_CURVE_WITH_KNOTS ('', 3, (#5, #6, #7, #8), .UNSPECIFIED., .F., .U., (4, 4), (0., 1.), .UNSPECIFIED.);
#10 = EDGE_CURVE ('', #2, #4, #9, .T.);
#11 = ORIENTED_EDGE ('', *, *, #10, .F.);
#12 = ORIENTED_EDGE ('', *, *, #10, .T.);
#13 = CARTESIAN_POINT ('', (2.46519032881566E-32, 3.5, -8.57252759403147E-16));
#14 = CARTESIAN_POINT ('', (-8.57252759403147E-16, 3.5, 14.));
#15 = CARTESIAN_POINT ('', (-1.28587913910472E-15, -10.5, 7.));
#16 = CARTESIAN_POINT ('', (-4.28626379701574E-16, -10.5, -7.));
#17 = CARTESIAN_POINT ('', (8.57252759403147E-16, 3.5, -14.));
#18 = CARTESIAN_POINT ('', (2.46519032881566E-32, 3.5, -8.57252759403147E-16));
#19 = (
   BOUNDED_CURVE ()
   B_SPLINE_CURVE (5, (#13, #14, #15, #16, #17, #18), .UNSPECIFIED., .T., .U.)
   B_SPLINE_CURVE_WITH_KNOTS ((6, 6), (0., 1.), .UNSPECIFIED.)
   CURVE ()
   GEOMETRIC_REPRESENTATION_ITEM ()
   RATIONAL_B_SPLINE_CURVE ((5., 1., 1., 1., 1., 5.))
   REPRESENTATION_ITEM ('')
);
#20 = EDGE_CURVE ('', #4, #4, #19, .T.);
#21 = ORIENTED_EDGE ('', *, *, #20, .F.);
#22 = EDGE_LOOP ('', (#11, #12, #21));
#23 = FACE_OUTER_BOUND ('', #22, .F.);
#24 = CARTESIAN_POINT ('', (0., 0., 0.));
#25 = CARTESIAN_POINT ('', (1.23259516440783E-32, 1.16666666666667, -2.85750919801049E-16));
#26 = CARTESIAN_POINT ('', (2.46519032881566E-32, 2.33333333333333, -5.71501839602098E-16));
#27 = CARTESIAN_POINT ('', (2.46519032881566E-32, 3.5, -8.57252759403147E-16));
#28 = CARTESIAN_POINT ('', (0., 0., 0.));
#29 = CARTESIAN_POINT ('', (-2.85750919801049E-16, 1.16666666666667, 4.66666666666667));
#30 = CARTESIAN_POINT ('', (-5.71501839602098E-16, 2.33333333333333, 9.33333333333333));
#31 = CARTESIAN_POINT ('', (-8.57252759403147E-16, 3.5, 14.));
#32 = CARTESIAN_POINT ('', (0., 0., 0.));
#33 = CARTESIAN_POINT ('', (-4.28626379701574E-16, -3.5, 2.33333333333333));
#34 = CARTESIAN_POINT ('', (-8.57252759403147E-16, -6.99999999999999, 4.66666666666666));
#35 = CARTESIAN_POINT ('', (-1.28587913910472E-15, -10.5, 7.));
#36 = CARTESIAN_POINT ('', (0., 0., 0.));
#37 = CARTESIAN_POINT ('', (-1.42875459900525E-16, -3.5, -2.33333333333333));
#38 = CARTESIAN_POINT ('', (-2.85750919801049E-16, -6.99999999999999, -4.66666666666666));
#39 = CARTESIAN_POINT ('', (-4.28626379701574E-16, -10.5, -7.));
#40 = CARTESIAN_POINT ('', (0., 0., 0.));
#41 = CARTESIAN_POINT ('', (2.85750919801049E-16, 1.16666666666667, -4.66666666666667));
#42 = CARTESIAN_POINT ('', (5.71501839602097E-16, 2.33333333333333, -9.33333333333333));
#43 = CARTESIAN_POINT ('', (8.57252759403147E-16, 3.5, -14.));
#44 = CARTESIAN_POINT ('', (0., 0., 0.));
#45 = CARTESIAN_POINT ('', (1.23259516440783E-32, 1.16666666666667, -2.85750919801049E-16));
#46 = CARTESIAN_POINT ('', (2.46519032881566E-32, 2.33333333333333, -5.71501839602098E-16));
#47 = CARTESIAN_POINT ('', (2.46519032881566E-32, 3.5, -8.57252759403147E-16));
#48 = (
   BOUNDED_SURFACE ()
   B_SPLINE_SURFACE (5, 3, ((#24, #25, #26, #27), (#28, #29, #30, #31), (#32, #33, #34, #35), (#36, #37, #38, #39), (#40, #41, #42, #43), (#44, #45, #46, #47)), .UNSPECIFIED., .T., .F., .U.)
   B_SPLINE_SURFACE_WITH_KNOTS ((6, 6), (4, 4), (0., 1.), (0., 1.), .UNSPECIFIED.)
   SURFACE ()
   GEOMETRIC_REPRESENTATION_ITEM ()
   RATIONAL_B_SPLINE_SURFACE (((5., 5., 5., 5.), (1., 1., 1., 1.), (1., 1., 1., 1.), (1., 1., 1., 1.), (1., 1., 1., 1.), (5., 5., 5., 5.)))
   REPRESENTATION_ITEM ('')
);
#49 = ADVANCED_FACE ('', (#23), #48, .F.);
#50 = CARTESIAN_POINT ('', (-0.5, 4., -9.79717439317883E-16));
#51 = VERTEX_POINT ('', #50);
#52 = CARTESIAN_POINT ('', (2.46519032881566E-32, 3.5, -8.57252759403147E-16));
#53 = CARTESIAN_POINT ('', (4.93038065763132E-32, 3.62227611019123, -8.87201768794724E-16));
#54 = CARTESIAN_POINT ('', (-0.067133326624276, 3.79497859847258, -9.29501678690432E-16));
#55 = CARTESIAN_POINT ('', (-0.272698983066411, 3.96209719120231, -9.70433928623325E-16));
#56 = CARTESIAN_POINT ('', (-0.411989930024649, 4., -9.79717439317882E-16));
#57 = CARTESIAN_POINT ('', (-0.5, 4., -9.79717439317883E-16));
#58 = B_SPLINE_CURVE_WITH_KNOTS ('', 3, (#52, #53, #54, #55, #56, #57), .UNSPECIFIED., .F., .U., (4, 1, 1, 4), (0., 0.467060336615637, 0.66382629571742, 1.), .UNSPECIFIED.);
#59 = EDGE_CURVE ('', #4, #51, #58, .T.);
#60 = ORIENTED_EDGE ('', *, *, #59, .F.);
#61 = ORIENTED_EDGE ('', *, *, #20, .T.);
#62 = ORIENTED_EDGE ('', *, *, #59, .T.);
#63 = CARTESIAN_POINT ('', (-0.5, 4., -9.79717439317883E-16));
#64 = CARTESIAN_POINT ('', (-0.500000000000001, 4., 16.));
#65 = CARTESIAN_POINT ('', (-0.500000000000001, -12., 8.));
#66 = CARTESIAN_POINT ('', (-0.5, -12., -8.));
#67 = CARTESIAN_POINT ('', (-0.499999999999999, 4., -16.));
#68 = CARTESIAN_POINT ('', (-0.5, 4., -9.79717439317883E-16));
#69 = (
   BOUNDED_CURVE ()
   B_SPLINE_CURVE (5, (#63, #64, #65, #66, #67, #68), .UNSPECIFIED., .T., .U.)
   B_SPLINE_CURVE_WITH_KNOTS ((6, 6), (0., 1.), .UNSPECIFIED.)
   CURVE ()
   GEOMETRIC_REPRESENTATION_ITEM ()
   RATIONAL_B_SPLINE_CURVE ((5., 1., 1., 1., 1., 5.))
   REPRESENTATION_ITEM ('')
);
#70 = EDGE_CURVE ('', #51, #51, #69, .T.);
#71 = ORIENTED_EDGE ('', *, *, #70, .F.);
#72 = EDGE_LOOP ('', (#60, #61, #62, #71));
#73 = FACE_OUTER_BOUND ('', #72, .F.);
#74 = CARTESIAN_POINT ('', (2.46519032881566E-32, 3.5, -8.57252759403147E-16));
#75 = CARTESIAN_POINT ('', (4.93038065763132E-32, 3.62227611019123, -8.87201768794724E-16));
#76 = CARTESIAN_POINT ('', (-0.067133326624276, 3.79497859847258, -9.29501678690432E-16));
#77 = CARTESIAN_POINT ('', (-0.272698983066411, 3.96209719120231, -9.70433928623325E-16));
#78 = CARTESIAN_POINT ('', (-0.411989930024649, 4., -9.79717439317882E-16));
#79 = CARTESIAN_POINT ('', (-0.5, 4., -9.79717439317883E-16));
#80 = CARTESIAN_POINT ('', (-8.57252759403147E-16, 3.5, 14.));
#81 = CARTESIAN_POINT ('', (-8.87201768794723E-16, 3.62227611019124, 14.4891044407649));
#82 = CARTESIAN_POINT ('', (-0.0671333266242769, 3.79497859847259, 15.1799143938903));
#83 = CARTESIAN_POINT ('', (-0.272698983066412, 3.96209719120231, 15.8483887648092));
#84 = CARTESIAN_POINT ('', (-0.41198993002465, 4., 16.));
#85 = CARTESIAN_POINT ('', (-0.500000000000001, 4., 16.));
#86 = CARTESIAN_POINT ('', (-1.28587913910472E-15, -10.5, 7.));
#87 = CARTESIAN_POINT ('', (-1.33080265319209E-15, -10.8668283305737, 7.24455222038247));
#88 = CARTESIAN_POINT ('', (-0.0671333266242774, -11.3849357954178, 7.58995719694517));
#89 = CARTESIAN_POINT ('', (-0.272698983066412, -11.8862915736069, 7.92419438240462));
#90 = CARTESIAN_POINT ('', (-0.41198993002465, -12., 8.));
#91 = CARTESIAN_POINT ('', (-0.500000000000001, -12., 8.));
#92 = CARTESIAN_POINT ('', (-4.28626379701574E-16, -10.5, -7.));
#93 = CARTESIAN_POINT ('', (-4.43600884397362E-16, -10.8668283305737, -7.24455222038246));
#94 = CARTESIAN_POINT ('', (-0.0671333266242764, -11.3849357954178, -7.58995719694517));
#95 = CARTESIAN_POINT ('', (-0.272698983066411, -11.8862915736069, -7.92419438240462));
#96 = CARTESIAN_POINT ('', (-0.411989930024649, -12., -8.));
#97 = CARTESIAN_POINT ('', (-0.5, -12., -8.));
#98 = CARTESIAN_POINT ('', (8.57252759403147E-16, 3.5, -14.));
#99 = CARTESIAN_POINT ('', (8.87201768794723E-16, 3.62227611019123, -14.4891044407649));
#100 = CARTESIAN_POINT ('', (-0.067133326624275, 3.79497859847258, -15.1799143938903));
#101 = CARTESIAN_POINT ('', (-0.27269898306641, 3.96209719120231, -15.8483887648092));
#102 = CARTESIAN_POINT ('', (-0.411989930024648, 4., -16.));
#103 = CARTESIAN_POINT ('', (-0.499999999999999, 4., -16.));
#104 = CARTESIAN_POINT ('', (2.46519032881566E-32, 3.5, -8.57252759403147E-16));
#105 = CARTESIAN_POINT ('', (4.93038065763132E-32, 3.62227611019123, -8.87201768794724E-16));
#106 = CARTESIAN_POINT ('', (-0.067133326624276, 3.79497859847258, -9.29501678690432E-16));
#107 = CARTESIAN_POINT ('', (-0.272698983066411, 3.96209719120231, -9.70433928623325E-16));
#108 = CARTESIAN_POINT ('', (-0.411989930024649, 4., -9.79717439317882E-16));
#109 = CARTESIAN_POINT ('', (-0.5, 4., -9.79717439317883E-16));
#110 = (
   BOUNDED_SURFACE ()
   B_SPLINE_SURFACE (5, 3, ((#74, #75, #76, #77, #78, #79), (#80, #81, #82, #83, #84, #85), (#86, #87, #88, #89, #90, #91), (#92, #93, #94, #95, #96, #97), (#98, #99, #100, #101, #102, #103), (#104, #105, #106, #107, #108, #109)), .UNSPECIFIED., .T., .F., .U.)
   B_SPLINE_SURFACE_WITH_KNOTS ((6, 6), (4, 1, 1, 4), (0., 1.), (0., 0.467060336615637, 0.66382629571742, 1.), .UNSPECIFIED.)
   SURFACE ()
   GEOMETRIC_REPRESENTATION_ITEM ()
   RATIONAL_B_SPLINE_SURFACE (((5., 5., 5., 5., 5., 5.), (1., 1., 1., 1., 1., 1.), (1., 1., 1., 1., 1., 1.), (1., 1., 1., 1., 1., 1.), (1., 1., 1., 1., 1., 1.), (5., 5., 5., 5., 5., 5.)))
   REPRESENTATION_ITEM ('')
);
#111 = ADVANCED_FACE ('', (#73), #110, .F.);
#112 = CARTESIAN_POINT ('', (-99.75, 4., -9.79717439317881E-16));
#113 = VERTEX_POINT ('', #112);
#114 = CARTESIAN_POINT ('', (-0.5, 4., -9.79717439317883E-16));
#115 = CARTESIAN_POINT ('', (-33.5833333333333, 4., -9.79717439317882E-16));
#116 = CARTESIAN_POINT ('', (-66.6666666666665, 4., -9.7971743931788E-16));
#117 = CARTESIAN_POINT ('', (-99.75, 4., -9.79717439317881E-16));
#118 = B_SPLINE_CURVE_WITH_KNOTS ('', 3, (#114, #115, #116, #117), .UNSPECIFIED., .F., .U., (4, 4), (0., 1.), .UNSPECIFIED.);
#119 = EDGE_CURVE ('', #51, #113, #118, .T.);
#120 = ORIENTED_EDGE ('', *, *, #119, .F.);
#121 = ORIENTED_EDGE ('', *, *, #70, .T.);
#122 = ORIENTED_EDGE ('', *, *, #119, .T.);
#123 = CARTESIAN_POINT ('', (-99.75, 4., -9.79717439317881E-16));
#124 = CARTESIAN_POINT ('', (-99.75, 3.99999999999998, 16.));
#125 = CARTESIAN_POINT ('', (-99.75, -12., 7.99999999999997));
#126 = CARTESIAN_POINT ('', (-99.75, -12., -8.00000000000001));
#127 = CARTESIAN_POINT ('', (-99.75, 4.00000000000002, -16.));
#128 = CARTESIAN_POINT ('', (-99.75, 4., -9.79717439317881E-16));
#129 = (
   BOUNDED_CURVE ()
   B_SPLINE_CURVE (5, (#123, #124, #125, #126, #127, #128), .UNSPECIFIED., .T., .U.)
   B_SPLINE_CURVE_WITH_KNOTS ((6, 6), (0., 1.), .UNSPECIFIED.)
   CURVE ()
   GEOMETRIC_REPRESENTATION_ITEM ()
   RATIONAL_B_SPLINE_CURVE ((5., 1., 1., 1., 1., 5.))
   REPRESENTATION_ITEM ('')
);
#130 = EDGE_CURVE ('', #113, #113, #129, .T.);
#131 = ORIENTED_EDGE ('', *, *, #130, .F.);
#132 = EDGE_LOOP ('', (#120, #121, #122, #131));
#133 = FACE_OUTER_BOUND ('', #132, .F.);
#134 = CARTESIAN_POINT ('', (-0.5, 4., -9.79717439317883E-16));
#135 = CARTESIAN_POINT ('', (-33.5833333333333, 4., -9.79717439317882E-16));
#136 = CARTESIAN_POINT ('', (-66.6666666666665, 4., -9.7971743931788E-16));
#137 = CARTESIAN_POINT ('', (-99.75, 4., -9.79717439317881E-16));
#138 = CARTESIAN_POINT ('', (-0.500000000000001, 4., 16.));
#139 = CARTESIAN_POINT ('', (-33.5833333333333, 4., 16.));
#140 = CARTESIAN_POINT ('', (-66.6666666666665, 3.99999999999999, 16.));
#141 = CARTESIAN_POINT ('', (-99.75, 3.99999999999998, 16.));
#142 = CARTESIAN_POINT ('', (-0.500000000000001, -12., 8.));
#143 = CARTESIAN_POINT ('', (-33.5833333333333, -12., 7.99999999999999));
#144 = CARTESIAN_POINT ('', (-66.6666666666665, -12., 7.99999999999998));
#145 = CARTESIAN_POINT ('', (-99.75, -12., 7.99999999999997));
#146 = CARTESIAN_POINT ('', (-0.5, -12., -8.));
#147 = CARTESIAN_POINT ('', (-33.5833333333333, -12., -8.));
#148 = CARTESIAN_POINT ('', (-66.6666666666665, -12., -8.00000000000001));
#149 = CARTESIAN_POINT ('', (-99.75, -12., -8.00000000000001));
#150 = CARTESIAN_POINT ('', (-0.499999999999999, 4., -16.));
#151 = CARTESIAN_POINT ('', (-33.5833333333333, 4., -16.));
#152 = CARTESIAN_POINT ('', (-66.6666666666665, 4.00000000000001, -16.));
#153 = CARTESIAN_POINT ('', (-99.75, 4.00000000000002, -16.));
#154 = CARTESIAN_POINT ('', (-0.5, 4., -9.79717439317883E-16));
#155 = CARTESIAN_POINT ('', (-33.5833333333333, 4., -9.79717439317882E-16));
#156 = CARTESIAN_POINT ('', (-66.6666666666665, 4., -9.7971743931788E-16));
#157 = CARTESIAN_POINT ('', (-99.75, 4., -9.79717439317881E-16));
#158 = (
   BOUNDED_SURFACE ()
   B_SPLINE_SURFACE (5, 3, ((#134, #135, #136, #137), (#138, #139, #140, #141), (#142, #143, #144, #145), (#146, #147, #148, #149), (#150, #151, #152, #153), (#154, #155, #156, #157)), .UNSPECIFIED., .T., .F., .U.)
   B_SPLINE_SURFACE_WITH_KNOTS ((6, 6), (4, 4), (0., 1.), (0., 1.), .UNSPECIFIED.)
   SURFACE ()
   GEOMETRIC_REPRESENTATION_ITEM ()
   RATIONAL_B_SPLINE_SURFACE (((5., 5., 5., 5.), (1., 1., 1., 1.), (1., 1., 1., 1.), (1., 1., 1., 1.), (1., 1., 1., 1.), (5., 5., 5., 5.)))
   REPRESENTATION_ITEM ('')
);
#159 = ADVANCED_FACE ('', (#133), #158, .F.);
#160 = CARTESIAN_POINT ('', (-100., 3.75, -9.18485099360514E-16));
#161 = VERTEX_POINT ('', #160);
#162 = CARTESIAN_POINT ('', (-99.75, 4., -9.79717439317881E-16));
#163 = CARTESIAN_POINT ('', (-99.8333333333335, 3.91666666666667, -9.59306659332092E-16));
#164 = CARTESIAN_POINT ('', (-99.9166666666668, 3.83333333333333, -9.38895879346301E-16));
#165 = CARTESIAN_POINT ('', (-100., 3.75, -9.18485099360514E-16));
#166 = B_SPLINE_CURVE_WITH_KNOTS ('', 3, (#162, #163, #164, #165), .UNSPECIFIED., .F., .U., (4, 4), (0., 1.), .UNSPECIFIED.);
#167 = EDGE_CURVE ('', #113, #161, #166, .T.);
#168 = ORIENTED_EDGE ('', *, *, #167, .F.);
#169 = ORIENTED_EDGE ('', *, *, #130, .T.);
#170 = ORIENTED_EDGE ('', *, *, #167, .T.);
#171 = CARTESIAN_POINT ('', (-100., 3.75, -9.18485099360514E-16));
#172 = CARTESIAN_POINT ('', (-100., 3.74999999999998, 15.));
#173 = CARTESIAN_POINT ('', (-100., -11.25, 7.49999999999997));
#174 = CARTESIAN_POINT ('', (-100., -11.25, -7.50000000000001));
#175 = CARTESIAN_POINT ('', (-100., 3.75000000000002, -15.));
#176 = CARTESIAN_POINT ('', (-100., 3.75, -9.18485099360514E-16));
#177 = (
   BOUNDED_CURVE ()
   B_SPLINE_CURVE (5, (#171, #172, #173, #174, #175, #176), .UNSPECIFIED., .T., .U.)
   B_SPLINE_CURVE_WITH_KNOTS ((6, 6), (0., 1.), .UNSPECIFIED.)
   CURVE ()
   GEOMETRIC_REPRESENTATION_ITEM ()
   RATIONAL_B_SPLINE_CURVE ((5., 1., 1., 1., 1., 5.))
   REPRESENTATION_ITEM ('')
);
#178 = EDGE_CURVE ('', #161, #161, #177, .T.);
#179 = ORIENTED_EDGE ('', *, *, #178, .F.);
#180 = EDGE_LOOP ('', (#168, #169, #170, #179));
#181 = FACE_OUTER_BOUND ('', #180, .F.);
#182 = CARTESIAN_POINT ('', (-99.75, 4., -9.79717439317881E-16));
#183 = CARTESIAN_POINT ('', (-99.8333333333335, 3.91666666666667, -9.59306659332092E-16));
#184 = CARTESIAN_POINT ('', (-99.9166666666668, 3.83333333333333, -9.38895879346301E-16));
#185 = CARTESIAN_POINT ('', (-100., 3.75, -9.18485099360514E-16));
#186 = CARTESIAN_POINT ('', (-99.75, 3.99999999999998, 16.));
#187 = CARTESIAN_POINT ('', (-99.8333333333335, 3.91666666666665, 15.6666666666666));
#188 = CARTESIAN_POINT ('', (-99.9166666666668, 3.83333333333331, 15.3333333333333));
#189 = CARTESIAN_POINT ('', (-100., 3.74999999999998, 15.));
#190 = CARTESIAN_POINT ('', (-99.75, -12., 7.99999999999997));
#191 = CARTESIAN_POINT ('', (-99.8333333333335, -11.75, 7.8333333333333));
#192 = CARTESIAN_POINT ('', (-99.9166666666668, -11.5, 7.66666666666662));
#193 = CARTESIAN_POINT ('', (-100., -11.25, 7.49999999999997));
#194 = CARTESIAN_POINT ('', (-99.75, -12., -8.00000000000001));
#195 = CARTESIAN_POINT ('', (-99.8333333333335, -11.75, -7.83333333333334));
#196 = CARTESIAN_POINT ('', (-99.9166666666668, -11.5, -7.66666666666667));
#197 = CARTESIAN_POINT ('', (-100., -11.25, -7.50000000000001));
#198 = CARTESIAN_POINT ('', (-99.75, 4.00000000000002, -16.));
#199 = CARTESIAN_POINT ('', (-99.8333333333335, 3.91666666666669, -15.6666666666666));
#200 = CARTESIAN_POINT ('', (-99.9166666666668, 3.83333333333335, -15.3333333333333));
#201 = CARTESIAN_POINT ('', (-100., 3.75000000000002, -15.));
#202 = CARTESIAN_POINT ('', (-99.75, 4., -9.79717439317881E-16));
#203 = CARTESIAN_POINT ('', (-99.8333333333335, 3.91666666666667, -9.59306659332092E-16));
#204 = CARTESIAN_POINT ('', (-99.9166666666668, 3.83333333333333, -9.38895879346301E-16));
#205 = CARTESIAN_POINT ('', (-100., 3.75, -9.18485099360514E-16));
#206 = (
   BOUNDED_SURFACE ()
   B_SPLINE_SURFACE (5, 3, ((#182, #183, #184, #185), (#186, #187, #188, #189), (#190, #191, #192, #193), (#194, #195, #196, #197), (#198, #199, #200, #201), (#202, #203, #204, #205)), .UNSPECIFIED., .T., .F., .U.)
   B_SPLINE_SURFACE_WITH_KNOTS ((6, 6), (4, 4), (0., 1.), (0., 1.), .UNSPECIFIED.)
   SURFACE ()
   GEOMETRIC_REPRESENTATION_ITEM ()
   RATIONAL_B_SPLINE_SURFACE (((5., 5., 5., 5.), (1., 1., 1., 1.), (1., 1., 1., 1.), (1., 1., 1., 1.), (1., 1., 1., 1.), (5., 5., 5., 5.)))
   REPRESENTATION_ITEM ('')
);
#207 = ADVANCED_FACE ('', (#181), #206, .F.);
#208 = CARTESIAN_POINT ('', (-100., 6.12323399573677E-15, -6.12323399573677E-15));
#209 = VERTEX_POINT ('', #208);
#210 = CARTESIAN_POINT ('', (-100., 3.75, -9.18485099360514E-16));
#211 = CARTESIAN_POINT ('', (-100., 2.5, -6.12323399573675E-16));
#212 = CARTESIAN_POINT ('', (-99.9999999999999, 1.25, -3.06161699786836E-16));
#213 = CARTESIAN_POINT ('', (-100., 6.12323399573677E-15, -6.12323399573677E-15));
#214 = B_SPLINE_CURVE_WITH_KNOTS ('', 3, (#210, #211, #212, #213), .UNSPECIFIED., .F., .U., (4, 4), (0., 1.), .UNSPECIFIED.);
#215 = EDGE_CURVE ('', #161, #209, #214, .T.);
#216 = ORIENTED_EDGE ('', *, *, #215, .F.);
#217 = ORIENTED_EDGE ('', *, *, #178, .T.);
#218 = ORIENTED_EDGE ('', *, *, #215, .T.);
#219 = EDGE_LOOP ('', (#216, #217, #218));
#220 = FACE_OUTER_BOUND ('', #219, .F.);
#221 = CARTESIAN_POINT ('', (-100., 3.75, -9.18485099360514E-16));
#222 = CARTESIAN_POINT ('', (-100., 2.5, -6.12323399573675E-16));
#223 = CARTESIAN_POINT ('', (-99.9999999999999, 1.25, -3.06161699786836E-16));
#224 = CARTESIAN_POINT ('', (-100., 6.12323399573677E-15, -6.12323399573677E-15));
#225 = CARTESIAN_POINT ('', (-100., 3.74999999999998, 15.));
#226 = CARTESIAN_POINT ('', (-100., 2.49999999999998, 9.99999999999997));
#227 = CARTESIAN_POINT ('', (-99.9999999999999, 1.24999999999997, 4.99999999999996));
#228 = CARTESIAN_POINT ('', (-100., 6.12323399573677E-15, -6.12323399573677E-15));
#229 = CARTESIAN_POINT ('', (-100., -11.25, 7.49999999999997));
#230 = CARTESIAN_POINT ('', (-100., -7.49999999999998, 4.99999999999996));
#231 = CARTESIAN_POINT ('', (-99.9999999999999, -3.74999999999997, 2.49999999999996));
#232 = CARTESIAN_POINT ('', (-100., 6.12323399573677E-15, -6.12323399573677E-15));
#233 = CARTESIAN_POINT ('', (-100., -11.25, -7.50000000000001));
#234 = CARTESIAN_POINT ('', (-100., -7.49999999999996, -5.00000000000001));
#235 = CARTESIAN_POINT ('', (-99.9999999999999, -3.74999999999995, -2.5));
#236 = CARTESIAN_POINT ('', (-100., 6.12323399573677E-15, -6.12323399573677E-15));
#237 = CARTESIAN_POINT ('', (-100., 3.75000000000002, -15.));
#238 = CARTESIAN_POINT ('', (-100., 2.50000000000002, -9.99999999999997));
#239 = CARTESIAN_POINT ('', (-99.9999999999999, 1.25000000000002, -4.99999999999996));
#240 = CARTESIAN_POINT ('', (-100., 6.12323399573677E-15, -6.12323399573677E-15));
#241 = CARTESIAN_POINT ('', (-100., 3.75, -9.18485099360514E-16));
#242 = CARTESIAN_POINT ('', (-100., 2.5, -6.12323399573675E-16));
#243 = CARTESIAN_POINT ('', (-99.9999999999999, 1.25, -3.06161699786836E-16));
#244 = CARTESIAN_POINT ('', (-100., 6.12323399573677E-15, -6.12323399573677E-15));
#245 = (
   BOUNDED_SURFACE ()
   B_SPLINE_SURFACE (5, 3, ((#221, #222, #223, #224), (#225, #226, #227, #228), (#229, #230, #231, #232), (#233, #234, #235, #236), (#237, #238, #239, #240), (#241, #242, #243, #244)), .UNSPECIFIED., .T., .F., .U.)
   B_SPLINE_SURFACE_WITH_KNOTS ((6, 6), (4, 4), (0., 1.), (0., 1.), .UNSPECIFIED.)
   SURFACE ()
   GEOMETRIC_REPRESENTATION_ITEM ()
   RATIONAL_B_SPLINE_SURFACE (((5., 5., 5., 5.), (1., 1., 1., 1.), (1., 1., 1., 1.), (1., 1., 1., 1.), (1., 1., 1., 1.), (5., 5., 5., 5.)))
   REPRESENTATION_ITEM ('')
);
#246 = ADVANCED_FACE ('', (#220), #245, .F.);
#247 = CLOSED_SHELL ('', (#49, #111, #159, #207, #246));
#248 = MANIFOLD_SOLID_BREP ('', #247);
#249 = (
   LENGTH_UNIT ()
   NAMED_UNIT (*)
   SI_UNIT (.MILLI., .METRE.)
);
#250 = (
   NAMED_UNIT (*)
   SI_UNIT ($, .STERADIAN.)
   SOLID_ANGLE_UNIT ()
);
#251 = (
   NAMED_UNIT (*)
   SI_UNIT ($, .RADIAN.)
   PLANE_ANGLE_UNIT ()
);
#252 = UNCERTAINTY_MEASURE_WITH_UNIT (LENGTH_MEASURE(0.001), #249, 'DISTANCE_ACCURACY_VALUE', '');
#253 = (
   GEOMETRIC_REPRESENTATION_CONTEXT (3)
   GLOBAL_UNCERTAINTY_ASSIGNED_CONTEXT ((#252))
   GLOBAL_UNIT_ASSIGNED_CONTEXT ((#249, #250, #251))
   REPRESENTATION_CONTEXT ('', '3D')
);
#254 = SHAPE_REPRESENTATION ('', (), #253);
#255 = APPLICATION_CONTEXT ('configuration controlled 3D designs of mechanical parts and assemblies');
#256 = APPLICATION_PROTOCOL_DEFINITION ('International Standard', 'config_control_design', 1997, #255);
#257 = MECHANICAL_CONTEXT ('', #255, 'mechanical');
#258 = PRODUCT ('', '', '', (#257));
#259 = PERSON_AND_ORGANIZATION_ROLE ('design_owner');
#260 = PERSON ('', '', $, $, $, $);
#261 = ORGANIZATION ($, '', '');
#262 = PERSON_AND_ORGANIZATION (#260, #261);
#263 = CC_DESIGN_PERSON_AND_ORGANIZATION_ASSIGNMENT (#262, #259, (#258));
#264 = PRODUCT_RELATED_PRODUCT_CATEGORY ('detail', $, (#258));
#265 = PRODUCT_DEFINITION_FORMATION_WITH_SPECIFIED_SOURCE ('', '', #258, .NOT_KNOWN.);
#266 = APPROVAL_STATUS ('approved');
#267 = APPROVAL (#266, '');
#268 = CALENDAR_DATE (2021, 7, 1);
#269 = COORDINATED_UNIVERSAL_TIME_OFFSET (0, $, .AHEAD.);
#270 = LOCAL_TIME (8, 23, 28., #269);
#271 = DATE_AND_TIME (#268, #270);
#272 = APPROVAL_DATE_TIME (#271, #267);
#273 = APPROVAL_ROLE ('');
#274 = PERSON ('', '', $, $, $, $);
#275 = ORGANIZATION ($, '', '');
#276 = PERSON_AND_ORGANIZATION (#274, #275);
#277 = APPROVAL_PERSON_ORGANIZATION (#276, #267, #273);
#278 = CC_DESIGN_APPROVAL (#267, (#265));
#279 = PERSON_AND_ORGANIZATION_ROLE ('creator');
#280 = PERSON ('', '', $, $, $, $);
#281 = ORGANIZATION ($, '', '');
#282 = PERSON_AND_ORGANIZATION (#280, #281);
#283 = CC_DESIGN_PERSON_AND_ORGANIZATION_ASSIGNMENT (#282, #279, (#265));
#284 = PERSON_AND_ORGANIZATION_ROLE ('part_supplier');
#285 = PERSON ('', '', $, $, $, $);
#286 = ORGANIZATION ($, '', '');
#287 = PERSON_AND_ORGANIZATION (#285, #286);
#288 = CC_DESIGN_PERSON_AND_ORGANIZATION_ASSIGNMENT (#287, #284, (#265));
#289 = SECURITY_CLASSIFICATION_LEVEL ('unclassified');
#290 = SECURITY_CLASSIFICATION ('', '', #289);
#291 = APPROVAL_STATUS ('approved');
#292 = APPROVAL (#291, '');
#293 = CALENDAR_DATE (2021, 7, 1);
#294 = COORDINATED_UNIVERSAL_TIME_OFFSET (0, $, .AHEAD.);
#295 = LOCAL_TIME (8, 23, 28., #294);
#296 = DATE_AND_TIME (#293, #295);
#297 = APPROVAL_DATE_TIME (#296, #292);
#298 = APPROVAL_ROLE ('');
#299 = PERSON ('', '', $, $, $, $);
#300 = ORGANIZATION ($, '', '');
#301 = PERSON_AND_ORGANIZATION (#299, #300);
#302 = APPROVAL_PERSON_ORGANIZATION (#301, #292, #298);
#303 = CC_DESIGN_APPROVAL (#292, (#290));
#304 = DATE_TIME_ROLE ('classification_date');
#305 = CALENDAR_DATE (2021, 7, 1);
#306 = COORDINATED_UNIVERSAL_TIME_OFFSET (0, $, .AHEAD.);
#307 = LOCAL_TIME (8, 23, 28., #306);
#308 = DATE_AND_TIME (#305, #307);
#309 = CC_DESIGN_DATE_AND_TIME_ASSIGNMENT (#308, #304, (#290));
#310 = PERSON_AND_ORGANIZATION_ROLE ('classification_officer');
#311 = PERSON ('', '', $, $, $, $);
#312 = ORGANIZATION ($, '', '');
#313 = PERSON_AND_ORGANIZATION (#311, #312);
#314 = CC_DESIGN_PERSON_AND_ORGANIZATION_ASSIGNMENT (#313, #310, (#290));
#315 = CC_DESIGN_SECURITY_CLASSIFICATION (#290, (#265));
#316 = DESIGN_CONTEXT ('', #255, 'design');
#317 = PRODUCT_DEFINITION ('', '', #265, #316);
#318 = APPROVAL_STATUS ('approved');
#319 = APPROVAL (#318, '');
#320 = CALENDAR_DATE (2021, 7, 1);
#321 = COORDINATED_UNIVERSAL_TIME_OFFSET (0, $, .AHEAD.);
#322 = LOCAL_TIME (8, 23, 28., #321);
#323 = DATE_AND_TIME (#320, #322);
#324 = APPROVAL_DATE_TIME (#323, #319);
#325 = APPROVAL_ROLE ('');
#326 = PERSON ('', '', $, $, $, $);
#327 = ORGANIZATION ($, '', '');
#328 = PERSON_AND_ORGANIZATION (#326, #327);
#329 = APPROVAL_PERSON_ORGANIZATION (#328, #319, #325);
#330 = CC_DESIGN_APPROVAL (#319, (#317));
#331 = DATE_TIME_ROLE ('creation_date');
#332 = CALENDAR_DATE (2021, 7, 1);
#333 = COORDINATED_UNIVERSAL_TIME_OFFSET (0, $, .AHEAD.);
#334 = LOCAL_TIME (8, 23, 28., #333);
#335 = DATE_AND_TIME (#332, #334);
#336 = CC_DESIGN_DATE_AND_TIME_ASSIGNMENT (#335, #331, (#317));
#337 = PERSON_AND_ORGANIZATION_ROLE ('creator');
#338 = PERSON ('', '', $, $, $, $);
#339 = ORGANIZATION ($, '', '');
#340 = PERSON_AND_ORGANIZATION (#338, #339);
#341 = CC_DESIGN_PERSON_AND_ORGANIZATION_ASSIGNMENT (#340, #337, (#317));
#342 = PRODUCT_DEFINITION_SHAPE ('', '', #317);
#343 = SHAPE_DEFINITION_REPRESENTATION (#342, #254);
#344 = SHAPE_REPRESENTATION_RELATIONSHIP ('', '', #254, #345);
#345 = ADVANCED_BREP_SHAPE_REPRESENTATION ('', (#248), #253);
ENDSEC;
END-ISO-10303-21;
