ISO-10303-21;
HEADER;
FILE_DESCRIPTION ((), '1');
FILE_NAME ('C:\\Users\\kevin\\157 Range\\157 0800-1.00RA.STP', '2021-01-07T08:24:17', ('Unknown'), ('mafordeurope'), 'OneCNC-XR7 Mill 3D Expert', 'OneCNC-XR7 Mill 3D Expert', '');
FILE_SCHEMA (('CONFIG_CONTROL_DESIGN'));
ENDSEC;

DATA;
#1 = CARTESIAN_POINT ('', (0., 0., 0.));
#2 = VERTEX_POINT ('', #1);
#3 = CARTESIAN_POINT ('', (4.93038065763132E-32, 3., -7.34788079488412E-16));
#4 = VERTEX_POINT ('', #3);
#5 = CARTESIAN_POINT ('', (0., 0., 0.));
#6 = CARTESIAN_POINT ('', (1.23259516440783E-32, 1., -2.44929359829471E-16));
#7 = CARTESIAN_POINT ('', (2.46519032881566E-32, 2., -4.89858719658941E-16));
#8 = CARTESIAN_POINT ('', (4.93038065763132E-32, 3., -7.34788079488412E-16));
#9 = B_SPLINE_CURVE_WITH_KNOTS ('', 3, (#5, #6, #7, #8), .UNSPECIFIED., .F., .U., (4, 4), (0., 1.), .UNSPECIFIED.);
#10 = EDGE_CURVE ('', #2, #4, #9, .T.);
#11 = ORIENTED_EDGE ('', *, *, #10, .F.);
#12 = ORIENTED_EDGE ('', *, *, #10, .T.);
#13 = CARTESIAN_POINT ('', (4.93038065763132E-32, 3., -7.34788079488412E-16));
#14 = CARTESIAN_POINT ('', (-7.34788079488412E-16, 3., 12.));
#15 = CARTESIAN_POINT ('', (-1.10218211923262E-15, -9., 6.));
#16 = CARTESIAN_POINT ('', (-3.67394039744206E-16, -9., -6.));
#17 = CARTESIAN_POINT ('', (7.34788079488412E-16, 3., -12.));
#18 = CARTESIAN_POINT ('', (4.93038065763132E-32, 3., -7.34788079488412E-16));
#19 = (
   BOUNDED_CURVE ()
   B_SPLINE_CURVE (5, (#13, #14, #15, #16, #17, #18), .UNSPECIFIED., .T., .U.)
   B_SPLINE_CURVE_WITH_KNOTS ((6, 6), (0., 1.), .UNSPECIFIED.)
   CURVE ()
   GEOMETRIC_REPRESENTATION_ITEM ()
   RATIONAL_B_SPLINE_CURVE ((5., 1., 1., 1., 1., 5.))
   REPRESENTATION_ITEM ('')
);
#20 = EDGE_CURVE ('', #4, #4, #19, .T.);
#21 = ORIENTED_EDGE ('', *, *, #20, .F.);
#22 = EDGE_LOOP ('', (#11, #12, #21));
#23 = FACE_OUTER_BOUND ('', #22, .F.);
#24 = CARTESIAN_POINT ('', (0., 0., 0.));
#25 = CARTESIAN_POINT ('', (1.23259516440783E-32, 1., -2.44929359829471E-16));
#26 = CARTESIAN_POINT ('', (2.46519032881566E-32, 2., -4.89858719658941E-16));
#27 = CARTESIAN_POINT ('', (4.93038065763132E-32, 3., -7.34788079488412E-16));
#28 = CARTESIAN_POINT ('', (0., 0., 0.));
#29 = CARTESIAN_POINT ('', (-2.44929359829471E-16, 1., 4.));
#30 = CARTESIAN_POINT ('', (-4.89858719658941E-16, 2., 8.));
#31 = CARTESIAN_POINT ('', (-7.34788079488412E-16, 3., 12.));
#32 = CARTESIAN_POINT ('', (0., 0., 0.));
#33 = CARTESIAN_POINT ('', (-3.67394039744206E-16, -3., 2.));
#34 = CARTESIAN_POINT ('', (-7.34788079488412E-16, -6., 4.));
#35 = CARTESIAN_POINT ('', (-1.10218211923262E-15, -9., 6.));
#36 = CARTESIAN_POINT ('', (0., 0., 0.));
#37 = CARTESIAN_POINT ('', (-1.22464679914735E-16, -3., -2.));
#38 = CARTESIAN_POINT ('', (-2.44929359829471E-16, -6., -4.));
#39 = CARTESIAN_POINT ('', (-3.67394039744206E-16, -9., -6.));
#40 = CARTESIAN_POINT ('', (0., 0., 0.));
#41 = CARTESIAN_POINT ('', (2.44929359829471E-16, 0.999999999999999, -4.));
#42 = CARTESIAN_POINT ('', (4.89858719658941E-16, 2., -8.));
#43 = CARTESIAN_POINT ('', (7.34788079488412E-16, 3., -12.));
#44 = CARTESIAN_POINT ('', (0., 0., 0.));
#45 = CARTESIAN_POINT ('', (1.23259516440783E-32, 1., -2.44929359829471E-16));
#46 = CARTESIAN_POINT ('', (2.46519032881566E-32, 2., -4.89858719658941E-16));
#47 = CARTESIAN_POINT ('', (4.93038065763132E-32, 3., -7.34788079488412E-16));
#48 = (
   BOUNDED_SURFACE ()
   B_SPLINE_SURFACE (5, 3, ((#24, #25, #26, #27), (#28, #29, #30, #31), (#32, #33, #34, #35), (#36, #37, #38, #39), (#40, #41, #42, #43), (#44, #45, #46, #47)), .UNSPECIFIED., .T., .F., .U.)
   B_SPLINE_SURFACE_WITH_KNOTS ((6, 6), (4, 4), (0., 1.), (0., 1.), .UNSPECIFIED.)
   SURFACE ()
   GEOMETRIC_REPRESENTATION_ITEM ()
   RATIONAL_B_SPLINE_SURFACE (((5., 5., 5., 5.), (1., 1., 1., 1.), (1., 1., 1., 1.), (1., 1., 1., 1.), (1., 1., 1., 1.), (5., 5., 5., 5.)))
   REPRESENTATION_ITEM ('')
);
#49 = ADVANCED_FACE ('', (#23), #48, .F.);
#50 = CARTESIAN_POINT ('', (-1., 4., -9.79717439317883E-16));
#51 = VERTEX_POINT ('', #50);
#52 = CARTESIAN_POINT ('', (4.93038065763132E-32, 3., -7.34788079488412E-16));
#53 = CARTESIAN_POINT ('', (4.93038065763132E-32, 3.10925537777973, -7.61547929225927E-16));
#54 = CARTESIAN_POINT ('', (-0.0405284603756883, 3.35374193361112, -8.21429864832622E-16));
#55 = CARTESIAN_POINT ('', (-0.220054300201925, 3.65969993063219, -8.963679611777E-16));
#56 = CARTESIAN_POINT ('', (-0.545397966132822, 3.92419438240462, -9.61150417928768E-16));
#57 = CARTESIAN_POINT ('', (-0.823979860049297, 4., -9.79717439317883E-16));
#58 = CARTESIAN_POINT ('', (-1., 4., -9.79717439317883E-16));
#59 = B_SPLINE_CURVE_WITH_KNOTS ('', 3, (#52, #53, #54, #55, #56, #57, #58), .UNSPECIFIED., .F., .U., (4, 1, 1, 1, 4), (0., 0.208662401196191, 0.467060336615637, 0.66382629571742, 1.), .UNSPECIFIED.);
#60 = EDGE_CURVE ('', #4, #51, #59, .T.);
#61 = ORIENTED_EDGE ('', *, *, #60, .F.);
#62 = ORIENTED_EDGE ('', *, *, #20, .T.);
#63 = ORIENTED_EDGE ('', *, *, #60, .T.);
#64 = CARTESIAN_POINT ('', (-1., 4., -9.79717439317883E-16));
#65 = CARTESIAN_POINT ('', (-1., 4., 16.));
#66 = CARTESIAN_POINT ('', (-1., -12., 8.));
#67 = CARTESIAN_POINT ('', (-1., -12., -8.));
#68 = CARTESIAN_POINT ('', (-0.999999999999999, 4., -16.));
#69 = CARTESIAN_POINT ('', (-1., 4., -9.79717439317883E-16));
#70 = (
   BOUNDED_CURVE ()
   B_SPLINE_CURVE (5, (#64, #65, #66, #67, #68, #69), .UNSPECIFIED., .T., .U.)
   B_SPLINE_CURVE_WITH_KNOTS ((6, 6), (0., 1.), .UNSPECIFIED.)
   CURVE ()
   GEOMETRIC_REPRESENTATION_ITEM ()
   RATIONAL_B_SPLINE_CURVE ((5., 1., 1., 1., 1., 5.))
   REPRESENTATION_ITEM ('')
);
#71 = EDGE_CURVE ('', #51, #51, #70, .T.);
#72 = ORIENTED_EDGE ('', *, *, #71, .F.);
#73 = EDGE_LOOP ('', (#61, #62, #63, #72));
#74 = FACE_OUTER_BOUND ('', #73, .F.);
#75 = CARTESIAN_POINT ('', (4.93038065763132E-32, 3., -7.34788079488412E-16));
#76 = CARTESIAN_POINT ('', (4.93038065763132E-32, 3.10925537777973, -7.61547929225927E-16));
#77 = CARTESIAN_POINT ('', (-0.0405284603756883, 3.35374193361112, -8.21429864832622E-16));
#78 = CARTESIAN_POINT ('', (-0.220054300201925, 3.65969993063219, -8.963679611777E-16));
#79 = CARTESIAN_POINT ('', (-0.545397966132822, 3.92419438240462, -9.61150417928768E-16));
#80 = CARTESIAN_POINT ('', (-0.823979860049297, 4., -9.79717439317883E-16));
#81 = CARTESIAN_POINT ('', (-1., 4., -9.79717439317883E-16));
#82 = CARTESIAN_POINT ('', (-7.34788079488412E-16, 3., 12.));
#83 = CARTESIAN_POINT ('', (-7.61547929225927E-16, 3.10925537777973, 12.4370215111189));
#84 = CARTESIAN_POINT ('', (-0.0405284603756891, 3.35374193361112, 13.4149677344445));
#85 = CARTESIAN_POINT ('', (-0.220054300201926, 3.65969993063219, 14.6387997225288));
#86 = CARTESIAN_POINT ('', (-0.545397966132823, 3.92419438240462, 15.6967775296185));
#87 = CARTESIAN_POINT ('', (-0.823979860049298, 4., 16.));
#88 = CARTESIAN_POINT ('', (-1., 4., 16.));
#89 = CARTESIAN_POINT ('', (-1.10218211923262E-15, -9., 6.));
#90 = CARTESIAN_POINT ('', (-1.14232189383889E-15, -9.32776613333918, 6.21851075555946));
#91 = CARTESIAN_POINT ('', (-0.0405284603756895, -10.0612258008334, 6.70748386722224));
#92 = CARTESIAN_POINT ('', (-0.220054300201927, -10.9790997918966, 7.31939986126438));
#93 = CARTESIAN_POINT ('', (-0.545397966132824, -11.7725831472139, 7.84838876480924));
#94 = CARTESIAN_POINT ('', (-0.823979860049299, -12., 8.));
#95 = CARTESIAN_POINT ('', (-1., -12., 8.));
#96 = CARTESIAN_POINT ('', (-3.67394039744206E-16, -9., -6.));
#97 = CARTESIAN_POINT ('', (-3.80773964612964E-16, -9.32776613333918, -6.21851075555945));
#98 = CARTESIAN_POINT ('', (-0.0405284603756887, -10.0612258008334, -6.70748386722223));
#99 = CARTESIAN_POINT ('', (-0.220054300201926, -10.9790997918966, -7.31939986126438));
#100 = CARTESIAN_POINT ('', (-0.545397966132823, -11.7725831472139, -7.84838876480924));
#101 = CARTESIAN_POINT ('', (-0.823979860049298, -12., -8.));
#102 = CARTESIAN_POINT ('', (-1., -12., -8.));
#103 = CARTESIAN_POINT ('', (7.34788079488412E-16, 3., -12.));
#104 = CARTESIAN_POINT ('', (7.61547929225927E-16, 3.10925537777972, -12.4370215111189));
#105 = CARTESIAN_POINT ('', (-0.0405284603756875, 3.35374193361111, -13.4149677344445));
#106 = CARTESIAN_POINT ('', (-0.220054300201924, 3.65969993063219, -14.6387997225288));
#107 = CARTESIAN_POINT ('', (-0.545397966132821, 3.92419438240462, -15.6967775296185));
#108 = CARTESIAN_POINT ('', (-0.823979860049296, 4., -16.));
#109 = CARTESIAN_POINT ('', (-0.999999999999999, 4., -16.));
#110 = CARTESIAN_POINT ('', (4.93038065763132E-32, 3., -7.34788079488412E-16));
#111 = CARTESIAN_POINT ('', (4.93038065763132E-32, 3.10925537777973, -7.61547929225927E-16));
#112 = CARTESIAN_POINT ('', (-0.0405284603756883, 3.35374193361112, -8.21429864832622E-16));
#113 = CARTESIAN_POINT ('', (-0.220054300201925, 3.65969993063219, -8.963679611777E-16));
#114 = CARTESIAN_POINT ('', (-0.545397966132822, 3.92419438240462, -9.61150417928768E-16));
#115 = CARTESIAN_POINT ('', (-0.823979860049297, 4., -9.79717439317883E-16));
#116 = CARTESIAN_POINT ('', (-1., 4., -9.79717439317883E-16));
#117 = (
   BOUNDED_SURFACE ()
   B_SPLINE_SURFACE (5, 3, ((#75, #76, #77, #78, #79, #80, #81), (#82, #83, #84, #85, #86, #87, #88), (#89, #90, #91, #92, #93, #94, #95), (#96, #97, #98, #99, #100, #101, #102), (#103, #104, #105, #106, #107, #108, #109), (#110, #111, #112, #113, #114, #115, #116)), .UNSPECIFIED., .T., .F., .U.)
   B_SPLINE_SURFACE_WITH_KNOTS ((6, 6), (4, 1, 1, 1, 4), (0., 1.), (0., 0.208662401196191, 0.467060336615637, 0.66382629571742, 1.), .UNSPECIFIED.)
   SURFACE ()
   GEOMETRIC_REPRESENTATION_ITEM ()
   RATIONAL_B_SPLINE_SURFACE (((5., 5., 5., 5., 5., 5., 5.), (1., 1., 1., 1., 1., 1., 1.), (1., 1., 1., 1., 1., 1., 1.), (1., 1., 1., 1., 1., 1., 1.), (1., 1., 1., 1., 1., 1., 1.), (5., 5., 5., 5., 5., 5., 5.)))
   REPRESENTATION_ITEM ('')
);
#118 = ADVANCED_FACE ('', (#74), #117, .F.);
#119 = CARTESIAN_POINT ('', (-99.75, 4., -9.79717439317881E-16));
#120 = VERTEX_POINT ('', #119);
#121 = CARTESIAN_POINT ('', (-1., 4., -9.79717439317882E-16));
#122 = CARTESIAN_POINT ('', (-33.9166666666667, 4., -9.79717439317882E-16));
#123 = CARTESIAN_POINT ('', (-66.8333333333332, 4., -9.79717439317881E-16));
#124 = CARTESIAN_POINT ('', (-99.75, 4., -9.79717439317881E-16));
#125 = B_SPLINE_CURVE_WITH_KNOTS ('', 3, (#121, #122, #123, #124), .UNSPECIFIED., .F., .U., (4, 4), (0., 1.), .UNSPECIFIED.);
#126 = EDGE_CURVE ('', #51, #120, #125, .T.);
#127 = ORIENTED_EDGE ('', *, *, #126, .F.);
#128 = ORIENTED_EDGE ('', *, *, #71, .T.);
#129 = ORIENTED_EDGE ('', *, *, #126, .T.);
#130 = CARTESIAN_POINT ('', (-99.75, 4., -9.79717439317881E-16));
#131 = CARTESIAN_POINT ('', (-99.75, 3.99999999999998, 16.));
#132 = CARTESIAN_POINT ('', (-99.75, -12., 7.99999999999997));
#133 = CARTESIAN_POINT ('', (-99.75, -12., -8.00000000000001));
#134 = CARTESIAN_POINT ('', (-99.75, 4.00000000000002, -16.));
#135 = CARTESIAN_POINT ('', (-99.75, 4., -9.79717439317881E-16));
#136 = (
   BOUNDED_CURVE ()
   B_SPLINE_CURVE (5, (#130, #131, #132, #133, #134, #135), .UNSPECIFIED., .T., .U.)
   B_SPLINE_CURVE_WITH_KNOTS ((6, 6), (0., 1.), .UNSPECIFIED.)
   CURVE ()
   GEOMETRIC_REPRESENTATION_ITEM ()
   RATIONAL_B_SPLINE_CURVE ((5., 1., 1., 1., 1., 5.))
   REPRESENTATION_ITEM ('')
);
#137 = EDGE_CURVE ('', #120, #120, #136, .T.);
#138 = ORIENTED_EDGE ('', *, *, #137, .F.);
#139 = EDGE_LOOP ('', (#127, #128, #129, #138));
#140 = FACE_OUTER_BOUND ('', #139, .F.);
#141 = CARTESIAN_POINT ('', (-1., 4., -9.79717439317882E-16));
#142 = CARTESIAN_POINT ('', (-33.9166666666667, 4., -9.79717439317882E-16));
#143 = CARTESIAN_POINT ('', (-66.8333333333332, 4., -9.79717439317881E-16));
#144 = CARTESIAN_POINT ('', (-99.75, 4., -9.79717439317881E-16));
#145 = CARTESIAN_POINT ('', (-1., 4., 16.));
#146 = CARTESIAN_POINT ('', (-33.9166666666667, 4., 16.));
#147 = CARTESIAN_POINT ('', (-66.8333333333332, 3.99999999999999, 16.));
#148 = CARTESIAN_POINT ('', (-99.75, 3.99999999999998, 16.));
#149 = CARTESIAN_POINT ('', (-1., -12., 8.));
#150 = CARTESIAN_POINT ('', (-33.9166666666667, -12., 7.99999999999999));
#151 = CARTESIAN_POINT ('', (-66.8333333333332, -12., 7.99999999999998));
#152 = CARTESIAN_POINT ('', (-99.75, -12., 7.99999999999997));
#153 = CARTESIAN_POINT ('', (-1., -12., -8.));
#154 = CARTESIAN_POINT ('', (-33.9166666666667, -12., -8.));
#155 = CARTESIAN_POINT ('', (-66.8333333333332, -12., -8.00000000000001));
#156 = CARTESIAN_POINT ('', (-99.75, -12., -8.00000000000001));
#157 = CARTESIAN_POINT ('', (-0.999999999999999, 4., -16.));
#158 = CARTESIAN_POINT ('', (-33.9166666666667, 4., -16.));
#159 = CARTESIAN_POINT ('', (-66.8333333333332, 4.00000000000001, -16.));
#160 = CARTESIAN_POINT ('', (-99.75, 4.00000000000002, -16.));
#161 = CARTESIAN_POINT ('', (-1., 4., -9.79717439317882E-16));
#162 = CARTESIAN_POINT ('', (-33.9166666666667, 4., -9.79717439317882E-16));
#163 = CARTESIAN_POINT ('', (-66.8333333333332, 4., -9.79717439317881E-16));
#164 = CARTESIAN_POINT ('', (-99.75, 4., -9.79717439317881E-16));
#165 = (
   BOUNDED_SURFACE ()
   B_SPLINE_SURFACE (5, 3, ((#141, #142, #143, #144), (#145, #146, #147, #148), (#149, #150, #151, #152), (#153, #154, #155, #156), (#157, #158, #159, #160), (#161, #162, #163, #164)), .UNSPECIFIED., .T., .F., .U.)
   B_SPLINE_SURFACE_WITH_KNOTS ((6, 6), (4, 4), (0., 1.), (0., 1.), .UNSPECIFIED.)
   SURFACE ()
   GEOMETRIC_REPRESENTATION_ITEM ()
   RATIONAL_B_SPLINE_SURFACE (((5., 5., 5., 5.), (1., 1., 1., 1.), (1., 1., 1., 1.), (1., 1., 1., 1.), (1., 1., 1., 1.), (5., 5., 5., 5.)))
   REPRESENTATION_ITEM ('')
);
#166 = ADVANCED_FACE ('', (#140), #165, .F.);
#167 = CARTESIAN_POINT ('', (-100., 3.75, -9.18485099360514E-16));
#168 = VERTEX_POINT ('', #167);
#169 = CARTESIAN_POINT ('', (-99.75, 4., -9.79717439317881E-16));
#170 = CARTESIAN_POINT ('', (-99.8333333333335, 3.91666666666667, -9.59306659332092E-16));
#171 = CARTESIAN_POINT ('', (-99.9166666666668, 3.83333333333333, -9.38895879346301E-16));
#172 = CARTESIAN_POINT ('', (-100., 3.75, -9.18485099360514E-16));
#173 = B_SPLINE_CURVE_WITH_KNOTS ('', 3, (#169, #170, #171, #172), .UNSPECIFIED., .F., .U., (4, 4), (0., 1.), .UNSPECIFIED.);
#174 = EDGE_CURVE ('', #120, #168, #173, .T.);
#175 = ORIENTED_EDGE ('', *, *, #174, .F.);
#176 = ORIENTED_EDGE ('', *, *, #137, .T.);
#177 = ORIENTED_EDGE ('', *, *, #174, .T.);
#178 = CARTESIAN_POINT ('', (-100., 3.75, -9.18485099360514E-16));
#179 = CARTESIAN_POINT ('', (-100., 3.74999999999998, 15.));
#180 = CARTESIAN_POINT ('', (-100., -11.25, 7.49999999999997));
#181 = CARTESIAN_POINT ('', (-100., -11.25, -7.50000000000001));
#182 = CARTESIAN_POINT ('', (-100., 3.75000000000002, -15.));
#183 = CARTESIAN_POINT ('', (-100., 3.75, -9.18485099360514E-16));
#184 = (
   BOUNDED_CURVE ()
   B_SPLINE_CURVE (5, (#178, #179, #180, #181, #182, #183), .UNSPECIFIED., .T., .U.)
   B_SPLINE_CURVE_WITH_KNOTS ((6, 6), (0., 1.), .UNSPECIFIED.)
   CURVE ()
   GEOMETRIC_REPRESENTATION_ITEM ()
   RATIONAL_B_SPLINE_CURVE ((5., 1., 1., 1., 1., 5.))
   REPRESENTATION_ITEM ('')
);
#185 = EDGE_CURVE ('', #168, #168, #184, .T.);
#186 = ORIENTED_EDGE ('', *, *, #185, .F.);
#187 = EDGE_LOOP ('', (#175, #176, #177, #186));
#188 = FACE_OUTER_BOUND ('', #187, .F.);
#189 = CARTESIAN_POINT ('', (-99.75, 4., -9.79717439317881E-16));
#190 = CARTESIAN_POINT ('', (-99.8333333333335, 3.91666666666667, -9.59306659332092E-16));
#191 = CARTESIAN_POINT ('', (-99.9166666666668, 3.83333333333333, -9.38895879346301E-16));
#192 = CARTESIAN_POINT ('', (-100., 3.75, -9.18485099360514E-16));
#193 = CARTESIAN_POINT ('', (-99.75, 3.99999999999998, 16.));
#194 = CARTESIAN_POINT ('', (-99.8333333333335, 3.91666666666665, 15.6666666666666));
#195 = CARTESIAN_POINT ('', (-99.9166666666668, 3.83333333333331, 15.3333333333333));
#196 = CARTESIAN_POINT ('', (-100., 3.74999999999998, 15.));
#197 = CARTESIAN_POINT ('', (-99.75, -12., 7.99999999999997));
#198 = CARTESIAN_POINT ('', (-99.8333333333335, -11.75, 7.8333333333333));
#199 = CARTESIAN_POINT ('', (-99.9166666666668, -11.5, 7.66666666666662));
#200 = CARTESIAN_POINT ('', (-100., -11.25, 7.49999999999997));
#201 = CARTESIAN_POINT ('', (-99.75, -12., -8.00000000000001));
#202 = CARTESIAN_POINT ('', (-99.8333333333335, -11.75, -7.83333333333334));
#203 = CARTESIAN_POINT ('', (-99.9166666666668, -11.5, -7.66666666666667));
#204 = CARTESIAN_POINT ('', (-100., -11.25, -7.50000000000001));
#205 = CARTESIAN_POINT ('', (-99.75, 4.00000000000002, -16.));
#206 = CARTESIAN_POINT ('', (-99.8333333333335, 3.91666666666669, -15.6666666666666));
#207 = CARTESIAN_POINT ('', (-99.9166666666668, 3.83333333333335, -15.3333333333333));
#208 = CARTESIAN_POINT ('', (-100., 3.75000000000002, -15.));
#209 = CARTESIAN_POINT ('', (-99.75, 4., -9.79717439317881E-16));
#210 = CARTESIAN_POINT ('', (-99.8333333333335, 3.91666666666667, -9.59306659332092E-16));
#211 = CARTESIAN_POINT ('', (-99.9166666666668, 3.83333333333333, -9.38895879346301E-16));
#212 = CARTESIAN_POINT ('', (-100., 3.75, -9.18485099360514E-16));
#213 = (
   BOUNDED_SURFACE ()
   B_SPLINE_SURFACE (5, 3, ((#189, #190, #191, #192), (#193, #194, #195, #196), (#197, #198, #199, #200), (#201, #202, #203, #204), (#205, #206, #207, #208), (#209, #210, #211, #212)), .UNSPECIFIED., .T., .F., .U.)
   B_SPLINE_SURFACE_WITH_KNOTS ((6, 6), (4, 4), (0., 1.), (0., 1.), .UNSPECIFIED.)
   SURFACE ()
   GEOMETRIC_REPRESENTATION_ITEM ()
   RATIONAL_B_SPLINE_SURFACE (((5., 5., 5., 5.), (1., 1., 1., 1.), (1., 1., 1., 1.), (1., 1., 1., 1.), (1., 1., 1., 1.), (5., 5., 5., 5.)))
   REPRESENTATION_ITEM ('')
);
#214 = ADVANCED_FACE ('', (#188), #213, .F.);
#215 = CARTESIAN_POINT ('', (-100., 6.12323399573677E-15, -6.12323399573677E-15));
#216 = VERTEX_POINT ('', #215);
#217 = CARTESIAN_POINT ('', (-100., 3.75, -9.18485099360514E-16));
#218 = CARTESIAN_POINT ('', (-100., 2.5, -6.12323399573675E-16));
#219 = CARTESIAN_POINT ('', (-99.9999999999999, 1.25, -3.06161699786836E-16));
#220 = CARTESIAN_POINT ('', (-100., 6.12323399573677E-15, -6.12323399573677E-15));
#221 = B_SPLINE_CURVE_WITH_KNOTS ('', 3, (#217, #218, #219, #220), .UNSPECIFIED., .F., .U., (4, 4), (0., 1.), .UNSPECIFIED.);
#222 = EDGE_CURVE ('', #168, #216, #221, .T.);
#223 = ORIENTED_EDGE ('', *, *, #222, .F.);
#224 = ORIENTED_EDGE ('', *, *, #185, .T.);
#225 = ORIENTED_EDGE ('', *, *, #222, .T.);
#226 = EDGE_LOOP ('', (#223, #224, #225));
#227 = FACE_OUTER_BOUND ('', #226, .F.);
#228 = CARTESIAN_POINT ('', (-100., 3.75, -9.18485099360514E-16));
#229 = CARTESIAN_POINT ('', (-100., 2.5, -6.12323399573675E-16));
#230 = CARTESIAN_POINT ('', (-99.9999999999999, 1.25, -3.06161699786836E-16));
#231 = CARTESIAN_POINT ('', (-100., 6.12323399573677E-15, -6.12323399573677E-15));
#232 = CARTESIAN_POINT ('', (-100., 3.74999999999998, 15.));
#233 = CARTESIAN_POINT ('', (-100., 2.49999999999998, 9.99999999999997));
#234 = CARTESIAN_POINT ('', (-99.9999999999999, 1.24999999999997, 4.99999999999996));
#235 = CARTESIAN_POINT ('', (-100., 6.12323399573677E-15, -6.12323399573677E-15));
#236 = CARTESIAN_POINT ('', (-100., -11.25, 7.49999999999997));
#237 = CARTESIAN_POINT ('', (-100., -7.49999999999998, 4.99999999999996));
#238 = CARTESIAN_POINT ('', (-99.9999999999999, -3.74999999999997, 2.49999999999996));
#239 = CARTESIAN_POINT ('', (-100., 6.12323399573677E-15, -6.12323399573677E-15));
#240 = CARTESIAN_POINT ('', (-100., -11.25, -7.50000000000001));
#241 = CARTESIAN_POINT ('', (-100., -7.49999999999996, -5.00000000000001));
#242 = CARTESIAN_POINT ('', (-99.9999999999999, -3.74999999999995, -2.5));
#243 = CARTESIAN_POINT ('', (-100., 6.12323399573677E-15, -6.12323399573677E-15));
#244 = CARTESIAN_POINT ('', (-100., 3.75000000000002, -15.));
#245 = CARTESIAN_POINT ('', (-100., 2.50000000000002, -9.99999999999997));
#246 = CARTESIAN_POINT ('', (-99.9999999999999, 1.25000000000002, -4.99999999999996));
#247 = CARTESIAN_POINT ('', (-100., 6.12323399573677E-15, -6.12323399573677E-15));
#248 = CARTESIAN_POINT ('', (-100., 3.75, -9.18485099360514E-16));
#249 = CARTESIAN_POINT ('', (-100., 2.5, -6.12323399573675E-16));
#250 = CARTESIAN_POINT ('', (-99.9999999999999, 1.25, -3.06161699786836E-16));
#251 = CARTESIAN_POINT ('', (-100., 6.12323399573677E-15, -6.12323399573677E-15));
#252 = (
   BOUNDED_SURFACE ()
   B_SPLINE_SURFACE (5, 3, ((#228, #229, #230, #231), (#232, #233, #234, #235), (#236, #237, #238, #239), (#240, #241, #242, #243), (#244, #245, #246, #247), (#248, #249, #250, #251)), .UNSPECIFIED., .T., .F., .U.)
   B_SPLINE_SURFACE_WITH_KNOTS ((6, 6), (4, 4), (0., 1.), (0., 1.), .UNSPECIFIED.)
   SURFACE ()
   GEOMETRIC_REPRESENTATION_ITEM ()
   RATIONAL_B_SPLINE_SURFACE (((5., 5., 5., 5.), (1., 1., 1., 1.), (1., 1., 1., 1.), (1., 1., 1., 1.), (1., 1., 1., 1.), (5., 5., 5., 5.)))
   REPRESENTATION_ITEM ('')
);
#253 = ADVANCED_FACE ('', (#227), #252, .F.);
#254 = CLOSED_SHELL ('', (#49, #118, #166, #214, #253));
#255 = MANIFOLD_SOLID_BREP ('', #254);
#256 = CARTESIAN_POINT ('', (-20., 4., 0.));
#257 = CARTESIAN_POINT ('', (-20., 0., 0.));
#258 = B_SPLINE_CURVE_WITH_KNOTS ('', 1, (#256, #257), .UNSPECIFIED., .F., .U., (2, 2), (0., 1.), .UNSPECIFIED.);
#259 = GEOMETRIC_SET ('', (#258, #262, #265, #269, #272, #275, #279));
#260 = CARTESIAN_POINT ('', (-100., 3.75, 0.));
#261 = CARTESIAN_POINT ('', (-100., -6.21724893790088E-15, 0.));
#262 = B_SPLINE_CURVE_WITH_KNOTS ('', 1, (#260, #261), .UNSPECIFIED., .F., .U., (2, 2), (0., 1.), .UNSPECIFIED.);
#263 = CARTESIAN_POINT ('', (-99.75, 4., 0.));
#264 = CARTESIAN_POINT ('', (-100., 3.75, 0.));
#265 = B_SPLINE_CURVE_WITH_KNOTS ('', 1, (#263, #264), .UNSPECIFIED., .F., .U., (2, 2), (0., 1.), .UNSPECIFIED.);
#266 = CARTESIAN_POINT ('', (0., 3.5, 0.));
#267 = CARTESIAN_POINT ('', (0., 4., 0.));
#268 = CARTESIAN_POINT ('', (-0.5, 4., 0.));
#269 = (
   BOUNDED_CURVE ()
   B_SPLINE_CURVE (2, (#266, #267, #268), .UNSPECIFIED., .F., .U.)
   B_SPLINE_CURVE_WITH_KNOTS ((3, 3), (0., 1.), .UNSPECIFIED.)
   CURVE ()
   GEOMETRIC_REPRESENTATION_ITEM ()
   RATIONAL_B_SPLINE_CURVE ((1., 0.707106781186548, 1.))
   REPRESENTATION_ITEM ('')
);
#270 = CARTESIAN_POINT ('', (-1., 4., 0.));
#271 = CARTESIAN_POINT ('', (-99.75, 4., 0.));
#272 = B_SPLINE_CURVE_WITH_KNOTS ('', 1, (#270, #271), .UNSPECIFIED., .F., .U., (2, 2), (0., 1.), .UNSPECIFIED.);
#273 = CARTESIAN_POINT ('', (0., 0., 0.));
#274 = CARTESIAN_POINT ('', (0., 3., 0.));
#275 = B_SPLINE_CURVE_WITH_KNOTS ('', 1, (#273, #274), .UNSPECIFIED., .F., .U., (2, 2), (0., 1.), .UNSPECIFIED.);
#276 = CARTESIAN_POINT ('', (0., 3., 0.));
#277 = CARTESIAN_POINT ('', (0., 4., 0.));
#278 = CARTESIAN_POINT ('', (-1., 4., 0.));
#279 = (
   BOUNDED_CURVE ()
   B_SPLINE_CURVE (2, (#276, #277, #278), .UNSPECIFIED., .F., .U.)
   B_SPLINE_CURVE_WITH_KNOTS ((3, 3), (0., 1.), .UNSPECIFIED.)
   CURVE ()
   GEOMETRIC_REPRESENTATION_ITEM ()
   RATIONAL_B_SPLINE_CURVE ((1., 0.707106781186548, 1.))
   REPRESENTATION_ITEM ('')
);
#280 = (
   LENGTH_UNIT ()
   NAMED_UNIT (*)
   SI_UNIT (.MILLI., .METRE.)
);
#281 = (
   NAMED_UNIT (*)
   SI_UNIT ($, .STERADIAN.)
   SOLID_ANGLE_UNIT ()
);
#282 = (
   NAMED_UNIT (*)
   SI_UNIT ($, .RADIAN.)
   PLANE_ANGLE_UNIT ()
);
#283 = UNCERTAINTY_MEASURE_WITH_UNIT (LENGTH_MEASURE(0.001), #280, 'DISTANCE_ACCURACY_VALUE', '');
#284 = (
   GEOMETRIC_REPRESENTATION_CONTEXT (3)
   GLOBAL_UNCERTAINTY_ASSIGNED_CONTEXT ((#283))
   GLOBAL_UNIT_ASSIGNED_CONTEXT ((#280, #281, #282))
   REPRESENTATION_CONTEXT ('', '3D')
);
#285 = SHAPE_REPRESENTATION ('', (), #284);
#286 = APPLICATION_CONTEXT ('configuration controlled 3D designs of mechanical parts and assemblies');
#287 = APPLICATION_PROTOCOL_DEFINITION ('International Standard', 'config_control_design', 1997, #286);
#288 = MECHANICAL_CONTEXT ('', #286, 'mechanical');
#289 = PRODUCT ('', '', '', (#288));
#290 = PERSON_AND_ORGANIZATION_ROLE ('design_owner');
#291 = PERSON ('', '', $, $, $, $);
#292 = ORGANIZATION ($, '', '');
#293 = PERSON_AND_ORGANIZATION (#291, #292);
#294 = CC_DESIGN_PERSON_AND_ORGANIZATION_ASSIGNMENT (#293, #290, (#289));
#295 = PRODUCT_RELATED_PRODUCT_CATEGORY ('detail', $, (#289));
#296 = PRODUCT_DEFINITION_FORMATION_WITH_SPECIFIED_SOURCE ('', '', #289, .NOT_KNOWN.);
#297 = APPROVAL_STATUS ('approved');
#298 = APPROVAL (#297, '');
#299 = CALENDAR_DATE (2021, 7, 1);
#300 = COORDINATED_UNIVERSAL_TIME_OFFSET (0, $, .AHEAD.);
#301 = LOCAL_TIME (8, 24, 17., #300);
#302 = DATE_AND_TIME (#299, #301);
#303 = APPROVAL_DATE_TIME (#302, #298);
#304 = APPROVAL_ROLE ('');
#305 = PERSON ('', '', $, $, $, $);
#306 = ORGANIZATION ($, '', '');
#307 = PERSON_AND_ORGANIZATION (#305, #306);
#308 = APPROVAL_PERSON_ORGANIZATION (#307, #298, #304);
#309 = CC_DESIGN_APPROVAL (#298, (#296));
#310 = PERSON_AND_ORGANIZATION_ROLE ('creator');
#311 = PERSON ('', '', $, $, $, $);
#312 = ORGANIZATION ($, '', '');
#313 = PERSON_AND_ORGANIZATION (#311, #312);
#314 = CC_DESIGN_PERSON_AND_ORGANIZATION_ASSIGNMENT (#313, #310, (#296));
#315 = PERSON_AND_ORGANIZATION_ROLE ('part_supplier');
#316 = PERSON ('', '', $, $, $, $);
#317 = ORGANIZATION ($, '', '');
#318 = PERSON_AND_ORGANIZATION (#316, #317);
#319 = CC_DESIGN_PERSON_AND_ORGANIZATION_ASSIGNMENT (#318, #315, (#296));
#320 = SECURITY_CLASSIFICATION_LEVEL ('unclassified');
#321 = SECURITY_CLASSIFICATION ('', '', #320);
#322 = APPROVAL_STATUS ('approved');
#323 = APPROVAL (#322, '');
#324 = CALENDAR_DATE (2021, 7, 1);
#325 = COORDINATED_UNIVERSAL_TIME_OFFSET (0, $, .AHEAD.);
#326 = LOCAL_TIME (8, 24, 17., #325);
#327 = DATE_AND_TIME (#324, #326);
#328 = APPROVAL_DATE_TIME (#327, #323);
#329 = APPROVAL_ROLE ('');
#330 = PERSON ('', '', $, $, $, $);
#331 = ORGANIZATION ($, '', '');
#332 = PERSON_AND_ORGANIZATION (#330, #331);
#333 = APPROVAL_PERSON_ORGANIZATION (#332, #323, #329);
#334 = CC_DESIGN_APPROVAL (#323, (#321));
#335 = DATE_TIME_ROLE ('classification_date');
#336 = CALENDAR_DATE (2021, 7, 1);
#337 = COORDINATED_UNIVERSAL_TIME_OFFSET (0, $, .AHEAD.);
#338 = LOCAL_TIME (8, 24, 17., #337);
#339 = DATE_AND_TIME (#336, #338);
#340 = CC_DESIGN_DATE_AND_TIME_ASSIGNMENT (#339, #335, (#321));
#341 = PERSON_AND_ORGANIZATION_ROLE ('classification_officer');
#342 = PERSON ('', '', $, $, $, $);
#343 = ORGANIZATION ($, '', '');
#344 = PERSON_AND_ORGANIZATION (#342, #343);
#345 = CC_DESIGN_PERSON_AND_ORGANIZATION_ASSIGNMENT (#344, #341, (#321));
#346 = CC_DESIGN_SECURITY_CLASSIFICATION (#321, (#296));
#347 = DESIGN_CONTEXT ('', #286, 'design');
#348 = PRODUCT_DEFINITION ('', '', #296, #347);
#349 = APPROVAL_STATUS ('approved');
#350 = APPROVAL (#349, '');
#351 = CALENDAR_DATE (2021, 7, 1);
#352 = COORDINATED_UNIVERSAL_TIME_OFFSET (0, $, .AHEAD.);
#353 = LOCAL_TIME (8, 24, 17., #352);
#354 = DATE_AND_TIME (#351, #353);
#355 = APPROVAL_DATE_TIME (#354, #350);
#356 = APPROVAL_ROLE ('');
#357 = PERSON ('', '', $, $, $, $);
#358 = ORGANIZATION ($, '', '');
#359 = PERSON_AND_ORGANIZATION (#357, #358);
#360 = APPROVAL_PERSON_ORGANIZATION (#359, #350, #356);
#361 = CC_DESIGN_APPROVAL (#350, (#348));
#362 = DATE_TIME_ROLE ('creation_date');
#363 = CALENDAR_DATE (2021, 7, 1);
#364 = COORDINATED_UNIVERSAL_TIME_OFFSET (0, $, .AHEAD.);
#365 = LOCAL_TIME (8, 24, 17., #364);
#366 = DATE_AND_TIME (#363, #365);
#367 = CC_DESIGN_DATE_AND_TIME_ASSIGNMENT (#366, #362, (#348));
#368 = PERSON_AND_ORGANIZATION_ROLE ('creator');
#369 = PERSON ('', '', $, $, $, $);
#370 = ORGANIZATION ($, '', '');
#371 = PERSON_AND_ORGANIZATION (#369, #370);
#372 = CC_DESIGN_PERSON_AND_ORGANIZATION_ASSIGNMENT (#371, #368, (#348));
#373 = PRODUCT_DEFINITION_SHAPE ('', '', #348);
#374 = SHAPE_DEFINITION_REPRESENTATION (#373, #285);
#375 = SHAPE_REPRESENTATION_RELATIONSHIP ('', '', #285, #376);
#376 = SHAPE_REPRESENTATION ('', (#259), #284);
#377 = SHAPE_REPRESENTATION_RELATIONSHIP ('', '', #285, #378);
#378 = ADVANCED_BREP_SHAPE_REPRESENTATION ('', (#255), #284);
ENDSEC;
END-ISO-10303-21;
