ISO-10303-21;
HEADER;
FILE_DESCRIPTION ((), '1');
FILE_NAME ('C:\\Users\\kevin\\157 Range\\157 1000-0.50RA.STP', '2021-01-07T08:30:01', ('Unknown'), ('mafordeurope'), 'OneCNC-XR7 Mill 3D Expert', 'OneCNC-XR7 Mill 3D Expert', '');
FILE_SCHEMA (('CONFIG_CONTROL_DESIGN'));
ENDSEC;

DATA;
#1 = CARTESIAN_POINT ('', (0., 0., 0.));
#2 = VERTEX_POINT ('', #1);
#3 = CARTESIAN_POINT ('', (4.93038065763132E-32, 4.5, -1.10218211923262E-15));
#4 = VERTEX_POINT ('', #3);
#5 = CARTESIAN_POINT ('', (0., 0., 0.));
#6 = CARTESIAN_POINT ('', (2.46519032881566E-32, 1.5, -3.67394039744206E-16));
#7 = CARTESIAN_POINT ('', (4.93038065763132E-32, 3., -7.34788079488412E-16));
#8 = CARTESIAN_POINT ('', (4.93038065763132E-32, 4.5, -1.10218211923262E-15));
#9 = B_SPLINE_CURVE_WITH_KNOTS ('', 3, (#5, #6, #7, #8), .UNSPECIFIED., .F., .U., (4, 4), (0., 1.), .UNSPECIFIED.);
#10 = EDGE_CURVE ('', #2, #4, #9, .T.);
#11 = ORIENTED_EDGE ('', *, *, #10, .F.);
#12 = ORIENTED_EDGE ('', *, *, #10, .T.);
#13 = CARTESIAN_POINT ('', (4.93038065763132E-32, 4.5, -1.10218211923262E-15));
#14 = CARTESIAN_POINT ('', (-1.10218211923262E-15, 4.5, 18.));
#15 = CARTESIAN_POINT ('', (-1.65327317884893E-15, -13.5, 9.));
#16 = CARTESIAN_POINT ('', (-5.51091059616309E-16, -13.5, -9.));
#17 = CARTESIAN_POINT ('', (1.10218211923262E-15, 4.5, -18.));
#18 = CARTESIAN_POINT ('', (4.93038065763132E-32, 4.5, -1.10218211923262E-15));
#19 = (
   BOUNDED_CURVE ()
   B_SPLINE_CURVE (5, (#13, #14, #15, #16, #17, #18), .UNSPECIFIED., .T., .U.)
   B_SPLINE_CURVE_WITH_KNOTS ((6, 6), (0., 1.), .UNSPECIFIED.)
   CURVE ()
   GEOMETRIC_REPRESENTATION_ITEM ()
   RATIONAL_B_SPLINE_CURVE ((5., 1., 1., 1., 1., 5.))
   REPRESENTATION_ITEM ('')
);
#20 = EDGE_CURVE ('', #4, #4, #19, .T.);
#21 = ORIENTED_EDGE ('', *, *, #20, .F.);
#22 = EDGE_LOOP ('', (#11, #12, #21));
#23 = FACE_OUTER_BOUND ('', #22, .F.);
#24 = CARTESIAN_POINT ('', (0., 0., 0.));
#25 = CARTESIAN_POINT ('', (2.46519032881566E-32, 1.5, -3.67394039744206E-16));
#26 = CARTESIAN_POINT ('', (4.93038065763132E-32, 3., -7.34788079488412E-16));
#27 = CARTESIAN_POINT ('', (4.93038065763132E-32, 4.5, -1.10218211923262E-15));
#28 = CARTESIAN_POINT ('', (0., 0., 0.));
#29 = CARTESIAN_POINT ('', (-3.67394039744206E-16, 1.5, 6.));
#30 = CARTESIAN_POINT ('', (-7.34788079488411E-16, 3., 12.));
#31 = CARTESIAN_POINT ('', (-1.10218211923262E-15, 4.5, 18.));
#32 = CARTESIAN_POINT ('', (0., 0., 0.));
#33 = CARTESIAN_POINT ('', (-5.51091059616309E-16, -4.5, 3.));
#34 = CARTESIAN_POINT ('', (-1.10218211923262E-15, -8.99999999999999, 6.));
#35 = CARTESIAN_POINT ('', (-1.65327317884893E-15, -13.5, 9.));
#36 = CARTESIAN_POINT ('', (0., 0., 0.));
#37 = CARTESIAN_POINT ('', (-1.83697019872103E-16, -4.5, -3.));
#38 = CARTESIAN_POINT ('', (-3.67394039744206E-16, -9., -6.));
#39 = CARTESIAN_POINT ('', (-5.51091059616309E-16, -13.5, -9.));
#40 = CARTESIAN_POINT ('', (0., 0., 0.));
#41 = CARTESIAN_POINT ('', (3.67394039744206E-16, 1.5, -6.));
#42 = CARTESIAN_POINT ('', (7.34788079488411E-16, 3., -12.));
#43 = CARTESIAN_POINT ('', (1.10218211923262E-15, 4.5, -18.));
#44 = CARTESIAN_POINT ('', (0., 0., 0.));
#45 = CARTESIAN_POINT ('', (2.46519032881566E-32, 1.5, -3.67394039744206E-16));
#46 = CARTESIAN_POINT ('', (4.93038065763132E-32, 3., -7.34788079488412E-16));
#47 = CARTESIAN_POINT ('', (4.93038065763132E-32, 4.5, -1.10218211923262E-15));
#48 = (
   BOUNDED_SURFACE ()
   B_SPLINE_SURFACE (5, 3, ((#24, #25, #26, #27), (#28, #29, #30, #31), (#32, #33, #34, #35), (#36, #37, #38, #39), (#40, #41, #42, #43), (#44, #45, #46, #47)), .UNSPECIFIED., .T., .F., .U.)
   B_SPLINE_SURFACE_WITH_KNOTS ((6, 6), (4, 4), (0., 1.), (0., 1.), .UNSPECIFIED.)
   SURFACE ()
   GEOMETRIC_REPRESENTATION_ITEM ()
   RATIONAL_B_SPLINE_SURFACE (((5., 5., 5., 5.), (1., 1., 1., 1.), (1., 1., 1., 1.), (1., 1., 1., 1.), (1., 1., 1., 1.), (5., 5., 5., 5.)))
   REPRESENTATION_ITEM ('')
);
#49 = ADVANCED_FACE ('', (#23), #48, .F.);
#50 = CARTESIAN_POINT ('', (-0.5, 5., -1.22464679914735E-15));
#51 = VERTEX_POINT ('', #50);
#52 = CARTESIAN_POINT ('', (4.93038065763132E-32, 4.5, -1.10218211923262E-15));
#53 = CARTESIAN_POINT ('', (4.93038065763132E-32, 4.58801006997535, -1.12373836933023E-15));
#54 = CARTESIAN_POINT ('', (-0.0379028087976891, 4.7273010169336, -1.15785481179875E-15));
#55 = CARTESIAN_POINT ('', (-0.205021401527423, 4.93286667337571, -1.20820387643404E-15));
#56 = CARTESIAN_POINT ('', (-0.377723889808762, 5.00000000000001, -1.22464679914736E-15));
#57 = CARTESIAN_POINT ('', (-0.5, 5., -1.22464679914735E-15));
#58 = B_SPLINE_CURVE_WITH_KNOTS ('', 3, (#52, #53, #54, #55, #56, #57), .UNSPECIFIED., .F., .U., (4, 1, 1, 4), (0., 0.33617370428258, 0.532939663384363, 1.), .UNSPECIFIED.);
#59 = EDGE_CURVE ('', #4, #51, #58, .T.);
#60 = ORIENTED_EDGE ('', *, *, #59, .F.);
#61 = ORIENTED_EDGE ('', *, *, #20, .T.);
#62 = ORIENTED_EDGE ('', *, *, #59, .T.);
#63 = CARTESIAN_POINT ('', (-0.5, 5., -1.22464679914735E-15));
#64 = CARTESIAN_POINT ('', (-0.500000000000001, 5., 20.));
#65 = CARTESIAN_POINT ('', (-0.500000000000002, -15., 10.));
#66 = CARTESIAN_POINT ('', (-0.500000000000001, -15., -10.));
#67 = CARTESIAN_POINT ('', (-0.499999999999999, 5., -20.));
#68 = CARTESIAN_POINT ('', (-0.5, 5., -1.22464679914735E-15));
#69 = (
   BOUNDED_CURVE ()
   B_SPLINE_CURVE (5, (#63, #64, #65, #66, #67, #68), .UNSPECIFIED., .T., .U.)
   B_SPLINE_CURVE_WITH_KNOTS ((6, 6), (0., 1.), .UNSPECIFIED.)
   CURVE ()
   GEOMETRIC_REPRESENTATION_ITEM ()
   RATIONAL_B_SPLINE_CURVE ((5., 1., 1., 1., 1., 5.))
   REPRESENTATION_ITEM ('')
);
#70 = EDGE_CURVE ('', #51, #51, #69, .T.);
#71 = ORIENTED_EDGE ('', *, *, #70, .F.);
#72 = EDGE_LOOP ('', (#60, #61, #62, #71));
#73 = FACE_OUTER_BOUND ('', #72, .F.);
#74 = CARTESIAN_POINT ('', (4.93038065763132E-32, 4.5, -1.10218211923262E-15));
#75 = CARTESIAN_POINT ('', (4.93038065763132E-32, 4.58801006997535, -1.12373836933023E-15));
#76 = CARTESIAN_POINT ('', (-0.0379028087976891, 4.7273010169336, -1.15785481179875E-15));
#77 = CARTESIAN_POINT ('', (-0.205021401527423, 4.93286667337571, -1.20820387643404E-15));
#78 = CARTESIAN_POINT ('', (-0.377723889808762, 5.00000000000001, -1.22464679914736E-15));
#79 = CARTESIAN_POINT ('', (-0.5, 5., -1.22464679914735E-15));
#80 = CARTESIAN_POINT ('', (-1.10218211923262E-15, 4.5, 18.));
#81 = CARTESIAN_POINT ('', (-1.12373836933023E-15, 4.58801006997536, 18.3520402799014));
#82 = CARTESIAN_POINT ('', (-0.0379028087976903, 4.72730101693361, 18.9092040677344));
#83 = CARTESIAN_POINT ('', (-0.205021401527424, 4.93286667337572, 19.7314666935029));
#84 = CARTESIAN_POINT ('', (-0.377723889808764, 5.00000000000001, 20.));
#85 = CARTESIAN_POINT ('', (-0.500000000000001, 5., 20.));
#86 = CARTESIAN_POINT ('', (-1.65327317884893E-15, -13.5, 9.));
#87 = CARTESIAN_POINT ('', (-1.68560755399534E-15, -13.7640302099261, 9.1760201399507));
#88 = CARTESIAN_POINT ('', (-0.0379028087976909, -14.1819030508008, 9.45460203386721));
#89 = CARTESIAN_POINT ('', (-0.205021401527425, -14.7986000201271, 9.86573334675143));
#90 = CARTESIAN_POINT ('', (-0.377723889808764, -15., 10.));
#91 = CARTESIAN_POINT ('', (-0.500000000000002, -15., 10.));
#92 = CARTESIAN_POINT ('', (-5.51091059616309E-16, -13.5, -9.));
#93 = CARTESIAN_POINT ('', (-5.61869184665114E-16, -13.7640302099261, -9.1760201399507));
#94 = CARTESIAN_POINT ('', (-0.0379028087976897, -14.1819030508008, -9.4546020338672));
#95 = CARTESIAN_POINT ('', (-0.205021401527424, -14.7986000201271, -9.86573334675142));
#96 = CARTESIAN_POINT ('', (-0.377723889808763, -15., -10.));
#97 = CARTESIAN_POINT ('', (-0.500000000000001, -15., -10.));
#98 = CARTESIAN_POINT ('', (1.10218211923262E-15, 4.5, -18.));
#99 = CARTESIAN_POINT ('', (1.12373836933023E-15, 4.58801006997535, -18.3520402799014));
#100 = CARTESIAN_POINT ('', (-0.037902808797688, 4.7273010169336, -18.9092040677344));
#101 = CARTESIAN_POINT ('', (-0.205021401527422, 4.93286667337571, -19.7314666935029));
#102 = CARTESIAN_POINT ('', (-0.377723889808761, 5.00000000000001, -20.));
#103 = CARTESIAN_POINT ('', (-0.499999999999999, 5., -20.));
#104 = CARTESIAN_POINT ('', (4.93038065763132E-32, 4.5, -1.10218211923262E-15));
#105 = CARTESIAN_POINT ('', (4.93038065763132E-32, 4.58801006997535, -1.12373836933023E-15));
#106 = CARTESIAN_POINT ('', (-0.0379028087976891, 4.7273010169336, -1.15785481179875E-15));
#107 = CARTESIAN_POINT ('', (-0.205021401527423, 4.93286667337571, -1.20820387643404E-15));
#108 = CARTESIAN_POINT ('', (-0.377723889808762, 5.00000000000001, -1.22464679914736E-15));
#109 = CARTESIAN_POINT ('', (-0.5, 5., -1.22464679914735E-15));
#110 = (
   BOUNDED_SURFACE ()
   B_SPLINE_SURFACE (5, 3, ((#74, #75, #76, #77, #78, #79), (#80, #81, #82, #83, #84, #85), (#86, #87, #88, #89, #90, #91), (#92, #93, #94, #95, #96, #97), (#98, #99, #100, #101, #102, #103), (#104, #105, #106, #107, #108, #109)), .UNSPECIFIED., .T., .F., .U.)
   B_SPLINE_SURFACE_WITH_KNOTS ((6, 6), (4, 1, 1, 4), (0., 1.), (0., 0.33617370428258, 0.532939663384363, 1.), .UNSPECIFIED.)
   SURFACE ()
   GEOMETRIC_REPRESENTATION_ITEM ()
   RATIONAL_B_SPLINE_SURFACE (((5., 5., 5., 5., 5., 5.), (1., 1., 1., 1., 1., 1.), (1., 1., 1., 1., 1., 1.), (1., 1., 1., 1., 1., 1.), (1., 1., 1., 1., 1., 1.), (5., 5., 5., 5., 5., 5.)))
   REPRESENTATION_ITEM ('')
);
#111 = ADVANCED_FACE ('', (#73), #110, .F.);
#112 = CARTESIAN_POINT ('', (-99.75, 5., -1.22464679914735E-15));
#113 = VERTEX_POINT ('', #112);
#114 = CARTESIAN_POINT ('', (-0.5, 5., -1.22464679914735E-15));
#115 = CARTESIAN_POINT ('', (-33.5833333333333, 5., -1.22464679914735E-15));
#116 = CARTESIAN_POINT ('', (-66.6666666666665, 5., -1.22464679914735E-15));
#117 = CARTESIAN_POINT ('', (-99.75, 5., -1.22464679914735E-15));
#118 = B_SPLINE_CURVE_WITH_KNOTS ('', 3, (#114, #115, #116, #117), .UNSPECIFIED., .F., .U., (4, 4), (0., 1.), .UNSPECIFIED.);
#119 = EDGE_CURVE ('', #51, #113, #118, .T.);
#120 = ORIENTED_EDGE ('', *, *, #119, .F.);
#121 = ORIENTED_EDGE ('', *, *, #70, .T.);
#122 = ORIENTED_EDGE ('', *, *, #119, .T.);
#123 = CARTESIAN_POINT ('', (-99.75, 5., -1.22464679914735E-15));
#124 = CARTESIAN_POINT ('', (-99.75, 4.99999999999998, 20.));
#125 = CARTESIAN_POINT ('', (-99.75, -15., 9.99999999999997));
#126 = CARTESIAN_POINT ('', (-99.75, -15., -10.));
#127 = CARTESIAN_POINT ('', (-99.75, 5.00000000000002, -20.));
#128 = CARTESIAN_POINT ('', (-99.75, 5., -1.22464679914735E-15));
#129 = (
   BOUNDED_CURVE ()
   B_SPLINE_CURVE (5, (#123, #124, #125, #126, #127, #128), .UNSPECIFIED., .T., .U.)
   B_SPLINE_CURVE_WITH_KNOTS ((6, 6), (0., 1.), .UNSPECIFIED.)
   CURVE ()
   GEOMETRIC_REPRESENTATION_ITEM ()
   RATIONAL_B_SPLINE_CURVE ((5., 1., 1., 1., 1., 5.))
   REPRESENTATION_ITEM ('')
);
#130 = EDGE_CURVE ('', #113, #113, #129, .T.);
#131 = ORIENTED_EDGE ('', *, *, #130, .F.);
#132 = EDGE_LOOP ('', (#120, #121, #122, #131));
#133 = FACE_OUTER_BOUND ('', #132, .F.);
#134 = CARTESIAN_POINT ('', (-0.5, 5., -1.22464679914735E-15));
#135 = CARTESIAN_POINT ('', (-33.5833333333333, 5., -1.22464679914735E-15));
#136 = CARTESIAN_POINT ('', (-66.6666666666665, 5., -1.22464679914735E-15));
#137 = CARTESIAN_POINT ('', (-99.75, 5., -1.22464679914735E-15));
#138 = CARTESIAN_POINT ('', (-0.500000000000001, 5., 20.));
#139 = CARTESIAN_POINT ('', (-33.5833333333333, 5., 20.));
#140 = CARTESIAN_POINT ('', (-66.6666666666665, 4.99999999999999, 20.));
#141 = CARTESIAN_POINT ('', (-99.75, 4.99999999999998, 20.));
#142 = CARTESIAN_POINT ('', (-0.500000000000002, -15., 10.));
#143 = CARTESIAN_POINT ('', (-33.5833333333333, -15., 9.99999999999999));
#144 = CARTESIAN_POINT ('', (-66.6666666666665, -15., 9.99999999999998));
#145 = CARTESIAN_POINT ('', (-99.75, -15., 9.99999999999997));
#146 = CARTESIAN_POINT ('', (-0.500000000000001, -15., -10.));
#147 = CARTESIAN_POINT ('', (-33.5833333333333, -15., -10.));
#148 = CARTESIAN_POINT ('', (-66.6666666666665, -15., -10.));
#149 = CARTESIAN_POINT ('', (-99.75, -15., -10.));
#150 = CARTESIAN_POINT ('', (-0.499999999999999, 5., -20.));
#151 = CARTESIAN_POINT ('', (-33.5833333333333, 5., -20.));
#152 = CARTESIAN_POINT ('', (-66.6666666666665, 5.00000000000001, -20.));
#153 = CARTESIAN_POINT ('', (-99.75, 5.00000000000002, -20.));
#154 = CARTESIAN_POINT ('', (-0.5, 5., -1.22464679914735E-15));
#155 = CARTESIAN_POINT ('', (-33.5833333333333, 5., -1.22464679914735E-15));
#156 = CARTESIAN_POINT ('', (-66.6666666666665, 5., -1.22464679914735E-15));
#157 = CARTESIAN_POINT ('', (-99.75, 5., -1.22464679914735E-15));
#158 = (
   BOUNDED_SURFACE ()
   B_SPLINE_SURFACE (5, 3, ((#134, #135, #136, #137), (#138, #139, #140, #141), (#142, #143, #144, #145), (#146, #147, #148, #149), (#150, #151, #152, #153), (#154, #155, #156, #157)), .UNSPECIFIED., .T., .F., .U.)
   B_SPLINE_SURFACE_WITH_KNOTS ((6, 6), (4, 4), (0., 1.), (0., 1.), .UNSPECIFIED.)
   SURFACE ()
   GEOMETRIC_REPRESENTATION_ITEM ()
   RATIONAL_B_SPLINE_SURFACE (((5., 5., 5., 5.), (1., 1., 1., 1.), (1., 1., 1., 1.), (1., 1., 1., 1.), (1., 1., 1., 1.), (5., 5., 5., 5.)))
   REPRESENTATION_ITEM ('')
);
#159 = ADVANCED_FACE ('', (#133), #158, .F.);
#160 = CARTESIAN_POINT ('', (-100., 4.75, -1.16341445918998E-15));
#161 = VERTEX_POINT ('', #160);
#162 = CARTESIAN_POINT ('', (-99.75, 5., -1.22464679914735E-15));
#163 = CARTESIAN_POINT ('', (-99.8333333333335, 4.91666666666666, -1.20423601916156E-15));
#164 = CARTESIAN_POINT ('', (-99.9166666666668, 4.83333333333333, -1.18382523917577E-15));
#165 = CARTESIAN_POINT ('', (-100., 4.75, -1.16341445918998E-15));
#166 = B_SPLINE_CURVE_WITH_KNOTS ('', 3, (#162, #163, #164, #165), .UNSPECIFIED., .F., .U., (4, 4), (0., 1.), .UNSPECIFIED.);
#167 = EDGE_CURVE ('', #113, #161, #166, .T.);
#168 = ORIENTED_EDGE ('', *, *, #167, .F.);
#169 = ORIENTED_EDGE ('', *, *, #130, .T.);
#170 = ORIENTED_EDGE ('', *, *, #167, .T.);
#171 = CARTESIAN_POINT ('', (-100., 4.75, -1.16341445918998E-15));
#172 = CARTESIAN_POINT ('', (-100., 4.74999999999998, 19.));
#173 = CARTESIAN_POINT ('', (-100., -14.25, 9.49999999999997));
#174 = CARTESIAN_POINT ('', (-100., -14.25, -9.50000000000001));
#175 = CARTESIAN_POINT ('', (-100., 4.75000000000002, -19.));
#176 = CARTESIAN_POINT ('', (-100., 4.75, -1.16341445918998E-15));
#177 = (
   BOUNDED_CURVE ()
   B_SPLINE_CURVE (5, (#171, #172, #173, #174, #175, #176), .UNSPECIFIED., .T., .U.)
   B_SPLINE_CURVE_WITH_KNOTS ((6, 6), (0., 1.), .UNSPECIFIED.)
   CURVE ()
   GEOMETRIC_REPRESENTATION_ITEM ()
   RATIONAL_B_SPLINE_CURVE ((5., 1., 1., 1., 1., 5.))
   REPRESENTATION_ITEM ('')
);
#178 = EDGE_CURVE ('', #161, #161, #177, .T.);
#179 = ORIENTED_EDGE ('', *, *, #178, .F.);
#180 = EDGE_LOOP ('', (#168, #169, #170, #179));
#181 = FACE_OUTER_BOUND ('', #180, .F.);
#182 = CARTESIAN_POINT ('', (-99.75, 5., -1.22464679914735E-15));
#183 = CARTESIAN_POINT ('', (-99.8333333333335, 4.91666666666666, -1.20423601916156E-15));
#184 = CARTESIAN_POINT ('', (-99.9166666666668, 4.83333333333333, -1.18382523917577E-15));
#185 = CARTESIAN_POINT ('', (-100., 4.75, -1.16341445918998E-15));
#186 = CARTESIAN_POINT ('', (-99.75, 4.99999999999998, 20.));
#187 = CARTESIAN_POINT ('', (-99.8333333333335, 4.91666666666664, 19.6666666666666));
#188 = CARTESIAN_POINT ('', (-99.9166666666668, 4.83333333333331, 19.3333333333333));
#189 = CARTESIAN_POINT ('', (-100., 4.74999999999998, 19.));
#190 = CARTESIAN_POINT ('', (-99.75, -15., 9.99999999999997));
#191 = CARTESIAN_POINT ('', (-99.8333333333335, -14.75, 9.83333333333328));
#192 = CARTESIAN_POINT ('', (-99.9166666666668, -14.5, 9.66666666666663));
#193 = CARTESIAN_POINT ('', (-100., -14.25, 9.49999999999997));
#194 = CARTESIAN_POINT ('', (-99.75, -15., -10.));
#195 = CARTESIAN_POINT ('', (-99.8333333333335, -14.7499999999999, -9.83333333333332));
#196 = CARTESIAN_POINT ('', (-99.9166666666668, -14.5, -9.66666666666666));
#197 = CARTESIAN_POINT ('', (-100., -14.25, -9.50000000000001));
#198 = CARTESIAN_POINT ('', (-99.75, 5.00000000000002, -20.));
#199 = CARTESIAN_POINT ('', (-99.8333333333335, 4.91666666666668, -19.6666666666666));
#200 = CARTESIAN_POINT ('', (-99.9166666666668, 4.83333333333335, -19.3333333333333));
#201 = CARTESIAN_POINT ('', (-100., 4.75000000000002, -19.));
#202 = CARTESIAN_POINT ('', (-99.75, 5., -1.22464679914735E-15));
#203 = CARTESIAN_POINT ('', (-99.8333333333335, 4.91666666666666, -1.20423601916156E-15));
#204 = CARTESIAN_POINT ('', (-99.9166666666668, 4.83333333333333, -1.18382523917577E-15));
#205 = CARTESIAN_POINT ('', (-100., 4.75, -1.16341445918998E-15));
#206 = (
   BOUNDED_SURFACE ()
   B_SPLINE_SURFACE (5, 3, ((#182, #183, #184, #185), (#186, #187, #188, #189), (#190, #191, #192, #193), (#194, #195, #196, #197), (#198, #199, #200, #201), (#202, #203, #204, #205)), .UNSPECIFIED., .T., .F., .U.)
   B_SPLINE_SURFACE_WITH_KNOTS ((6, 6), (4, 4), (0., 1.), (0., 1.), .UNSPECIFIED.)
   SURFACE ()
   GEOMETRIC_REPRESENTATION_ITEM ()
   RATIONAL_B_SPLINE_SURFACE (((5., 5., 5., 5.), (1., 1., 1., 1.), (1., 1., 1., 1.), (1., 1., 1., 1.), (1., 1., 1., 1.), (5., 5., 5., 5.)))
   REPRESENTATION_ITEM ('')
);
#207 = ADVANCED_FACE ('', (#181), #206, .F.);
#208 = CARTESIAN_POINT ('', (-100., 6.12323399573677E-15, -6.12323399573677E-15));
#209 = VERTEX_POINT ('', #208);
#210 = CARTESIAN_POINT ('', (-100., 4.75, -1.16341445918998E-15));
#211 = CARTESIAN_POINT ('', (-100., 3.16666666666666, -7.75609639459986E-16));
#212 = CARTESIAN_POINT ('', (-100., 1.58333333333333, -3.87804819729993E-16));
#213 = CARTESIAN_POINT ('', (-100., 6.12323399573677E-15, -6.12323399573677E-15));
#214 = B_SPLINE_CURVE_WITH_KNOTS ('', 3, (#210, #211, #212, #213), .UNSPECIFIED., .F., .U., (4, 4), (0., 1.), .UNSPECIFIED.);
#215 = EDGE_CURVE ('', #161, #209, #214, .T.);
#216 = ORIENTED_EDGE ('', *, *, #215, .F.);
#217 = ORIENTED_EDGE ('', *, *, #178, .T.);
#218 = ORIENTED_EDGE ('', *, *, #215, .T.);
#219 = EDGE_LOOP ('', (#216, #217, #218));
#220 = FACE_OUTER_BOUND ('', #219, .F.);
#221 = CARTESIAN_POINT ('', (-100., 4.75, -1.16341445918998E-15));
#222 = CARTESIAN_POINT ('', (-100., 3.16666666666666, -7.75609639459986E-16));
#223 = CARTESIAN_POINT ('', (-100., 1.58333333333333, -3.87804819729993E-16));
#224 = CARTESIAN_POINT ('', (-100., 6.12323399573677E-15, -6.12323399573677E-15));
#225 = CARTESIAN_POINT ('', (-100., 4.74999999999998, 19.));
#226 = CARTESIAN_POINT ('', (-100., 3.16666666666664, 12.6666666666666));
#227 = CARTESIAN_POINT ('', (-100., 1.58333333333331, 6.33333333333329));
#228 = CARTESIAN_POINT ('', (-100., 6.12323399573677E-15, -6.12323399573677E-15));
#229 = CARTESIAN_POINT ('', (-100., -14.25, 9.49999999999997));
#230 = CARTESIAN_POINT ('', (-100., -9.49999999999996, 6.33333333333328));
#231 = CARTESIAN_POINT ('', (-100., -4.74999999999997, 3.16666666666662));
#232 = CARTESIAN_POINT ('', (-100., 6.12323399573677E-15, -6.12323399573677E-15));
#233 = CARTESIAN_POINT ('', (-100., -14.25, -9.50000000000001));
#234 = CARTESIAN_POINT ('', (-100., -9.49999999999994, -6.33333333333333));
#235 = CARTESIAN_POINT ('', (-100., -4.74999999999995, -3.16666666666667));
#236 = CARTESIAN_POINT ('', (-100., 6.12323399573677E-15, -6.12323399573677E-15));
#237 = CARTESIAN_POINT ('', (-100., 4.75000000000002, -19.));
#238 = CARTESIAN_POINT ('', (-100., 3.16666666666668, -12.6666666666666));
#239 = CARTESIAN_POINT ('', (-100., 1.58333333333335, -6.33333333333329));
#240 = CARTESIAN_POINT ('', (-100., 6.12323399573677E-15, -6.12323399573677E-15));
#241 = CARTESIAN_POINT ('', (-100., 4.75, -1.16341445918998E-15));
#242 = CARTESIAN_POINT ('', (-100., 3.16666666666666, -7.75609639459986E-16));
#243 = CARTESIAN_POINT ('', (-100., 1.58333333333333, -3.87804819729993E-16));
#244 = CARTESIAN_POINT ('', (-100., 6.12323399573677E-15, -6.12323399573677E-15));
#245 = (
   BOUNDED_SURFACE ()
   B_SPLINE_SURFACE (5, 3, ((#221, #222, #223, #224), (#225, #226, #227, #228), (#229, #230, #231, #232), (#233, #234, #235, #236), (#237, #238, #239, #240), (#241, #242, #243, #244)), .UNSPECIFIED., .T., .F., .U.)
   B_SPLINE_SURFACE_WITH_KNOTS ((6, 6), (4, 4), (0., 1.), (0., 1.), .UNSPECIFIED.)
   SURFACE ()
   GEOMETRIC_REPRESENTATION_ITEM ()
   RATIONAL_B_SPLINE_SURFACE (((5., 5., 5., 5.), (1., 1., 1., 1.), (1., 1., 1., 1.), (1., 1., 1., 1.), (1., 1., 1., 1.), (5., 5., 5., 5.)))
   REPRESENTATION_ITEM ('')
);
#246 = ADVANCED_FACE ('', (#220), #245, .F.);
#247 = CLOSED_SHELL ('', (#49, #111, #159, #207, #246));
#248 = MANIFOLD_SOLID_BREP ('', #247);
#249 = (
   LENGTH_UNIT ()
   NAMED_UNIT (*)
   SI_UNIT (.MILLI., .METRE.)
);
#250 = (
   NAMED_UNIT (*)
   SI_UNIT ($, .STERADIAN.)
   SOLID_ANGLE_UNIT ()
);
#251 = (
   NAMED_UNIT (*)
   SI_UNIT ($, .RADIAN.)
   PLANE_ANGLE_UNIT ()
);
#252 = UNCERTAINTY_MEASURE_WITH_UNIT (LENGTH_MEASURE(0.001), #249, 'DISTANCE_ACCURACY_VALUE', '');
#253 = (
   GEOMETRIC_REPRESENTATION_CONTEXT (3)
   GLOBAL_UNCERTAINTY_ASSIGNED_CONTEXT ((#252))
   GLOBAL_UNIT_ASSIGNED_CONTEXT ((#249, #250, #251))
   REPRESENTATION_CONTEXT ('', '3D')
);
#254 = SHAPE_REPRESENTATION ('', (), #253);
#255 = APPLICATION_CONTEXT ('configuration controlled 3D designs of mechanical parts and assemblies');
#256 = APPLICATION_PROTOCOL_DEFINITION ('International Standard', 'config_control_design', 1997, #255);
#257 = MECHANICAL_CONTEXT ('', #255, 'mechanical');
#258 = PRODUCT ('', '', '', (#257));
#259 = PERSON_AND_ORGANIZATION_ROLE ('design_owner');
#260 = PERSON ('', '', $, $, $, $);
#261 = ORGANIZATION ($, '', '');
#262 = PERSON_AND_ORGANIZATION (#260, #261);
#263 = CC_DESIGN_PERSON_AND_ORGANIZATION_ASSIGNMENT (#262, #259, (#258));
#264 = PRODUCT_RELATED_PRODUCT_CATEGORY ('detail', $, (#258));
#265 = PRODUCT_DEFINITION_FORMATION_WITH_SPECIFIED_SOURCE ('', '', #258, .NOT_KNOWN.);
#266 = APPROVAL_STATUS ('approved');
#267 = APPROVAL (#266, '');
#268 = CALENDAR_DATE (2021, 7, 1);
#269 = COORDINATED_UNIVERSAL_TIME_OFFSET (0, $, .AHEAD.);
#270 = LOCAL_TIME (8, 30, 1., #269);
#271 = DATE_AND_TIME (#268, #270);
#272 = APPROVAL_DATE_TIME (#271, #267);
#273 = APPROVAL_ROLE ('');
#274 = PERSON ('', '', $, $, $, $);
#275 = ORGANIZATION ($, '', '');
#276 = PERSON_AND_ORGANIZATION (#274, #275);
#277 = APPROVAL_PERSON_ORGANIZATION (#276, #267, #273);
#278 = CC_DESIGN_APPROVAL (#267, (#265));
#279 = PERSON_AND_ORGANIZATION_ROLE ('creator');
#280 = PERSON ('', '', $, $, $, $);
#281 = ORGANIZATION ($, '', '');
#282 = PERSON_AND_ORGANIZATION (#280, #281);
#283 = CC_DESIGN_PERSON_AND_ORGANIZATION_ASSIGNMENT (#282, #279, (#265));
#284 = PERSON_AND_ORGANIZATION_ROLE ('part_supplier');
#285 = PERSON ('', '', $, $, $, $);
#286 = ORGANIZATION ($, '', '');
#287 = PERSON_AND_ORGANIZATION (#285, #286);
#288 = CC_DESIGN_PERSON_AND_ORGANIZATION_ASSIGNMENT (#287, #284, (#265));
#289 = SECURITY_CLASSIFICATION_LEVEL ('unclassified');
#290 = SECURITY_CLASSIFICATION ('', '', #289);
#291 = APPROVAL_STATUS ('approved');
#292 = APPROVAL (#291, '');
#293 = CALENDAR_DATE (2021, 7, 1);
#294 = COORDINATED_UNIVERSAL_TIME_OFFSET (0, $, .AHEAD.);
#295 = LOCAL_TIME (8, 30, 1., #294);
#296 = DATE_AND_TIME (#293, #295);
#297 = APPROVAL_DATE_TIME (#296, #292);
#298 = APPROVAL_ROLE ('');
#299 = PERSON ('', '', $, $, $, $);
#300 = ORGANIZATION ($, '', '');
#301 = PERSON_AND_ORGANIZATION (#299, #300);
#302 = APPROVAL_PERSON_ORGANIZATION (#301, #292, #298);
#303 = CC_DESIGN_APPROVAL (#292, (#290));
#304 = DATE_TIME_ROLE ('classification_date');
#305 = CALENDAR_DATE (2021, 7, 1);
#306 = COORDINATED_UNIVERSAL_TIME_OFFSET (0, $, .AHEAD.);
#307 = LOCAL_TIME (8, 30, 1., #306);
#308 = DATE_AND_TIME (#305, #307);
#309 = CC_DESIGN_DATE_AND_TIME_ASSIGNMENT (#308, #304, (#290));
#310 = PERSON_AND_ORGANIZATION_ROLE ('classification_officer');
#311 = PERSON ('', '', $, $, $, $);
#312 = ORGANIZATION ($, '', '');
#313 = PERSON_AND_ORGANIZATION (#311, #312);
#314 = CC_DESIGN_PERSON_AND_ORGANIZATION_ASSIGNMENT (#313, #310, (#290));
#315 = CC_DESIGN_SECURITY_CLASSIFICATION (#290, (#265));
#316 = DESIGN_CONTEXT ('', #255, 'design');
#317 = PRODUCT_DEFINITION ('', '', #265, #316);
#318 = APPROVAL_STATUS ('approved');
#319 = APPROVAL (#318, '');
#320 = CALENDAR_DATE (2021, 7, 1);
#321 = COORDINATED_UNIVERSAL_TIME_OFFSET (0, $, .AHEAD.);
#322 = LOCAL_TIME (8, 30, 1., #321);
#323 = DATE_AND_TIME (#320, #322);
#324 = APPROVAL_DATE_TIME (#323, #319);
#325 = APPROVAL_ROLE ('');
#326 = PERSON ('', '', $, $, $, $);
#327 = ORGANIZATION ($, '', '');
#328 = PERSON_AND_ORGANIZATION (#326, #327);
#329 = APPROVAL_PERSON_ORGANIZATION (#328, #319, #325);
#330 = CC_DESIGN_APPROVAL (#319, (#317));
#331 = DATE_TIME_ROLE ('creation_date');
#332 = CALENDAR_DATE (2021, 7, 1);
#333 = COORDINATED_UNIVERSAL_TIME_OFFSET (0, $, .AHEAD.);
#334 = LOCAL_TIME (8, 30, 1., #333);
#335 = DATE_AND_TIME (#332, #334);
#336 = CC_DESIGN_DATE_AND_TIME_ASSIGNMENT (#335, #331, (#317));
#337 = PERSON_AND_ORGANIZATION_ROLE ('creator');
#338 = PERSON ('', '', $, $, $, $);
#339 = ORGANIZATION ($, '', '');
#340 = PERSON_AND_ORGANIZATION (#338, #339);
#341 = CC_DESIGN_PERSON_AND_ORGANIZATION_ASSIGNMENT (#340, #337, (#317));
#342 = PRODUCT_DEFINITION_SHAPE ('', '', #317);
#343 = SHAPE_DEFINITION_REPRESENTATION (#342, #254);
#344 = SHAPE_REPRESENTATION_RELATIONSHIP ('', '', #254, #345);
#345 = ADVANCED_BREP_SHAPE_REPRESENTATION ('', (#248), #253);
ENDSEC;
END-ISO-10303-21;
