ISO-10303-21;
HEADER;
FILE_DESCRIPTION ((), '1');
FILE_NAME ('C:\\Users\\kevin\\157 Range\\157 1000-1.50RA.STP', '2021-01-07T08:32:32', ('Unknown'), ('mafordeurope'), 'OneCNC-XR7 Mill 3D Expert', 'OneCNC-XR7 Mill 3D Expert', '');
FILE_SCHEMA (('CONFIG_CONTROL_DESIGN'));
ENDSEC;

DATA;
#1 = CARTESIAN_POINT ('', (0., 0., 0.));
#2 = VERTEX_POINT ('', #1);
#3 = CARTESIAN_POINT ('', (2.46519032881566E-32, 3.5, -8.57252759403147E-16));
#4 = VERTEX_POINT ('', #3);
#5 = CARTESIAN_POINT ('', (0., 0., 0.));
#6 = CARTESIAN_POINT ('', (1.23259516440783E-32, 1.16666666666667, -2.85750919801049E-16));
#7 = CARTESIAN_POINT ('', (2.46519032881566E-32, 2.33333333333333, -5.71501839602098E-16));
#8 = CARTESIAN_POINT ('', (2.46519032881566E-32, 3.5, -8.57252759403147E-16));
#9 = B_SPLINE_CURVE_WITH_KNOTS ('', 3, (#5, #6, #7, #8), .UNSPECIFIED., .F., .U., (4, 4), (0., 1.), .UNSPECIFIED.);
#10 = EDGE_CURVE ('', #2, #4, #9, .T.);
#11 = ORIENTED_EDGE ('', *, *, #10, .F.);
#12 = ORIENTED_EDGE ('', *, *, #10, .T.);
#13 = CARTESIAN_POINT ('', (2.46519032881566E-32, 3.5, -8.57252759403147E-16));
#14 = CARTESIAN_POINT ('', (-8.57252759403147E-16, 3.5, 14.));
#15 = CARTESIAN_POINT ('', (-1.28587913910472E-15, -10.5, 7.));
#16 = CARTESIAN_POINT ('', (-4.28626379701574E-16, -10.5, -7.));
#17 = CARTESIAN_POINT ('', (8.57252759403147E-16, 3.5, -14.));
#18 = CARTESIAN_POINT ('', (2.46519032881566E-32, 3.5, -8.57252759403147E-16));
#19 = (
   BOUNDED_CURVE ()
   B_SPLINE_CURVE (5, (#13, #14, #15, #16, #17, #18), .UNSPECIFIED., .T., .U.)
   B_SPLINE_CURVE_WITH_KNOTS ((6, 6), (0., 1.), .UNSPECIFIED.)
   CURVE ()
   GEOMETRIC_REPRESENTATION_ITEM ()
   RATIONAL_B_SPLINE_CURVE ((5., 1., 1., 1., 1., 5.))
   REPRESENTATION_ITEM ('')
);
#20 = EDGE_CURVE ('', #4, #4, #19, .T.);
#21 = ORIENTED_EDGE ('', *, *, #20, .F.);
#22 = EDGE_LOOP ('', (#11, #12, #21));
#23 = FACE_OUTER_BOUND ('', #22, .F.);
#24 = CARTESIAN_POINT ('', (0., 0., 0.));
#25 = CARTESIAN_POINT ('', (1.23259516440783E-32, 1.16666666666667, -2.85750919801049E-16));
#26 = CARTESIAN_POINT ('', (2.46519032881566E-32, 2.33333333333333, -5.71501839602098E-16));
#27 = CARTESIAN_POINT ('', (2.46519032881566E-32, 3.5, -8.57252759403147E-16));
#28 = CARTESIAN_POINT ('', (0., 0., 0.));
#29 = CARTESIAN_POINT ('', (-2.85750919801049E-16, 1.16666666666667, 4.66666666666667));
#30 = CARTESIAN_POINT ('', (-5.71501839602098E-16, 2.33333333333333, 9.33333333333333));
#31 = CARTESIAN_POINT ('', (-8.57252759403147E-16, 3.5, 14.));
#32 = CARTESIAN_POINT ('', (0., 0., 0.));
#33 = CARTESIAN_POINT ('', (-4.28626379701574E-16, -3.5, 2.33333333333333));
#34 = CARTESIAN_POINT ('', (-8.57252759403147E-16, -6.99999999999999, 4.66666666666666));
#35 = CARTESIAN_POINT ('', (-1.28587913910472E-15, -10.5, 7.));
#36 = CARTESIAN_POINT ('', (0., 0., 0.));
#37 = CARTESIAN_POINT ('', (-1.42875459900525E-16, -3.5, -2.33333333333333));
#38 = CARTESIAN_POINT ('', (-2.85750919801049E-16, -6.99999999999999, -4.66666666666666));
#39 = CARTESIAN_POINT ('', (-4.28626379701574E-16, -10.5, -7.));
#40 = CARTESIAN_POINT ('', (0., 0., 0.));
#41 = CARTESIAN_POINT ('', (2.85750919801049E-16, 1.16666666666667, -4.66666666666667));
#42 = CARTESIAN_POINT ('', (5.71501839602097E-16, 2.33333333333333, -9.33333333333333));
#43 = CARTESIAN_POINT ('', (8.57252759403147E-16, 3.5, -14.));
#44 = CARTESIAN_POINT ('', (0., 0., 0.));
#45 = CARTESIAN_POINT ('', (1.23259516440783E-32, 1.16666666666667, -2.85750919801049E-16));
#46 = CARTESIAN_POINT ('', (2.46519032881566E-32, 2.33333333333333, -5.71501839602098E-16));
#47 = CARTESIAN_POINT ('', (2.46519032881566E-32, 3.5, -8.57252759403147E-16));
#48 = (
   BOUNDED_SURFACE ()
   B_SPLINE_SURFACE (5, 3, ((#24, #25, #26, #27), (#28, #29, #30, #31), (#32, #33, #34, #35), (#36, #37, #38, #39), (#40, #41, #42, #43), (#44, #45, #46, #47)), .UNSPECIFIED., .T., .F., .U.)
   B_SPLINE_SURFACE_WITH_KNOTS ((6, 6), (4, 4), (0., 1.), (0., 1.), .UNSPECIFIED.)
   SURFACE ()
   GEOMETRIC_REPRESENTATION_ITEM ()
   RATIONAL_B_SPLINE_SURFACE (((5., 5., 5., 5.), (1., 1., 1., 1.), (1., 1., 1., 1.), (1., 1., 1., 1.), (1., 1., 1., 1.), (5., 5., 5., 5.)))
   REPRESENTATION_ITEM ('')
);
#49 = ADVANCED_FACE ('', (#23), #48, .F.);
#50 = CARTESIAN_POINT ('', (-1.5, 5., -1.22464679914735E-15));
#51 = VERTEX_POINT ('', #50);
#52 = CARTESIAN_POINT ('', (2.46519032881566E-32, 3.5, -8.57252759403147E-16));
#53 = CARTESIAN_POINT ('', (4.93038065763132E-32, 3.66388306666959, -8.97392534009421E-16));
#54 = CARTESIAN_POINT ('', (-0.0607926905635326, 4.03061290041668, -9.87215437419463E-16));
#55 = CARTESIAN_POINT ('', (-0.330081450302891, 4.48954989594828, -1.09962258193708E-15));
#56 = CARTESIAN_POINT ('', (-0.818096949199232, 4.88629157360693, -1.19679626706368E-15));
#57 = CARTESIAN_POINT ('', (-1.23596979007395, 5.00000000000001, -1.22464679914736E-15));
#58 = CARTESIAN_POINT ('', (-1.5, 5., -1.22464679914735E-15));
#59 = B_SPLINE_CURVE_WITH_KNOTS ('', 3, (#52, #53, #54, #55, #56, #57, #58), .UNSPECIFIED., .F., .U., (4, 1, 1, 1, 4), (0., 0.208662401196191, 0.467060336615637, 0.66382629571742, 1.), .UNSPECIFIED.);
#60 = EDGE_CURVE ('', #4, #51, #59, .T.);
#61 = ORIENTED_EDGE ('', *, *, #60, .F.);
#62 = ORIENTED_EDGE ('', *, *, #20, .T.);
#63 = ORIENTED_EDGE ('', *, *, #60, .T.);
#64 = CARTESIAN_POINT ('', (-1.5, 5., -1.22464679914735E-15));
#65 = CARTESIAN_POINT ('', (-1.5, 5., 20.));
#66 = CARTESIAN_POINT ('', (-1.5, -15., 10.));
#67 = CARTESIAN_POINT ('', (-1.5, -15., -10.));
#68 = CARTESIAN_POINT ('', (-1.5, 5., -20.));
#69 = CARTESIAN_POINT ('', (-1.5, 5., -1.22464679914735E-15));
#70 = (
   BOUNDED_CURVE ()
   B_SPLINE_CURVE (5, (#64, #65, #66, #67, #68, #69), .UNSPECIFIED., .T., .U.)
   B_SPLINE_CURVE_WITH_KNOTS ((6, 6), (0., 1.), .UNSPECIFIED.)
   CURVE ()
   GEOMETRIC_REPRESENTATION_ITEM ()
   RATIONAL_B_SPLINE_CURVE ((5., 1., 1., 1., 1., 5.))
   REPRESENTATION_ITEM ('')
);
#71 = EDGE_CURVE ('', #51, #51, #70, .T.);
#72 = ORIENTED_EDGE ('', *, *, #71, .F.);
#73 = EDGE_LOOP ('', (#61, #62, #63, #72));
#74 = FACE_OUTER_BOUND ('', #73, .F.);
#75 = CARTESIAN_POINT ('', (2.46519032881566E-32, 3.5, -8.57252759403147E-16));
#76 = CARTESIAN_POINT ('', (4.93038065763132E-32, 3.66388306666959, -8.97392534009421E-16));
#77 = CARTESIAN_POINT ('', (-0.0607926905635326, 4.03061290041668, -9.87215437419463E-16));
#78 = CARTESIAN_POINT ('', (-0.330081450302891, 4.48954989594828, -1.09962258193708E-15));
#79 = CARTESIAN_POINT ('', (-0.818096949199232, 4.88629157360693, -1.19679626706368E-15));
#80 = CARTESIAN_POINT ('', (-1.23596979007395, 5.00000000000001, -1.22464679914736E-15));
#81 = CARTESIAN_POINT ('', (-1.5, 5., -1.22464679914735E-15));
#82 = CARTESIAN_POINT ('', (-8.57252759403147E-16, 3.5, 14.));
#83 = CARTESIAN_POINT ('', (-8.9739253400942E-16, 3.66388306666959, 14.6555322666784));
#84 = CARTESIAN_POINT ('', (-0.0607926905635336, 4.03061290041668, 16.1224516016667));
#85 = CARTESIAN_POINT ('', (-0.330081450302892, 4.48954989594829, 17.9581995837931));
#86 = CARTESIAN_POINT ('', (-0.818096949199234, 4.88629157360694, 19.5451662944277));
#87 = CARTESIAN_POINT ('', (-1.23596979007395, 5.00000000000001, 20.));
#88 = CARTESIAN_POINT ('', (-1.5, 5., 20.));
#89 = CARTESIAN_POINT ('', (-1.28587913910472E-15, -10.5, 7.));
#90 = CARTESIAN_POINT ('', (-1.34608880101413E-15, -10.9916492000088, 7.32776613333918));
#91 = CARTESIAN_POINT ('', (-0.0607926905635341, -12.09183870125, 8.06122580083336));
#92 = CARTESIAN_POINT ('', (-0.330081450302893, -13.4686496878448, 8.97909979189657));
#93 = CARTESIAN_POINT ('', (-0.818096949199234, -14.6588747208208, 9.77258314721387));
#94 = CARTESIAN_POINT ('', (-1.23596979007395, -15., 10.));
#95 = CARTESIAN_POINT ('', (-1.5, -15., 10.));
#96 = CARTESIAN_POINT ('', (-4.28626379701574E-16, -10.5, -7.));
#97 = CARTESIAN_POINT ('', (-4.48696267004711E-16, -10.9916492000088, -7.32776613333918));
#98 = CARTESIAN_POINT ('', (-0.0607926905635331, -12.09183870125, -8.06122580083335));
#99 = CARTESIAN_POINT ('', (-0.330081450302891, -13.4686496878448, -8.97909979189656));
#100 = CARTESIAN_POINT ('', (-0.818096949199233, -14.6588747208208, -9.77258314721386));
#101 = CARTESIAN_POINT ('', (-1.23596979007395, -15., -10.));
#102 = CARTESIAN_POINT ('', (-1.5, -15., -10.));
#103 = CARTESIAN_POINT ('', (8.57252759403147E-16, 3.5, -14.));
#104 = CARTESIAN_POINT ('', (8.97392534009421E-16, 3.66388306666959, -14.6555322666784));
#105 = CARTESIAN_POINT ('', (-0.0607926905635316, 4.03061290041667, -16.1224516016667));
#106 = CARTESIAN_POINT ('', (-0.33008145030289, 4.48954989594828, -17.9581995837931));
#107 = CARTESIAN_POINT ('', (-0.818096949199231, 4.88629157360693, -19.5451662944277));
#108 = CARTESIAN_POINT ('', (-1.23596979007394, 5., -20.));
#109 = CARTESIAN_POINT ('', (-1.5, 5., -20.));
#110 = CARTESIAN_POINT ('', (2.46519032881566E-32, 3.5, -8.57252759403147E-16));
#111 = CARTESIAN_POINT ('', (4.93038065763132E-32, 3.66388306666959, -8.97392534009421E-16));
#112 = CARTESIAN_POINT ('', (-0.0607926905635326, 4.03061290041668, -9.87215437419463E-16));
#113 = CARTESIAN_POINT ('', (-0.330081450302891, 4.48954989594828, -1.09962258193708E-15));
#114 = CARTESIAN_POINT ('', (-0.818096949199232, 4.88629157360693, -1.19679626706368E-15));
#115 = CARTESIAN_POINT ('', (-1.23596979007395, 5.00000000000001, -1.22464679914736E-15));
#116 = CARTESIAN_POINT ('', (-1.5, 5., -1.22464679914735E-15));
#117 = (
   BOUNDED_SURFACE ()
   B_SPLINE_SURFACE (5, 3, ((#75, #76, #77, #78, #79, #80, #81), (#82, #83, #84, #85, #86, #87, #88), (#89, #90, #91, #92, #93, #94, #95), (#96, #97, #98, #99, #100, #101, #102), (#103, #104, #105, #106, #107, #108, #109), (#110, #111, #112, #113, #114, #115, #116)), .UNSPECIFIED., .T., .F., .U.)
   B_SPLINE_SURFACE_WITH_KNOTS ((6, 6), (4, 1, 1, 1, 4), (0., 1.), (0., 0.208662401196191, 0.467060336615637, 0.66382629571742, 1.), .UNSPECIFIED.)
   SURFACE ()
   GEOMETRIC_REPRESENTATION_ITEM ()
   RATIONAL_B_SPLINE_SURFACE (((5., 5., 5., 5., 5., 5., 5.), (1., 1., 1., 1., 1., 1., 1.), (1., 1., 1., 1., 1., 1., 1.), (1., 1., 1., 1., 1., 1., 1.), (1., 1., 1., 1., 1., 1., 1.), (5., 5., 5., 5., 5., 5., 5.)))
   REPRESENTATION_ITEM ('')
);
#118 = ADVANCED_FACE ('', (#74), #117, .F.);
#119 = CARTESIAN_POINT ('', (-99.75, 5., -1.22464679914735E-15));
#120 = VERTEX_POINT ('', #119);
#121 = CARTESIAN_POINT ('', (-1.5, 5., -1.22464679914735E-15));
#122 = CARTESIAN_POINT ('', (-34.25, 5., -1.22464679914735E-15));
#123 = CARTESIAN_POINT ('', (-67., 5., -1.22464679914735E-15));
#124 = CARTESIAN_POINT ('', (-99.75, 5., -1.22464679914735E-15));
#125 = B_SPLINE_CURVE_WITH_KNOTS ('', 3, (#121, #122, #123, #124), .UNSPECIFIED., .F., .U., (4, 4), (0., 1.), .UNSPECIFIED.);
#126 = EDGE_CURVE ('', #51, #120, #125, .T.);
#127 = ORIENTED_EDGE ('', *, *, #126, .F.);
#128 = ORIENTED_EDGE ('', *, *, #71, .T.);
#129 = ORIENTED_EDGE ('', *, *, #126, .T.);
#130 = CARTESIAN_POINT ('', (-99.75, 5., -1.22464679914735E-15));
#131 = CARTESIAN_POINT ('', (-99.75, 4.99999999999998, 20.));
#132 = CARTESIAN_POINT ('', (-99.75, -15., 9.99999999999997));
#133 = CARTESIAN_POINT ('', (-99.75, -15., -10.));
#134 = CARTESIAN_POINT ('', (-99.75, 5.00000000000002, -20.));
#135 = CARTESIAN_POINT ('', (-99.75, 5., -1.22464679914735E-15));
#136 = (
   BOUNDED_CURVE ()
   B_SPLINE_CURVE (5, (#130, #131, #132, #133, #134, #135), .UNSPECIFIED., .T., .U.)
   B_SPLINE_CURVE_WITH_KNOTS ((6, 6), (0., 1.), .UNSPECIFIED.)
   CURVE ()
   GEOMETRIC_REPRESENTATION_ITEM ()
   RATIONAL_B_SPLINE_CURVE ((5., 1., 1., 1., 1., 5.))
   REPRESENTATION_ITEM ('')
);
#137 = EDGE_CURVE ('', #120, #120, #136, .T.);
#138 = ORIENTED_EDGE ('', *, *, #137, .F.);
#139 = EDGE_LOOP ('', (#127, #128, #129, #138));
#140 = FACE_OUTER_BOUND ('', #139, .F.);
#141 = CARTESIAN_POINT ('', (-1.5, 5., -1.22464679914735E-15));
#142 = CARTESIAN_POINT ('', (-34.25, 5., -1.22464679914735E-15));
#143 = CARTESIAN_POINT ('', (-67., 5., -1.22464679914735E-15));
#144 = CARTESIAN_POINT ('', (-99.75, 5., -1.22464679914735E-15));
#145 = CARTESIAN_POINT ('', (-1.5, 5., 20.));
#146 = CARTESIAN_POINT ('', (-34.25, 5., 20.));
#147 = CARTESIAN_POINT ('', (-67., 4.99999999999999, 20.));
#148 = CARTESIAN_POINT ('', (-99.75, 4.99999999999998, 20.));
#149 = CARTESIAN_POINT ('', (-1.5, -15., 10.));
#150 = CARTESIAN_POINT ('', (-34.25, -15., 9.99999999999999));
#151 = CARTESIAN_POINT ('', (-67., -15., 9.99999999999998));
#152 = CARTESIAN_POINT ('', (-99.75, -15., 9.99999999999997));
#153 = CARTESIAN_POINT ('', (-1.5, -15., -10.));
#154 = CARTESIAN_POINT ('', (-34.25, -15., -10.));
#155 = CARTESIAN_POINT ('', (-67., -15., -10.));
#156 = CARTESIAN_POINT ('', (-99.75, -15., -10.));
#157 = CARTESIAN_POINT ('', (-1.5, 5., -20.));
#158 = CARTESIAN_POINT ('', (-34.25, 5., -20.));
#159 = CARTESIAN_POINT ('', (-67., 5.00000000000001, -20.));
#160 = CARTESIAN_POINT ('', (-99.75, 5.00000000000002, -20.));
#161 = CARTESIAN_POINT ('', (-1.5, 5., -1.22464679914735E-15));
#162 = CARTESIAN_POINT ('', (-34.25, 5., -1.22464679914735E-15));
#163 = CARTESIAN_POINT ('', (-67., 5., -1.22464679914735E-15));
#164 = CARTESIAN_POINT ('', (-99.75, 5., -1.22464679914735E-15));
#165 = (
   BOUNDED_SURFACE ()
   B_SPLINE_SURFACE (5, 3, ((#141, #142, #143, #144), (#145, #146, #147, #148), (#149, #150, #151, #152), (#153, #154, #155, #156), (#157, #158, #159, #160), (#161, #162, #163, #164)), .UNSPECIFIED., .T., .F., .U.)
   B_SPLINE_SURFACE_WITH_KNOTS ((6, 6), (4, 4), (0., 1.), (0., 1.), .UNSPECIFIED.)
   SURFACE ()
   GEOMETRIC_REPRESENTATION_ITEM ()
   RATIONAL_B_SPLINE_SURFACE (((5., 5., 5., 5.), (1., 1., 1., 1.), (1., 1., 1., 1.), (1., 1., 1., 1.), (1., 1., 1., 1.), (5., 5., 5., 5.)))
   REPRESENTATION_ITEM ('')
);
#166 = ADVANCED_FACE ('', (#140), #165, .F.);
#167 = CARTESIAN_POINT ('', (-100., 4.75, -1.16341445918998E-15));
#168 = VERTEX_POINT ('', #167);
#169 = CARTESIAN_POINT ('', (-99.75, 5., -1.22464679914735E-15));
#170 = CARTESIAN_POINT ('', (-99.8333333333335, 4.91666666666666, -1.20423601916156E-15));
#171 = CARTESIAN_POINT ('', (-99.9166666666668, 4.83333333333333, -1.18382523917577E-15));
#172 = CARTESIAN_POINT ('', (-100., 4.75, -1.16341445918998E-15));
#173 = B_SPLINE_CURVE_WITH_KNOTS ('', 3, (#169, #170, #171, #172), .UNSPECIFIED., .F., .U., (4, 4), (0., 1.), .UNSPECIFIED.);
#174 = EDGE_CURVE ('', #120, #168, #173, .T.);
#175 = ORIENTED_EDGE ('', *, *, #174, .F.);
#176 = ORIENTED_EDGE ('', *, *, #137, .T.);
#177 = ORIENTED_EDGE ('', *, *, #174, .T.);
#178 = CARTESIAN_POINT ('', (-100., 4.75, -1.16341445918998E-15));
#179 = CARTESIAN_POINT ('', (-100., 4.74999999999998, 19.));
#180 = CARTESIAN_POINT ('', (-100., -14.25, 9.49999999999997));
#181 = CARTESIAN_POINT ('', (-100., -14.25, -9.50000000000001));
#182 = CARTESIAN_POINT ('', (-100., 4.75000000000002, -19.));
#183 = CARTESIAN_POINT ('', (-100., 4.75, -1.16341445918998E-15));
#184 = (
   BOUNDED_CURVE ()
   B_SPLINE_CURVE (5, (#178, #179, #180, #181, #182, #183), .UNSPECIFIED., .T., .U.)
   B_SPLINE_CURVE_WITH_KNOTS ((6, 6), (0., 1.), .UNSPECIFIED.)
   CURVE ()
   GEOMETRIC_REPRESENTATION_ITEM ()
   RATIONAL_B_SPLINE_CURVE ((5., 1., 1., 1., 1., 5.))
   REPRESENTATION_ITEM ('')
);
#185 = EDGE_CURVE ('', #168, #168, #184, .T.);
#186 = ORIENTED_EDGE ('', *, *, #185, .F.);
#187 = EDGE_LOOP ('', (#175, #176, #177, #186));
#188 = FACE_OUTER_BOUND ('', #187, .F.);
#189 = CARTESIAN_POINT ('', (-99.75, 5., -1.22464679914735E-15));
#190 = CARTESIAN_POINT ('', (-99.8333333333335, 4.91666666666666, -1.20423601916156E-15));
#191 = CARTESIAN_POINT ('', (-99.9166666666668, 4.83333333333333, -1.18382523917577E-15));
#192 = CARTESIAN_POINT ('', (-100., 4.75, -1.16341445918998E-15));
#193 = CARTESIAN_POINT ('', (-99.75, 4.99999999999998, 20.));
#194 = CARTESIAN_POINT ('', (-99.8333333333335, 4.91666666666664, 19.6666666666666));
#195 = CARTESIAN_POINT ('', (-99.9166666666668, 4.83333333333331, 19.3333333333333));
#196 = CARTESIAN_POINT ('', (-100., 4.74999999999998, 19.));
#197 = CARTESIAN_POINT ('', (-99.75, -15., 9.99999999999997));
#198 = CARTESIAN_POINT ('', (-99.8333333333335, -14.75, 9.83333333333328));
#199 = CARTESIAN_POINT ('', (-99.9166666666668, -14.5, 9.66666666666663));
#200 = CARTESIAN_POINT ('', (-100., -14.25, 9.49999999999997));
#201 = CARTESIAN_POINT ('', (-99.75, -15., -10.));
#202 = CARTESIAN_POINT ('', (-99.8333333333335, -14.7499999999999, -9.83333333333332));
#203 = CARTESIAN_POINT ('', (-99.9166666666668, -14.5, -9.66666666666666));
#204 = CARTESIAN_POINT ('', (-100., -14.25, -9.50000000000001));
#205 = CARTESIAN_POINT ('', (-99.75, 5.00000000000002, -20.));
#206 = CARTESIAN_POINT ('', (-99.8333333333335, 4.91666666666668, -19.6666666666666));
#207 = CARTESIAN_POINT ('', (-99.9166666666668, 4.83333333333335, -19.3333333333333));
#208 = CARTESIAN_POINT ('', (-100., 4.75000000000002, -19.));
#209 = CARTESIAN_POINT ('', (-99.75, 5., -1.22464679914735E-15));
#210 = CARTESIAN_POINT ('', (-99.8333333333335, 4.91666666666666, -1.20423601916156E-15));
#211 = CARTESIAN_POINT ('', (-99.9166666666668, 4.83333333333333, -1.18382523917577E-15));
#212 = CARTESIAN_POINT ('', (-100., 4.75, -1.16341445918998E-15));
#213 = (
   BOUNDED_SURFACE ()
   B_SPLINE_SURFACE (5, 3, ((#189, #190, #191, #192), (#193, #194, #195, #196), (#197, #198, #199, #200), (#201, #202, #203, #204), (#205, #206, #207, #208), (#209, #210, #211, #212)), .UNSPECIFIED., .T., .F., .U.)
   B_SPLINE_SURFACE_WITH_KNOTS ((6, 6), (4, 4), (0., 1.), (0., 1.), .UNSPECIFIED.)
   SURFACE ()
   GEOMETRIC_REPRESENTATION_ITEM ()
   RATIONAL_B_SPLINE_SURFACE (((5., 5., 5., 5.), (1., 1., 1., 1.), (1., 1., 1., 1.), (1., 1., 1., 1.), (1., 1., 1., 1.), (5., 5., 5., 5.)))
   REPRESENTATION_ITEM ('')
);
#214 = ADVANCED_FACE ('', (#188), #213, .F.);
#215 = CARTESIAN_POINT ('', (-100., 6.12323399573677E-15, -6.12323399573677E-15));
#216 = VERTEX_POINT ('', #215);
#217 = CARTESIAN_POINT ('', (-100., 4.75, -1.16341445918998E-15));
#218 = CARTESIAN_POINT ('', (-100., 3.16666666666666, -7.75609639459986E-16));
#219 = CARTESIAN_POINT ('', (-100., 1.58333333333333, -3.87804819729993E-16));
#220 = CARTESIAN_POINT ('', (-100., 6.12323399573677E-15, -6.12323399573677E-15));
#221 = B_SPLINE_CURVE_WITH_KNOTS ('', 3, (#217, #218, #219, #220), .UNSPECIFIED., .F., .U., (4, 4), (0., 1.), .UNSPECIFIED.);
#222 = EDGE_CURVE ('', #168, #216, #221, .T.);
#223 = ORIENTED_EDGE ('', *, *, #222, .F.);
#224 = ORIENTED_EDGE ('', *, *, #185, .T.);
#225 = ORIENTED_EDGE ('', *, *, #222, .T.);
#226 = EDGE_LOOP ('', (#223, #224, #225));
#227 = FACE_OUTER_BOUND ('', #226, .F.);
#228 = CARTESIAN_POINT ('', (-100., 4.75, -1.16341445918998E-15));
#229 = CARTESIAN_POINT ('', (-100., 3.16666666666666, -7.75609639459986E-16));
#230 = CARTESIAN_POINT ('', (-100., 1.58333333333333, -3.87804819729993E-16));
#231 = CARTESIAN_POINT ('', (-100., 6.12323399573677E-15, -6.12323399573677E-15));
#232 = CARTESIAN_POINT ('', (-100., 4.74999999999998, 19.));
#233 = CARTESIAN_POINT ('', (-100., 3.16666666666664, 12.6666666666666));
#234 = CARTESIAN_POINT ('', (-100., 1.58333333333331, 6.33333333333329));
#235 = CARTESIAN_POINT ('', (-100., 6.12323399573677E-15, -6.12323399573677E-15));
#236 = CARTESIAN_POINT ('', (-100., -14.25, 9.49999999999997));
#237 = CARTESIAN_POINT ('', (-100., -9.49999999999996, 6.33333333333328));
#238 = CARTESIAN_POINT ('', (-100., -4.74999999999997, 3.16666666666662));
#239 = CARTESIAN_POINT ('', (-100., 6.12323399573677E-15, -6.12323399573677E-15));
#240 = CARTESIAN_POINT ('', (-100., -14.25, -9.50000000000001));
#241 = CARTESIAN_POINT ('', (-100., -9.49999999999994, -6.33333333333333));
#242 = CARTESIAN_POINT ('', (-100., -4.74999999999995, -3.16666666666667));
#243 = CARTESIAN_POINT ('', (-100., 6.12323399573677E-15, -6.12323399573677E-15));
#244 = CARTESIAN_POINT ('', (-100., 4.75000000000002, -19.));
#245 = CARTESIAN_POINT ('', (-100., 3.16666666666668, -12.6666666666666));
#246 = CARTESIAN_POINT ('', (-100., 1.58333333333335, -6.33333333333329));
#247 = CARTESIAN_POINT ('', (-100., 6.12323399573677E-15, -6.12323399573677E-15));
#248 = CARTESIAN_POINT ('', (-100., 4.75, -1.16341445918998E-15));
#249 = CARTESIAN_POINT ('', (-100., 3.16666666666666, -7.75609639459986E-16));
#250 = CARTESIAN_POINT ('', (-100., 1.58333333333333, -3.87804819729993E-16));
#251 = CARTESIAN_POINT ('', (-100., 6.12323399573677E-15, -6.12323399573677E-15));
#252 = (
   BOUNDED_SURFACE ()
   B_SPLINE_SURFACE (5, 3, ((#228, #229, #230, #231), (#232, #233, #234, #235), (#236, #237, #238, #239), (#240, #241, #242, #243), (#244, #245, #246, #247), (#248, #249, #250, #251)), .UNSPECIFIED., .T., .F., .U.)
   B_SPLINE_SURFACE_WITH_KNOTS ((6, 6), (4, 4), (0., 1.), (0., 1.), .UNSPECIFIED.)
   SURFACE ()
   GEOMETRIC_REPRESENTATION_ITEM ()
   RATIONAL_B_SPLINE_SURFACE (((5., 5., 5., 5.), (1., 1., 1., 1.), (1., 1., 1., 1.), (1., 1., 1., 1.), (1., 1., 1., 1.), (5., 5., 5., 5.)))
   REPRESENTATION_ITEM ('')
);
#253 = ADVANCED_FACE ('', (#227), #252, .F.);
#254 = CLOSED_SHELL ('', (#49, #118, #166, #214, #253));
#255 = MANIFOLD_SOLID_BREP ('', #254);
#256 = (
   LENGTH_UNIT ()
   NAMED_UNIT (*)
   SI_UNIT (.MILLI., .METRE.)
);
#257 = (
   NAMED_UNIT (*)
   SI_UNIT ($, .STERADIAN.)
   SOLID_ANGLE_UNIT ()
);
#258 = (
   NAMED_UNIT (*)
   SI_UNIT ($, .RADIAN.)
   PLANE_ANGLE_UNIT ()
);
#259 = UNCERTAINTY_MEASURE_WITH_UNIT (LENGTH_MEASURE(0.001), #256, 'DISTANCE_ACCURACY_VALUE', '');
#260 = (
   GEOMETRIC_REPRESENTATION_CONTEXT (3)
   GLOBAL_UNCERTAINTY_ASSIGNED_CONTEXT ((#259))
   GLOBAL_UNIT_ASSIGNED_CONTEXT ((#256, #257, #258))
   REPRESENTATION_CONTEXT ('', '3D')
);
#261 = SHAPE_REPRESENTATION ('', (), #260);
#262 = APPLICATION_CONTEXT ('configuration controlled 3D designs of mechanical parts and assemblies');
#263 = APPLICATION_PROTOCOL_DEFINITION ('International Standard', 'config_control_design', 1997, #262);
#264 = MECHANICAL_CONTEXT ('', #262, 'mechanical');
#265 = PRODUCT ('', '', '', (#264));
#266 = PERSON_AND_ORGANIZATION_ROLE ('design_owner');
#267 = PERSON ('', '', $, $, $, $);
#268 = ORGANIZATION ($, '', '');
#269 = PERSON_AND_ORGANIZATION (#267, #268);
#270 = CC_DESIGN_PERSON_AND_ORGANIZATION_ASSIGNMENT (#269, #266, (#265));
#271 = PRODUCT_RELATED_PRODUCT_CATEGORY ('detail', $, (#265));
#272 = PRODUCT_DEFINITION_FORMATION_WITH_SPECIFIED_SOURCE ('', '', #265, .NOT_KNOWN.);
#273 = APPROVAL_STATUS ('approved');
#274 = APPROVAL (#273, '');
#275 = CALENDAR_DATE (2021, 7, 1);
#276 = COORDINATED_UNIVERSAL_TIME_OFFSET (0, $, .AHEAD.);
#277 = LOCAL_TIME (8, 32, 32., #276);
#278 = DATE_AND_TIME (#275, #277);
#279 = APPROVAL_DATE_TIME (#278, #274);
#280 = APPROVAL_ROLE ('');
#281 = PERSON ('', '', $, $, $, $);
#282 = ORGANIZATION ($, '', '');
#283 = PERSON_AND_ORGANIZATION (#281, #282);
#284 = APPROVAL_PERSON_ORGANIZATION (#283, #274, #280);
#285 = CC_DESIGN_APPROVAL (#274, (#272));
#286 = PERSON_AND_ORGANIZATION_ROLE ('creator');
#287 = PERSON ('', '', $, $, $, $);
#288 = ORGANIZATION ($, '', '');
#289 = PERSON_AND_ORGANIZATION (#287, #288);
#290 = CC_DESIGN_PERSON_AND_ORGANIZATION_ASSIGNMENT (#289, #286, (#272));
#291 = PERSON_AND_ORGANIZATION_ROLE ('part_supplier');
#292 = PERSON ('', '', $, $, $, $);
#293 = ORGANIZATION ($, '', '');
#294 = PERSON_AND_ORGANIZATION (#292, #293);
#295 = CC_DESIGN_PERSON_AND_ORGANIZATION_ASSIGNMENT (#294, #291, (#272));
#296 = SECURITY_CLASSIFICATION_LEVEL ('unclassified');
#297 = SECURITY_CLASSIFICATION ('', '', #296);
#298 = APPROVAL_STATUS ('approved');
#299 = APPROVAL (#298, '');
#300 = CALENDAR_DATE (2021, 7, 1);
#301 = COORDINATED_UNIVERSAL_TIME_OFFSET (0, $, .AHEAD.);
#302 = LOCAL_TIME (8, 32, 32., #301);
#303 = DATE_AND_TIME (#300, #302);
#304 = APPROVAL_DATE_TIME (#303, #299);
#305 = APPROVAL_ROLE ('');
#306 = PERSON ('', '', $, $, $, $);
#307 = ORGANIZATION ($, '', '');
#308 = PERSON_AND_ORGANIZATION (#306, #307);
#309 = APPROVAL_PERSON_ORGANIZATION (#308, #299, #305);
#310 = CC_DESIGN_APPROVAL (#299, (#297));
#311 = DATE_TIME_ROLE ('classification_date');
#312 = CALENDAR_DATE (2021, 7, 1);
#313 = COORDINATED_UNIVERSAL_TIME_OFFSET (0, $, .AHEAD.);
#314 = LOCAL_TIME (8, 32, 32., #313);
#315 = DATE_AND_TIME (#312, #314);
#316 = CC_DESIGN_DATE_AND_TIME_ASSIGNMENT (#315, #311, (#297));
#317 = PERSON_AND_ORGANIZATION_ROLE ('classification_officer');
#318 = PERSON ('', '', $, $, $, $);
#319 = ORGANIZATION ($, '', '');
#320 = PERSON_AND_ORGANIZATION (#318, #319);
#321 = CC_DESIGN_PERSON_AND_ORGANIZATION_ASSIGNMENT (#320, #317, (#297));
#322 = CC_DESIGN_SECURITY_CLASSIFICATION (#297, (#272));
#323 = DESIGN_CONTEXT ('', #262, 'design');
#324 = PRODUCT_DEFINITION ('', '', #272, #323);
#325 = APPROVAL_STATUS ('approved');
#326 = APPROVAL (#325, '');
#327 = CALENDAR_DATE (2021, 7, 1);
#328 = COORDINATED_UNIVERSAL_TIME_OFFSET (0, $, .AHEAD.);
#329 = LOCAL_TIME (8, 32, 32., #328);
#330 = DATE_AND_TIME (#327, #329);
#331 = APPROVAL_DATE_TIME (#330, #326);
#332 = APPROVAL_ROLE ('');
#333 = PERSON ('', '', $, $, $, $);
#334 = ORGANIZATION ($, '', '');
#335 = PERSON_AND_ORGANIZATION (#333, #334);
#336 = APPROVAL_PERSON_ORGANIZATION (#335, #326, #332);
#337 = CC_DESIGN_APPROVAL (#326, (#324));
#338 = DATE_TIME_ROLE ('creation_date');
#339 = CALENDAR_DATE (2021, 7, 1);
#340 = COORDINATED_UNIVERSAL_TIME_OFFSET (0, $, .AHEAD.);
#341 = LOCAL_TIME (8, 32, 32., #340);
#342 = DATE_AND_TIME (#339, #341);
#343 = CC_DESIGN_DATE_AND_TIME_ASSIGNMENT (#342, #338, (#324));
#344 = PERSON_AND_ORGANIZATION_ROLE ('creator');
#345 = PERSON ('', '', $, $, $, $);
#346 = ORGANIZATION ($, '', '');
#347 = PERSON_AND_ORGANIZATION (#345, #346);
#348 = CC_DESIGN_PERSON_AND_ORGANIZATION_ASSIGNMENT (#347, #344, (#324));
#349 = PRODUCT_DEFINITION_SHAPE ('', '', #324);
#350 = SHAPE_DEFINITION_REPRESENTATION (#349, #261);
#351 = SHAPE_REPRESENTATION_RELATIONSHIP ('', '', #261, #352);
#352 = ADVANCED_BREP_SHAPE_REPRESENTATION ('', (#255), #260);
ENDSEC;
END-ISO-10303-21;
