ISO-10303-21;
HEADER;
FILE_DESCRIPTION ((), '1');
FILE_NAME ('C:\\Users\\kevin\\157 Range\\150 1000A.STP', '2021-01-07T08:28:52', ('Unknown'), ('mafordeurope'), 'OneCNC-XR7 Mill 3D Expert', 'OneCNC-XR7 Mill 3D Expert', '');
FILE_SCHEMA (('CONFIG_CONTROL_DESIGN'));
ENDSEC;

DATA;
#1 = CARTESIAN_POINT ('', (0., 0., 0.));
#2 = VERTEX_POINT ('', #1);
#3 = CARTESIAN_POINT ('', (9.86076131526265E-32, 5., -1.22464679914735E-15));
#4 = VERTEX_POINT ('', #3);
#5 = CARTESIAN_POINT ('', (0., 0., 0.));
#6 = CARTESIAN_POINT ('', (1.23259516440783E-32, 1.66666666666667, -4.08215599715784E-16));
#7 = CARTESIAN_POINT ('', (4.93038065763132E-32, 3.33333333333334, -8.16431199431571E-16));
#8 = CARTESIAN_POINT ('', (9.86076131526265E-32, 5., -1.22464679914735E-15));
#9 = B_SPLINE_CURVE_WITH_KNOTS ('', 3, (#5, #6, #7, #8), .UNSPECIFIED., .F., .U., (4, 4), (0., 1.), .UNSPECIFIED.);
#10 = EDGE_CURVE ('', #2, #4, #9, .T.);
#11 = ORIENTED_EDGE ('', *, *, #10, .F.);
#12 = ORIENTED_EDGE ('', *, *, #10, .T.);
#13 = CARTESIAN_POINT ('', (9.86076131526265E-32, 5., -1.22464679914735E-15));
#14 = CARTESIAN_POINT ('', (-1.22464679914735E-15, 5.00000000000001, 20.));
#15 = CARTESIAN_POINT ('', (-1.83697019872103E-15, -15., 10.));
#16 = CARTESIAN_POINT ('', (-6.12323399573677E-16, -15., -10.));
#17 = CARTESIAN_POINT ('', (1.22464679914735E-15, 4.99999999999999, -20.));
#18 = CARTESIAN_POINT ('', (9.86076131526265E-32, 5., -1.22464679914735E-15));
#19 = (
   BOUNDED_CURVE ()
   B_SPLINE_CURVE (5, (#13, #14, #15, #16, #17, #18), .UNSPECIFIED., .T., .U.)
   B_SPLINE_CURVE_WITH_KNOTS ((6, 6), (0., 1.), .UNSPECIFIED.)
   CURVE ()
   GEOMETRIC_REPRESENTATION_ITEM ()
   RATIONAL_B_SPLINE_CURVE ((5., 1., 1., 1., 1., 5.))
   REPRESENTATION_ITEM ('')
);
#20 = EDGE_CURVE ('', #4, #4, #19, .T.);
#21 = ORIENTED_EDGE ('', *, *, #20, .F.);
#22 = EDGE_LOOP ('', (#11, #12, #21));
#23 = FACE_OUTER_BOUND ('', #22, .F.);
#24 = CARTESIAN_POINT ('', (0., 0., 0.));
#25 = CARTESIAN_POINT ('', (1.23259516440783E-32, 1.66666666666667, -4.08215599715784E-16));
#26 = CARTESIAN_POINT ('', (4.93038065763132E-32, 3.33333333333334, -8.16431199431571E-16));
#27 = CARTESIAN_POINT ('', (9.86076131526265E-32, 5., -1.22464679914735E-15));
#28 = CARTESIAN_POINT ('', (0., 0., 0.));
#29 = CARTESIAN_POINT ('', (-4.08215599715784E-16, 1.66666666666667, 6.66666666666667));
#30 = CARTESIAN_POINT ('', (-8.16431199431571E-16, 3.33333333333335, 13.3333333333334));
#31 = CARTESIAN_POINT ('', (-1.22464679914735E-15, 5.00000000000001, 20.));
#32 = CARTESIAN_POINT ('', (0., 0., 0.));
#33 = CARTESIAN_POINT ('', (-6.12323399573677E-16, -5., 3.33333333333333));
#34 = CARTESIAN_POINT ('', (-1.22464679914736E-15, -10., 6.66666666666669));
#35 = CARTESIAN_POINT ('', (-1.83697019872103E-15, -15., 10.));
#36 = CARTESIAN_POINT ('', (0., 0., 0.));
#37 = CARTESIAN_POINT ('', (-2.04107799857892E-16, -5., -3.33333333333333));
#38 = CARTESIAN_POINT ('', (-4.08215599715786E-16, -10., -6.66666666666668));
#39 = CARTESIAN_POINT ('', (-6.12323399573677E-16, -15., -10.));
#40 = CARTESIAN_POINT ('', (0., 0., 0.));
#41 = CARTESIAN_POINT ('', (4.08215599715784E-16, 1.66666666666667, -6.66666666666667));
#42 = CARTESIAN_POINT ('', (8.16431199431571E-16, 3.33333333333334, -13.3333333333334));
#43 = CARTESIAN_POINT ('', (1.22464679914735E-15, 4.99999999999999, -20.));
#44 = CARTESIAN_POINT ('', (0., 0., 0.));
#45 = CARTESIAN_POINT ('', (1.23259516440783E-32, 1.66666666666667, -4.08215599715784E-16));
#46 = CARTESIAN_POINT ('', (4.93038065763132E-32, 3.33333333333334, -8.16431199431571E-16));
#47 = CARTESIAN_POINT ('', (9.86076131526265E-32, 5., -1.22464679914735E-15));
#48 = (
   BOUNDED_SURFACE ()
   B_SPLINE_SURFACE (5, 3, ((#24, #25, #26, #27), (#28, #29, #30, #31), (#32, #33, #34, #35), (#36, #37, #38, #39), (#40, #41, #42, #43), (#44, #45, #46, #47)), .UNSPECIFIED., .T., .F., .U.)
   B_SPLINE_SURFACE_WITH_KNOTS ((6, 6), (4, 4), (0., 1.), (0., 1.), .UNSPECIFIED.)
   SURFACE ()
   GEOMETRIC_REPRESENTATION_ITEM ()
   RATIONAL_B_SPLINE_SURFACE (((5., 5., 5., 5.), (1., 1., 1., 1.), (1., 1., 1., 1.), (1., 1., 1., 1.), (1., 1., 1., 1.), (5., 5., 5., 5.)))
   REPRESENTATION_ITEM ('')
);
#49 = ADVANCED_FACE ('', (#23), #48, .F.);
#50 = CARTESIAN_POINT ('', (-99.75, 5., -1.22464679914735E-15));
#51 = VERTEX_POINT ('', #50);
#52 = CARTESIAN_POINT ('', (-3.06161699786838E-16, 5., -1.22464679914735E-15));
#53 = CARTESIAN_POINT ('', (-33.25, 5., -1.22464679914735E-15));
#54 = CARTESIAN_POINT ('', (-66.5, 5., -1.22464679914735E-15));
#55 = CARTESIAN_POINT ('', (-99.75, 5., -1.22464679914735E-15));
#56 = B_SPLINE_CURVE_WITH_KNOTS ('', 3, (#52, #53, #54, #55), .UNSPECIFIED., .F., .U., (4, 4), (0., 1.), .UNSPECIFIED.);
#57 = EDGE_CURVE ('', #4, #51, #56, .T.);
#58 = ORIENTED_EDGE ('', *, *, #57, .F.);
#59 = ORIENTED_EDGE ('', *, *, #20, .T.);
#60 = ORIENTED_EDGE ('', *, *, #57, .T.);
#61 = CARTESIAN_POINT ('', (-99.75, 5., -1.22464679914735E-15));
#62 = CARTESIAN_POINT ('', (-99.75, 4.99999999999998, 20.));
#63 = CARTESIAN_POINT ('', (-99.75, -15., 9.99999999999997));
#64 = CARTESIAN_POINT ('', (-99.75, -15., -10.));
#65 = CARTESIAN_POINT ('', (-99.75, 5.00000000000002, -20.));
#66 = CARTESIAN_POINT ('', (-99.75, 5., -1.22464679914735E-15));
#67 = (
   BOUNDED_CURVE ()
   B_SPLINE_CURVE (5, (#61, #62, #63, #64, #65, #66), .UNSPECIFIED., .T., .U.)
   B_SPLINE_CURVE_WITH_KNOTS ((6, 6), (0., 1.), .UNSPECIFIED.)
   CURVE ()
   GEOMETRIC_REPRESENTATION_ITEM ()
   RATIONAL_B_SPLINE_CURVE ((5., 1., 1., 1., 1., 5.))
   REPRESENTATION_ITEM ('')
);
#68 = EDGE_CURVE ('', #51, #51, #67, .T.);
#69 = ORIENTED_EDGE ('', *, *, #68, .F.);
#70 = EDGE_LOOP ('', (#58, #59, #60, #69));
#71 = FACE_OUTER_BOUND ('', #70, .F.);
#72 = CARTESIAN_POINT ('', (-3.06161699786838E-16, 5., -1.22464679914735E-15));
#73 = CARTESIAN_POINT ('', (-33.25, 5., -1.22464679914735E-15));
#74 = CARTESIAN_POINT ('', (-66.5, 5., -1.22464679914735E-15));
#75 = CARTESIAN_POINT ('', (-99.75, 5., -1.22464679914735E-15));
#76 = CARTESIAN_POINT ('', (-1.53080849893419E-15, 5.00000000000001, 20.));
#77 = CARTESIAN_POINT ('', (-33.25, 5., 20.));
#78 = CARTESIAN_POINT ('', (-66.5, 4.99999999999999, 20.));
#79 = CARTESIAN_POINT ('', (-99.75, 4.99999999999998, 20.));
#80 = CARTESIAN_POINT ('', (-2.14313189850787E-15, -15., 10.));
#81 = CARTESIAN_POINT ('', (-33.25, -15., 10.));
#82 = CARTESIAN_POINT ('', (-66.5, -15., 9.99999999999998));
#83 = CARTESIAN_POINT ('', (-99.75, -15., 9.99999999999997));
#84 = CARTESIAN_POINT ('', (-9.18485099360515E-16, -15., -10.));
#85 = CARTESIAN_POINT ('', (-33.25, -15., -10.));
#86 = CARTESIAN_POINT ('', (-66.5, -15., -10.));
#87 = CARTESIAN_POINT ('', (-99.75, -15., -10.));
#88 = CARTESIAN_POINT ('', (9.18485099360515E-16, 4.99999999999999, -20.));
#89 = CARTESIAN_POINT ('', (-33.25, 5.00000000000001, -20.));
#90 = CARTESIAN_POINT ('', (-66.5, 5.00000000000001, -20.));
#91 = CARTESIAN_POINT ('', (-99.75, 5.00000000000002, -20.));
#92 = CARTESIAN_POINT ('', (-3.06161699786838E-16, 5., -1.22464679914735E-15));
#93 = CARTESIAN_POINT ('', (-33.25, 5., -1.22464679914735E-15));
#94 = CARTESIAN_POINT ('', (-66.5, 5., -1.22464679914735E-15));
#95 = CARTESIAN_POINT ('', (-99.75, 5., -1.22464679914735E-15));
#96 = (
   BOUNDED_SURFACE ()
   B_SPLINE_SURFACE (5, 3, ((#72, #73, #74, #75), (#76, #77, #78, #79), (#80, #81, #82, #83), (#84, #85, #86, #87), (#88, #89, #90, #91), (#92, #93, #94, #95)), .UNSPECIFIED., .T., .F., .U.)
   B_SPLINE_SURFACE_WITH_KNOTS ((6, 6), (4, 4), (0., 1.), (0., 1.), .UNSPECIFIED.)
   SURFACE ()
   GEOMETRIC_REPRESENTATION_ITEM ()
   RATIONAL_B_SPLINE_SURFACE (((5., 5., 5., 5.), (1., 1., 1., 1.), (1., 1., 1., 1.), (1., 1., 1., 1.), (1., 1., 1., 1.), (5., 5., 5., 5.)))
   REPRESENTATION_ITEM ('')
);
#97 = ADVANCED_FACE ('', (#71), #96, .F.);
#98 = CARTESIAN_POINT ('', (-100., 4.75, -1.16341445918998E-15));
#99 = VERTEX_POINT ('', #98);
#100 = CARTESIAN_POINT ('', (-99.75, 5., -1.22464679914735E-15));
#101 = CARTESIAN_POINT ('', (-99.8333333333335, 4.91666666666666, -1.20423601916156E-15));
#102 = CARTESIAN_POINT ('', (-99.9166666666668, 4.83333333333333, -1.18382523917577E-15));
#103 = CARTESIAN_POINT ('', (-100., 4.75, -1.16341445918998E-15));
#104 = B_SPLINE_CURVE_WITH_KNOTS ('', 3, (#100, #101, #102, #103), .UNSPECIFIED., .F., .U., (4, 4), (0., 1.), .UNSPECIFIED.);
#105 = EDGE_CURVE ('', #51, #99, #104, .T.);
#106 = ORIENTED_EDGE ('', *, *, #105, .F.);
#107 = ORIENTED_EDGE ('', *, *, #68, .T.);
#108 = ORIENTED_EDGE ('', *, *, #105, .T.);
#109 = CARTESIAN_POINT ('', (-100., 4.75, -1.16341445918998E-15));
#110 = CARTESIAN_POINT ('', (-100., 4.74999999999998, 19.));
#111 = CARTESIAN_POINT ('', (-100., -14.25, 9.49999999999997));
#112 = CARTESIAN_POINT ('', (-100., -14.25, -9.50000000000001));
#113 = CARTESIAN_POINT ('', (-100., 4.75000000000002, -19.));
#114 = CARTESIAN_POINT ('', (-100., 4.75, -1.16341445918998E-15));
#115 = (
   BOUNDED_CURVE ()
   B_SPLINE_CURVE (5, (#109, #110, #111, #112, #113, #114), .UNSPECIFIED., .T., .U.)
   B_SPLINE_CURVE_WITH_KNOTS ((6, 6), (0., 1.), .UNSPECIFIED.)
   CURVE ()
   GEOMETRIC_REPRESENTATION_ITEM ()
   RATIONAL_B_SPLINE_CURVE ((5., 1., 1., 1., 1., 5.))
   REPRESENTATION_ITEM ('')
);
#116 = EDGE_CURVE ('', #99, #99, #115, .T.);
#117 = ORIENTED_EDGE ('', *, *, #116, .F.);
#118 = EDGE_LOOP ('', (#106, #107, #108, #117));
#119 = FACE_OUTER_BOUND ('', #118, .F.);
#120 = CARTESIAN_POINT ('', (-99.75, 5., -1.22464679914735E-15));
#121 = CARTESIAN_POINT ('', (-99.8333333333335, 4.91666666666666, -1.20423601916156E-15));
#122 = CARTESIAN_POINT ('', (-99.9166666666668, 4.83333333333333, -1.18382523917577E-15));
#123 = CARTESIAN_POINT ('', (-100., 4.75, -1.16341445918998E-15));
#124 = CARTESIAN_POINT ('', (-99.75, 4.99999999999998, 20.));
#125 = CARTESIAN_POINT ('', (-99.8333333333335, 4.91666666666664, 19.6666666666666));
#126 = CARTESIAN_POINT ('', (-99.9166666666668, 4.83333333333331, 19.3333333333333));
#127 = CARTESIAN_POINT ('', (-100., 4.74999999999998, 19.));
#128 = CARTESIAN_POINT ('', (-99.75, -15., 9.99999999999997));
#129 = CARTESIAN_POINT ('', (-99.8333333333335, -14.75, 9.83333333333328));
#130 = CARTESIAN_POINT ('', (-99.9166666666668, -14.5, 9.66666666666663));
#131 = CARTESIAN_POINT ('', (-100., -14.25, 9.49999999999997));
#132 = CARTESIAN_POINT ('', (-99.75, -15., -10.));
#133 = CARTESIAN_POINT ('', (-99.8333333333335, -14.7499999999999, -9.83333333333332));
#134 = CARTESIAN_POINT ('', (-99.9166666666668, -14.5, -9.66666666666666));
#135 = CARTESIAN_POINT ('', (-100., -14.25, -9.50000000000001));
#136 = CARTESIAN_POINT ('', (-99.75, 5.00000000000002, -20.));
#137 = CARTESIAN_POINT ('', (-99.8333333333335, 4.91666666666668, -19.6666666666666));
#138 = CARTESIAN_POINT ('', (-99.9166666666668, 4.83333333333335, -19.3333333333333));
#139 = CARTESIAN_POINT ('', (-100., 4.75000000000002, -19.));
#140 = CARTESIAN_POINT ('', (-99.75, 5., -1.22464679914735E-15));
#141 = CARTESIAN_POINT ('', (-99.8333333333335, 4.91666666666666, -1.20423601916156E-15));
#142 = CARTESIAN_POINT ('', (-99.9166666666668, 4.83333333333333, -1.18382523917577E-15));
#143 = CARTESIAN_POINT ('', (-100., 4.75, -1.16341445918998E-15));
#144 = (
   BOUNDED_SURFACE ()
   B_SPLINE_SURFACE (5, 3, ((#120, #121, #122, #123), (#124, #125, #126, #127), (#128, #129, #130, #131), (#132, #133, #134, #135), (#136, #137, #138, #139), (#140, #141, #142, #143)), .UNSPECIFIED., .T., .F., .U.)
   B_SPLINE_SURFACE_WITH_KNOTS ((6, 6), (4, 4), (0., 1.), (0., 1.), .UNSPECIFIED.)
   SURFACE ()
   GEOMETRIC_REPRESENTATION_ITEM ()
   RATIONAL_B_SPLINE_SURFACE (((5., 5., 5., 5.), (1., 1., 1., 1.), (1., 1., 1., 1.), (1., 1., 1., 1.), (1., 1., 1., 1.), (5., 5., 5., 5.)))
   REPRESENTATION_ITEM ('')
);
#145 = ADVANCED_FACE ('', (#119), #144, .F.);
#146 = CARTESIAN_POINT ('', (-100., 6.12323399573677E-15, -6.12323399573677E-15));
#147 = VERTEX_POINT ('', #146);
#148 = CARTESIAN_POINT ('', (-100., 4.75, -1.16341445918998E-15));
#149 = CARTESIAN_POINT ('', (-100., 3.16666666666666, -7.75609639459986E-16));
#150 = CARTESIAN_POINT ('', (-100., 1.58333333333333, -3.87804819729993E-16));
#151 = CARTESIAN_POINT ('', (-100., 6.12323399573677E-15, -6.12323399573677E-15));
#152 = B_SPLINE_CURVE_WITH_KNOTS ('', 3, (#148, #149, #150, #151), .UNSPECIFIED., .F., .U., (4, 4), (0., 1.), .UNSPECIFIED.);
#153 = EDGE_CURVE ('', #99, #147, #152, .T.);
#154 = ORIENTED_EDGE ('', *, *, #153, .F.);
#155 = ORIENTED_EDGE ('', *, *, #116, .T.);
#156 = ORIENTED_EDGE ('', *, *, #153, .T.);
#157 = EDGE_LOOP ('', (#154, #155, #156));
#158 = FACE_OUTER_BOUND ('', #157, .F.);
#159 = CARTESIAN_POINT ('', (-100., 4.75, -1.16341445918998E-15));
#160 = CARTESIAN_POINT ('', (-100., 3.16666666666666, -7.75609639459986E-16));
#161 = CARTESIAN_POINT ('', (-100., 1.58333333333333, -3.87804819729993E-16));
#162 = CARTESIAN_POINT ('', (-100., 6.12323399573677E-15, -6.12323399573677E-15));
#163 = CARTESIAN_POINT ('', (-100., 4.74999999999998, 19.));
#164 = CARTESIAN_POINT ('', (-100., 3.16666666666664, 12.6666666666666));
#165 = CARTESIAN_POINT ('', (-100., 1.58333333333331, 6.33333333333329));
#166 = CARTESIAN_POINT ('', (-100., 6.12323399573677E-15, -6.12323399573677E-15));
#167 = CARTESIAN_POINT ('', (-100., -14.25, 9.49999999999997));
#168 = CARTESIAN_POINT ('', (-100., -9.49999999999996, 6.33333333333328));
#169 = CARTESIAN_POINT ('', (-100., -4.74999999999997, 3.16666666666662));
#170 = CARTESIAN_POINT ('', (-100., 6.12323399573677E-15, -6.12323399573677E-15));
#171 = CARTESIAN_POINT ('', (-100., -14.25, -9.50000000000001));
#172 = CARTESIAN_POINT ('', (-100., -9.49999999999994, -6.33333333333333));
#173 = CARTESIAN_POINT ('', (-100., -4.74999999999995, -3.16666666666667));
#174 = CARTESIAN_POINT ('', (-100., 6.12323399573677E-15, -6.12323399573677E-15));
#175 = CARTESIAN_POINT ('', (-100., 4.75000000000002, -19.));
#176 = CARTESIAN_POINT ('', (-100., 3.16666666666668, -12.6666666666666));
#177 = CARTESIAN_POINT ('', (-100., 1.58333333333335, -6.33333333333329));
#178 = CARTESIAN_POINT ('', (-100., 6.12323399573677E-15, -6.12323399573677E-15));
#179 = CARTESIAN_POINT ('', (-100., 4.75, -1.16341445918998E-15));
#180 = CARTESIAN_POINT ('', (-100., 3.16666666666666, -7.75609639459986E-16));
#181 = CARTESIAN_POINT ('', (-100., 1.58333333333333, -3.87804819729993E-16));
#182 = CARTESIAN_POINT ('', (-100., 6.12323399573677E-15, -6.12323399573677E-15));
#183 = (
   BOUNDED_SURFACE ()
   B_SPLINE_SURFACE (5, 3, ((#159, #160, #161, #162), (#163, #164, #165, #166), (#167, #168, #169, #170), (#171, #172, #173, #174), (#175, #176, #177, #178), (#179, #180, #181, #182)), .UNSPECIFIED., .T., .F., .U.)
   B_SPLINE_SURFACE_WITH_KNOTS ((6, 6), (4, 4), (0., 1.), (0., 1.), .UNSPECIFIED.)
   SURFACE ()
   GEOMETRIC_REPRESENTATION_ITEM ()
   RATIONAL_B_SPLINE_SURFACE (((5., 5., 5., 5.), (1., 1., 1., 1.), (1., 1., 1., 1.), (1., 1., 1., 1.), (1., 1., 1., 1.), (5., 5., 5., 5.)))
   REPRESENTATION_ITEM ('')
);
#184 = ADVANCED_FACE ('', (#158), #183, .F.);
#185 = CLOSED_SHELL ('', (#49, #97, #145, #184));
#186 = MANIFOLD_SOLID_BREP ('', #185);
#187 = (
   LENGTH_UNIT ()
   NAMED_UNIT (*)
   SI_UNIT (.MILLI., .METRE.)
);
#188 = (
   NAMED_UNIT (*)
   SI_UNIT ($, .STERADIAN.)
   SOLID_ANGLE_UNIT ()
);
#189 = (
   NAMED_UNIT (*)
   SI_UNIT ($, .RADIAN.)
   PLANE_ANGLE_UNIT ()
);
#190 = UNCERTAINTY_MEASURE_WITH_UNIT (LENGTH_MEASURE(0.001), #187, 'DISTANCE_ACCURACY_VALUE', '');
#191 = (
   GEOMETRIC_REPRESENTATION_CONTEXT (3)
   GLOBAL_UNCERTAINTY_ASSIGNED_CONTEXT ((#190))
   GLOBAL_UNIT_ASSIGNED_CONTEXT ((#187, #188, #189))
   REPRESENTATION_CONTEXT ('', '3D')
);
#192 = SHAPE_REPRESENTATION ('', (), #191);
#193 = APPLICATION_CONTEXT ('configuration controlled 3D designs of mechanical parts and assemblies');
#194 = APPLICATION_PROTOCOL_DEFINITION ('International Standard', 'config_control_design', 1997, #193);
#195 = MECHANICAL_CONTEXT ('', #193, 'mechanical');
#196 = PRODUCT ('', '', '', (#195));
#197 = PERSON_AND_ORGANIZATION_ROLE ('design_owner');
#198 = PERSON ('', '', $, $, $, $);
#199 = ORGANIZATION ($, '', '');
#200 = PERSON_AND_ORGANIZATION (#198, #199);
#201 = CC_DESIGN_PERSON_AND_ORGANIZATION_ASSIGNMENT (#200, #197, (#196));
#202 = PRODUCT_RELATED_PRODUCT_CATEGORY ('detail', $, (#196));
#203 = PRODUCT_DEFINITION_FORMATION_WITH_SPECIFIED_SOURCE ('', '', #196, .NOT_KNOWN.);
#204 = APPROVAL_STATUS ('approved');
#205 = APPROVAL (#204, '');
#206 = CALENDAR_DATE (2021, 7, 1);
#207 = COORDINATED_UNIVERSAL_TIME_OFFSET (0, $, .AHEAD.);
#208 = LOCAL_TIME (8, 28, 52., #207);
#209 = DATE_AND_TIME (#206, #208);
#210 = APPROVAL_DATE_TIME (#209, #205);
#211 = APPROVAL_ROLE ('');
#212 = PERSON ('', '', $, $, $, $);
#213 = ORGANIZATION ($, '', '');
#214 = PERSON_AND_ORGANIZATION (#212, #213);
#215 = APPROVAL_PERSON_ORGANIZATION (#214, #205, #211);
#216 = CC_DESIGN_APPROVAL (#205, (#203));
#217 = PERSON_AND_ORGANIZATION_ROLE ('creator');
#218 = PERSON ('', '', $, $, $, $);
#219 = ORGANIZATION ($, '', '');
#220 = PERSON_AND_ORGANIZATION (#218, #219);
#221 = CC_DESIGN_PERSON_AND_ORGANIZATION_ASSIGNMENT (#220, #217, (#203));
#222 = PERSON_AND_ORGANIZATION_ROLE ('part_supplier');
#223 = PERSON ('', '', $, $, $, $);
#224 = ORGANIZATION ($, '', '');
#225 = PERSON_AND_ORGANIZATION (#223, #224);
#226 = CC_DESIGN_PERSON_AND_ORGANIZATION_ASSIGNMENT (#225, #222, (#203));
#227 = SECURITY_CLASSIFICATION_LEVEL ('unclassified');
#228 = SECURITY_CLASSIFICATION ('', '', #227);
#229 = APPROVAL_STATUS ('approved');
#230 = APPROVAL (#229, '');
#231 = CALENDAR_DATE (2021, 7, 1);
#232 = COORDINATED_UNIVERSAL_TIME_OFFSET (0, $, .AHEAD.);
#233 = LOCAL_TIME (8, 28, 52., #232);
#234 = DATE_AND_TIME (#231, #233);
#235 = APPROVAL_DATE_TIME (#234, #230);
#236 = APPROVAL_ROLE ('');
#237 = PERSON ('', '', $, $, $, $);
#238 = ORGANIZATION ($, '', '');
#239 = PERSON_AND_ORGANIZATION (#237, #238);
#240 = APPROVAL_PERSON_ORGANIZATION (#239, #230, #236);
#241 = CC_DESIGN_APPROVAL (#230, (#228));
#242 = DATE_TIME_ROLE ('classification_date');
#243 = CALENDAR_DATE (2021, 7, 1);
#244 = COORDINATED_UNIVERSAL_TIME_OFFSET (0, $, .AHEAD.);
#245 = LOCAL_TIME (8, 28, 52., #244);
#246 = DATE_AND_TIME (#243, #245);
#247 = CC_DESIGN_DATE_AND_TIME_ASSIGNMENT (#246, #242, (#228));
#248 = PERSON_AND_ORGANIZATION_ROLE ('classification_officer');
#249 = PERSON ('', '', $, $, $, $);
#250 = ORGANIZATION ($, '', '');
#251 = PERSON_AND_ORGANIZATION (#249, #250);
#252 = CC_DESIGN_PERSON_AND_ORGANIZATION_ASSIGNMENT (#251, #248, (#228));
#253 = CC_DESIGN_SECURITY_CLASSIFICATION (#228, (#203));
#254 = DESIGN_CONTEXT ('', #193, 'design');
#255 = PRODUCT_DEFINITION ('', '', #203, #254);
#256 = APPROVAL_STATUS ('approved');
#257 = APPROVAL (#256, '');
#258 = CALENDAR_DATE (2021, 7, 1);
#259 = COORDINATED_UNIVERSAL_TIME_OFFSET (0, $, .AHEAD.);
#260 = LOCAL_TIME (8, 28, 52., #259);
#261 = DATE_AND_TIME (#258, #260);
#262 = APPROVAL_DATE_TIME (#261, #257);
#263 = APPROVAL_ROLE ('');
#264 = PERSON ('', '', $, $, $, $);
#265 = ORGANIZATION ($, '', '');
#266 = PERSON_AND_ORGANIZATION (#264, #265);
#267 = APPROVAL_PERSON_ORGANIZATION (#266, #257, #263);
#268 = CC_DESIGN_APPROVAL (#257, (#255));
#269 = DATE_TIME_ROLE ('creation_date');
#270 = CALENDAR_DATE (2021, 7, 1);
#271 = COORDINATED_UNIVERSAL_TIME_OFFSET (0, $, .AHEAD.);
#272 = LOCAL_TIME (8, 28, 52., #271);
#273 = DATE_AND_TIME (#270, #272);
#274 = CC_DESIGN_DATE_AND_TIME_ASSIGNMENT (#273, #269, (#255));
#275 = PERSON_AND_ORGANIZATION_ROLE ('creator');
#276 = PERSON ('', '', $, $, $, $);
#277 = ORGANIZATION ($, '', '');
#278 = PERSON_AND_ORGANIZATION (#276, #277);
#279 = CC_DESIGN_PERSON_AND_ORGANIZATION_ASSIGNMENT (#278, #275, (#255));
#280 = PRODUCT_DEFINITION_SHAPE ('', '', #255);
#281 = SHAPE_DEFINITION_REPRESENTATION (#280, #192);
#282 = SHAPE_REPRESENTATION_RELATIONSHIP ('', '', #192, #283);
#283 = ADVANCED_BREP_SHAPE_REPRESENTATION ('', (#186), #191);
ENDSEC;
END-ISO-10303-21;
