ISO-10303-21;
HEADER;
FILE_DESCRIPTION ((), '1');
FILE_NAME ('C:\\Users\\kevin\\157 Range\\157 1200-3.00RA.STP', '2021-01-07T08:40:33', ('Unknown'), ('mafordeurope'), 'OneCNC-XR7 Mill 3D Expert', 'OneCNC-XR7 Mill 3D Expert', '');
FILE_SCHEMA (('CONFIG_CONTROL_DESIGN'));
ENDSEC;

DATA;
#1 = CARTESIAN_POINT ('', (0., 0., 0.));
#2 = VERTEX_POINT ('', #1);
#3 = CARTESIAN_POINT ('', (4.93038065763132E-32, 3., -7.34788079488412E-16));
#4 = VERTEX_POINT ('', #3);
#5 = CARTESIAN_POINT ('', (0., 0., 0.));
#6 = CARTESIAN_POINT ('', (1.23259516440783E-32, 1., -2.44929359829471E-16));
#7 = CARTESIAN_POINT ('', (2.46519032881566E-32, 2., -4.89858719658941E-16));
#8 = CARTESIAN_POINT ('', (4.93038065763132E-32, 3., -7.34788079488412E-16));
#9 = B_SPLINE_CURVE_WITH_KNOTS ('', 3, (#5, #6, #7, #8), .UNSPECIFIED., .F., .U., (4, 4), (0., 1.), .UNSPECIFIED.);
#10 = EDGE_CURVE ('', #2, #4, #9, .T.);
#11 = ORIENTED_EDGE ('', *, *, #10, .F.);
#12 = ORIENTED_EDGE ('', *, *, #10, .T.);
#13 = CARTESIAN_POINT ('', (4.93038065763132E-32, 3., -7.34788079488412E-16));
#14 = CARTESIAN_POINT ('', (-7.34788079488412E-16, 3., 12.));
#15 = CARTESIAN_POINT ('', (-1.10218211923262E-15, -9., 6.));
#16 = CARTESIAN_POINT ('', (-3.67394039744206E-16, -9., -6.));
#17 = CARTESIAN_POINT ('', (7.34788079488412E-16, 3., -12.));
#18 = CARTESIAN_POINT ('', (4.93038065763132E-32, 3., -7.34788079488412E-16));
#19 = (
   BOUNDED_CURVE ()
   B_SPLINE_CURVE (5, (#13, #14, #15, #16, #17, #18), .UNSPECIFIED., .T., .U.)
   B_SPLINE_CURVE_WITH_KNOTS ((6, 6), (0., 1.), .UNSPECIFIED.)
   CURVE ()
   GEOMETRIC_REPRESENTATION_ITEM ()
   RATIONAL_B_SPLINE_CURVE ((5., 1., 1., 1., 1., 5.))
   REPRESENTATION_ITEM ('')
);
#20 = EDGE_CURVE ('', #4, #4, #19, .T.);
#21 = ORIENTED_EDGE ('', *, *, #20, .F.);
#22 = EDGE_LOOP ('', (#11, #12, #21));
#23 = FACE_OUTER_BOUND ('', #22, .F.);
#24 = CARTESIAN_POINT ('', (0., 0., 0.));
#25 = CARTESIAN_POINT ('', (1.23259516440783E-32, 1., -2.44929359829471E-16));
#26 = CARTESIAN_POINT ('', (2.46519032881566E-32, 2., -4.89858719658941E-16));
#27 = CARTESIAN_POINT ('', (4.93038065763132E-32, 3., -7.34788079488412E-16));
#28 = CARTESIAN_POINT ('', (0., 0., 0.));
#29 = CARTESIAN_POINT ('', (-2.44929359829471E-16, 1., 4.));
#30 = CARTESIAN_POINT ('', (-4.89858719658941E-16, 2., 8.));
#31 = CARTESIAN_POINT ('', (-7.34788079488412E-16, 3., 12.));
#32 = CARTESIAN_POINT ('', (0., 0., 0.));
#33 = CARTESIAN_POINT ('', (-3.67394039744206E-16, -3., 2.));
#34 = CARTESIAN_POINT ('', (-7.34788079488412E-16, -6., 4.));
#35 = CARTESIAN_POINT ('', (-1.10218211923262E-15, -9., 6.));
#36 = CARTESIAN_POINT ('', (0., 0., 0.));
#37 = CARTESIAN_POINT ('', (-1.22464679914735E-16, -3., -2.));
#38 = CARTESIAN_POINT ('', (-2.44929359829471E-16, -6., -4.));
#39 = CARTESIAN_POINT ('', (-3.67394039744206E-16, -9., -6.));
#40 = CARTESIAN_POINT ('', (0., 0., 0.));
#41 = CARTESIAN_POINT ('', (2.44929359829471E-16, 0.999999999999999, -4.));
#42 = CARTESIAN_POINT ('', (4.89858719658941E-16, 2., -8.));
#43 = CARTESIAN_POINT ('', (7.34788079488412E-16, 3., -12.));
#44 = CARTESIAN_POINT ('', (0., 0., 0.));
#45 = CARTESIAN_POINT ('', (1.23259516440783E-32, 1., -2.44929359829471E-16));
#46 = CARTESIAN_POINT ('', (2.46519032881566E-32, 2., -4.89858719658941E-16));
#47 = CARTESIAN_POINT ('', (4.93038065763132E-32, 3., -7.34788079488412E-16));
#48 = (
   BOUNDED_SURFACE ()
   B_SPLINE_SURFACE (5, 3, ((#24, #25, #26, #27), (#28, #29, #30, #31), (#32, #33, #34, #35), (#36, #37, #38, #39), (#40, #41, #42, #43), (#44, #45, #46, #47)), .UNSPECIFIED., .T., .F., .U.)
   B_SPLINE_SURFACE_WITH_KNOTS ((6, 6), (4, 4), (0., 1.), (0., 1.), .UNSPECIFIED.)
   SURFACE ()
   GEOMETRIC_REPRESENTATION_ITEM ()
   RATIONAL_B_SPLINE_SURFACE (((5., 5., 5., 5.), (1., 1., 1., 1.), (1., 1., 1., 1.), (1., 1., 1., 1.), (1., 1., 1., 1.), (5., 5., 5., 5.)))
   REPRESENTATION_ITEM ('')
);
#49 = ADVANCED_FACE ('', (#23), #48, .F.);
#50 = CARTESIAN_POINT ('', (-3., 6., -1.46957615897682E-15));
#51 = VERTEX_POINT ('', #50);
#52 = CARTESIAN_POINT ('', (4.93038065763132E-32, 3., -7.34788079488412E-16));
#53 = CARTESIAN_POINT ('', (0., 3.32776613333918, -8.15067628700958E-16));
#54 = CARTESIAN_POINT ('', (-0.0875129073392728, 3.85568476404556, -9.44370400961923E-16));
#55 = CARTESIAN_POINT ('', (-0.436645053847223, 4.62116904246167, -1.1318599752339E-15));
#56 = CARTESIAN_POINT ('', (-1.02090020810345, 5.33983709939423, -1.30788288234829E-15));
#57 = CARTESIAN_POINT ('', (-1.93877419916663, 5.87841461887293, -1.43979632941275E-15));
#58 = CARTESIAN_POINT ('', (-2.67223386666082, 6., -1.46957615897682E-15));
#59 = CARTESIAN_POINT ('', (-3., 6., -1.46957615897682E-15));
#60 = B_SPLINE_CURVE_WITH_KNOTS ('', 3, (#52, #53, #54, #55, #56, #57, #58, #59), .UNSPECIFIED., .F., .U., (4, 1, 1, 1, 1, 4), (0., 0.208662401196191, 0.33617370428258, 0.532939663384363, 0.791337598803809, 1.), .UNSPECIFIED.);
#61 = EDGE_CURVE ('', #4, #51, #60, .T.);
#62 = ORIENTED_EDGE ('', *, *, #61, .F.);
#63 = ORIENTED_EDGE ('', *, *, #20, .T.);
#64 = ORIENTED_EDGE ('', *, *, #61, .T.);
#65 = CARTESIAN_POINT ('', (-3., 6., -1.46957615897682E-15));
#66 = CARTESIAN_POINT ('', (-3., 6.00000000000001, 24.));
#67 = CARTESIAN_POINT ('', (-3., -18., 12.));
#68 = CARTESIAN_POINT ('', (-3., -18., -12.));
#69 = CARTESIAN_POINT ('', (-3., 5.99999999999999, -24.));
#70 = CARTESIAN_POINT ('', (-3., 6., -1.46957615897682E-15));
#71 = (
   BOUNDED_CURVE ()
   B_SPLINE_CURVE (5, (#65, #66, #67, #68, #69, #70), .UNSPECIFIED., .T., .U.)
   B_SPLINE_CURVE_WITH_KNOTS ((6, 6), (0., 1.), .UNSPECIFIED.)
   CURVE ()
   GEOMETRIC_REPRESENTATION_ITEM ()
   RATIONAL_B_SPLINE_CURVE ((5., 1., 1., 1., 1., 5.))
   REPRESENTATION_ITEM ('')
);
#72 = EDGE_CURVE ('', #51, #51, #71, .T.);
#73 = ORIENTED_EDGE ('', *, *, #72, .F.);
#74 = EDGE_LOOP ('', (#62, #63, #64, #73));
#75 = FACE_OUTER_BOUND ('', #74, .F.);
#76 = CARTESIAN_POINT ('', (4.93038065763132E-32, 3., -7.34788079488412E-16));
#77 = CARTESIAN_POINT ('', (0., 3.32776613333918, -8.15067628700958E-16));
#78 = CARTESIAN_POINT ('', (-0.0875129073392728, 3.85568476404556, -9.44370400961923E-16));
#79 = CARTESIAN_POINT ('', (-0.436645053847223, 4.62116904246167, -1.1318599752339E-15));
#80 = CARTESIAN_POINT ('', (-1.02090020810345, 5.33983709939423, -1.30788288234829E-15));
#81 = CARTESIAN_POINT ('', (-1.93877419916663, 5.87841461887293, -1.43979632941275E-15));
#82 = CARTESIAN_POINT ('', (-2.67223386666082, 6., -1.46957615897682E-15));
#83 = CARTESIAN_POINT ('', (-3., 6., -1.46957615897682E-15));
#84 = CARTESIAN_POINT ('', (-7.34788079488412E-16, 3., 12.));
#85 = CARTESIAN_POINT ('', (-8.15067628700958E-16, 3.32776613333918, 13.3110645333567));
#86 = CARTESIAN_POINT ('', (-0.0875129073392738, 3.85568476404556, 15.4227390561822));
#87 = CARTESIAN_POINT ('', (-0.436645053847224, 4.62116904246167, 18.4846761698467));
#88 = CARTESIAN_POINT ('', (-1.02090020810345, 5.33983709939423, 21.3593483975769));
#89 = CARTESIAN_POINT ('', (-1.93877419916663, 5.87841461887293, 23.5136584754917));
#90 = CARTESIAN_POINT ('', (-2.67223386666082, 6., 24.));
#91 = CARTESIAN_POINT ('', (-3., 6.00000000000001, 24.));
#92 = CARTESIAN_POINT ('', (-1.10218211923262E-15, -9., 6.));
#93 = CARTESIAN_POINT ('', (-1.22260144305144E-15, -9.98329840001754, 6.65553226667836));
#94 = CARTESIAN_POINT ('', (-0.0875129073392743, -11.5670542921367, 7.71136952809112));
#95 = CARTESIAN_POINT ('', (-0.436645053847224, -13.863507127385, 9.24233808492334));
#96 = CARTESIAN_POINT ('', (-1.02090020810345, -16.0195112981827, 10.6796741987885));
#97 = CARTESIAN_POINT ('', (-1.93877419916663, -17.6352438566188, 11.7568292377459));
#98 = CARTESIAN_POINT ('', (-2.67223386666082, -18., 12.));
#99 = CARTESIAN_POINT ('', (-3., -18., 12.));
#100 = CARTESIAN_POINT ('', (-3.67394039744206E-16, -9., -6.));
#101 = CARTESIAN_POINT ('', (-4.07533814350479E-16, -9.98329840001754, -6.65553226667836));
#102 = CARTESIAN_POINT ('', (-0.0875129073392733, -11.5670542921367, -7.71136952809112));
#103 = CARTESIAN_POINT ('', (-0.436645053847223, -13.863507127385, -9.24233808492333));
#104 = CARTESIAN_POINT ('', (-1.02090020810345, -16.0195112981827, -10.6796741987885));
#105 = CARTESIAN_POINT ('', (-1.93877419916663, -17.6352438566188, -11.7568292377459));
#106 = CARTESIAN_POINT ('', (-2.67223386666082, -18., -12.));
#107 = CARTESIAN_POINT ('', (-3., -18., -12.));
#108 = CARTESIAN_POINT ('', (7.34788079488412E-16, 3., -12.));
#109 = CARTESIAN_POINT ('', (8.15067628700958E-16, 3.32776613333918, -13.3110645333567));
#110 = CARTESIAN_POINT ('', (-0.0875129073392719, 3.85568476404556, -15.4227390561822));
#111 = CARTESIAN_POINT ('', (-0.436645053847222, 4.62116904246166, -18.4846761698467));
#112 = CARTESIAN_POINT ('', (-1.02090020810344, 5.33983709939422, -21.3593483975769));
#113 = CARTESIAN_POINT ('', (-1.93877419916663, 5.87841461887292, -23.5136584754917));
#114 = CARTESIAN_POINT ('', (-2.67223386666082, 5.99999999999999, -24.));
#115 = CARTESIAN_POINT ('', (-3., 5.99999999999999, -24.));
#116 = CARTESIAN_POINT ('', (4.93038065763132E-32, 3., -7.34788079488412E-16));
#117 = CARTESIAN_POINT ('', (0., 3.32776613333918, -8.15067628700958E-16));
#118 = CARTESIAN_POINT ('', (-0.0875129073392728, 3.85568476404556, -9.44370400961923E-16));
#119 = CARTESIAN_POINT ('', (-0.436645053847223, 4.62116904246167, -1.1318599752339E-15));
#120 = CARTESIAN_POINT ('', (-1.02090020810345, 5.33983709939423, -1.30788288234829E-15));
#121 = CARTESIAN_POINT ('', (-1.93877419916663, 5.87841461887293, -1.43979632941275E-15));
#122 = CARTESIAN_POINT ('', (-2.67223386666082, 6., -1.46957615897682E-15));
#123 = CARTESIAN_POINT ('', (-3., 6., -1.46957615897682E-15));
#124 = (
   BOUNDED_SURFACE ()
   B_SPLINE_SURFACE (5, 3, ((#76, #77, #78, #79, #80, #81, #82, #83), (#84, #85, #86, #87, #88, #89, #90, #91), (#92, #93, #94, #95, #96, #97, #98, #99), (#100, #101, #102, #103, #104, #105, #106, #107), (#108, #109, #110, #111, #112, #113, #114, #115), (#116, #117, #118, #119, #120, #121, #122, #123)), .UNSPECIFIED., .T., .F., .U.)
   B_SPLINE_SURFACE_WITH_KNOTS ((6, 6), (4, 1, 1, 1, 1, 4), (0., 1.), (0., 0.208662401196191, 0.33617370428258, 0.532939663384363, 0.791337598803809, 1.), .UNSPECIFIED.)
   SURFACE ()
   GEOMETRIC_REPRESENTATION_ITEM ()
   RATIONAL_B_SPLINE_SURFACE (((5., 5., 5., 5., 5., 5., 5., 5.), (1., 1., 1., 1., 1., 1., 1., 1.), (1., 1., 1., 1., 1., 1., 1., 1.), (1., 1., 1., 1., 1., 1., 1., 1.), (1., 1., 1., 1., 1., 1., 1., 1.), (5., 5., 5., 5., 5., 5., 5., 5.)))
   REPRESENTATION_ITEM ('')
);
#125 = ADVANCED_FACE ('', (#75), #124, .F.);
#126 = CARTESIAN_POINT ('', (-99.75, 6., -1.46957615897682E-15));
#127 = VERTEX_POINT ('', #126);
#128 = CARTESIAN_POINT ('', (-3., 6., -1.46957615897682E-15));
#129 = CARTESIAN_POINT ('', (-35.25, 6., -1.46957615897682E-15));
#130 = CARTESIAN_POINT ('', (-67.5, 6., -1.46957615897682E-15));
#131 = CARTESIAN_POINT ('', (-99.75, 6., -1.46957615897682E-15));
#132 = B_SPLINE_CURVE_WITH_KNOTS ('', 3, (#128, #129, #130, #131), .UNSPECIFIED., .F., .U., (4, 4), (0., 1.), .UNSPECIFIED.);
#133 = EDGE_CURVE ('', #51, #127, #132, .T.);
#134 = ORIENTED_EDGE ('', *, *, #133, .F.);
#135 = ORIENTED_EDGE ('', *, *, #72, .T.);
#136 = ORIENTED_EDGE ('', *, *, #133, .T.);
#137 = CARTESIAN_POINT ('', (-99.75, 6., -1.46957615897682E-15));
#138 = CARTESIAN_POINT ('', (-99.75, 5.99999999999998, 24.));
#139 = CARTESIAN_POINT ('', (-99.75, -18., 12.));
#140 = CARTESIAN_POINT ('', (-99.75, -18., -12.));
#141 = CARTESIAN_POINT ('', (-99.75, 6.00000000000002, -24.));
#142 = CARTESIAN_POINT ('', (-99.75, 6., -1.46957615897682E-15));
#143 = (
   BOUNDED_CURVE ()
   B_SPLINE_CURVE (5, (#137, #138, #139, #140, #141, #142), .UNSPECIFIED., .T., .U.)
   B_SPLINE_CURVE_WITH_KNOTS ((6, 6), (0., 1.), .UNSPECIFIED.)
   CURVE ()
   GEOMETRIC_REPRESENTATION_ITEM ()
   RATIONAL_B_SPLINE_CURVE ((5., 1., 1., 1., 1., 5.))
   REPRESENTATION_ITEM ('')
);
#144 = EDGE_CURVE ('', #127, #127, #143, .T.);
#145 = ORIENTED_EDGE ('', *, *, #144, .F.);
#146 = EDGE_LOOP ('', (#134, #135, #136, #145));
#147 = FACE_OUTER_BOUND ('', #146, .F.);
#148 = CARTESIAN_POINT ('', (-3., 6., -1.46957615897682E-15));
#149 = CARTESIAN_POINT ('', (-35.25, 6., -1.46957615897682E-15));
#150 = CARTESIAN_POINT ('', (-67.5, 6., -1.46957615897682E-15));
#151 = CARTESIAN_POINT ('', (-99.75, 6., -1.46957615897682E-15));
#152 = CARTESIAN_POINT ('', (-3., 6.00000000000001, 24.));
#153 = CARTESIAN_POINT ('', (-35.25, 6., 24.));
#154 = CARTESIAN_POINT ('', (-67.5, 5.99999999999999, 24.));
#155 = CARTESIAN_POINT ('', (-99.75, 5.99999999999998, 24.));
#156 = CARTESIAN_POINT ('', (-3., -18., 12.));
#157 = CARTESIAN_POINT ('', (-35.25, -18., 12.));
#158 = CARTESIAN_POINT ('', (-67.5, -18., 12.));
#159 = CARTESIAN_POINT ('', (-99.75, -18., 12.));
#160 = CARTESIAN_POINT ('', (-3., -18., -12.));
#161 = CARTESIAN_POINT ('', (-35.25, -18., -12.));
#162 = CARTESIAN_POINT ('', (-67.5, -18., -12.));
#163 = CARTESIAN_POINT ('', (-99.75, -18., -12.));
#164 = CARTESIAN_POINT ('', (-3., 5.99999999999999, -24.));
#165 = CARTESIAN_POINT ('', (-35.25, 6., -24.));
#166 = CARTESIAN_POINT ('', (-67.5, 6.00000000000001, -24.));
#167 = CARTESIAN_POINT ('', (-99.75, 6.00000000000002, -24.));
#168 = CARTESIAN_POINT ('', (-3., 6., -1.46957615897682E-15));
#169 = CARTESIAN_POINT ('', (-35.25, 6., -1.46957615897682E-15));
#170 = CARTESIAN_POINT ('', (-67.5, 6., -1.46957615897682E-15));
#171 = CARTESIAN_POINT ('', (-99.75, 6., -1.46957615897682E-15));
#172 = (
   BOUNDED_SURFACE ()
   B_SPLINE_SURFACE (5, 3, ((#148, #149, #150, #151), (#152, #153, #154, #155), (#156, #157, #158, #159), (#160, #161, #162, #163), (#164, #165, #166, #167), (#168, #169, #170, #171)), .UNSPECIFIED., .T., .F., .U.)
   B_SPLINE_SURFACE_WITH_KNOTS ((6, 6), (4, 4), (0., 1.), (0., 1.), .UNSPECIFIED.)
   SURFACE ()
   GEOMETRIC_REPRESENTATION_ITEM ()
   RATIONAL_B_SPLINE_SURFACE (((5., 5., 5., 5.), (1., 1., 1., 1.), (1., 1., 1., 1.), (1., 1., 1., 1.), (1., 1., 1., 1.), (5., 5., 5., 5.)))
   REPRESENTATION_ITEM ('')
);
#173 = ADVANCED_FACE ('', (#147), #172, .F.);
#174 = CARTESIAN_POINT ('', (-100., 5.75, -1.40834381901946E-15));
#175 = VERTEX_POINT ('', #174);
#176 = CARTESIAN_POINT ('', (-99.75, 6., -1.46957615897682E-15));
#177 = CARTESIAN_POINT ('', (-99.8333333333335, 5.91666666666664, -1.44916537899103E-15));
#178 = CARTESIAN_POINT ('', (-99.9166666666668, 5.83333333333333, -1.42875459900524E-15));
#179 = CARTESIAN_POINT ('', (-100., 5.75, -1.40834381901946E-15));
#180 = B_SPLINE_CURVE_WITH_KNOTS ('', 3, (#176, #177, #178, #179), .UNSPECIFIED., .F., .U., (4, 4), (0., 1.), .UNSPECIFIED.);
#181 = EDGE_CURVE ('', #127, #175, #180, .T.);
#182 = ORIENTED_EDGE ('', *, *, #181, .F.);
#183 = ORIENTED_EDGE ('', *, *, #144, .T.);
#184 = ORIENTED_EDGE ('', *, *, #181, .T.);
#185 = CARTESIAN_POINT ('', (-100., 5.75, -1.40834381901946E-15));
#186 = CARTESIAN_POINT ('', (-100., 5.74999999999998, 23.));
#187 = CARTESIAN_POINT ('', (-100., -17.25, 11.5));
#188 = CARTESIAN_POINT ('', (-100., -17.25, -11.5));
#189 = CARTESIAN_POINT ('', (-100., 5.75000000000002, -23.));
#190 = CARTESIAN_POINT ('', (-100., 5.75, -1.40834381901946E-15));
#191 = (
   BOUNDED_CURVE ()
   B_SPLINE_CURVE (5, (#185, #186, #187, #188, #189, #190), .UNSPECIFIED., .T., .U.)
   B_SPLINE_CURVE_WITH_KNOTS ((6, 6), (0., 1.), .UNSPECIFIED.)
   CURVE ()
   GEOMETRIC_REPRESENTATION_ITEM ()
   RATIONAL_B_SPLINE_CURVE ((5., 1., 1., 1., 1., 5.))
   REPRESENTATION_ITEM ('')
);
#192 = EDGE_CURVE ('', #175, #175, #191, .T.);
#193 = ORIENTED_EDGE ('', *, *, #192, .F.);
#194 = EDGE_LOOP ('', (#182, #183, #184, #193));
#195 = FACE_OUTER_BOUND ('', #194, .F.);
#196 = CARTESIAN_POINT ('', (-99.75, 6., -1.46957615897682E-15));
#197 = CARTESIAN_POINT ('', (-99.8333333333335, 5.91666666666664, -1.44916537899103E-15));
#198 = CARTESIAN_POINT ('', (-99.9166666666668, 5.83333333333333, -1.42875459900524E-15));
#199 = CARTESIAN_POINT ('', (-100., 5.75, -1.40834381901946E-15));
#200 = CARTESIAN_POINT ('', (-99.75, 5.99999999999998, 24.));
#201 = CARTESIAN_POINT ('', (-99.8333333333335, 5.91666666666662, 23.6666666666665));
#202 = CARTESIAN_POINT ('', (-99.9166666666668, 5.83333333333331, 23.3333333333333));
#203 = CARTESIAN_POINT ('', (-100., 5.74999999999998, 23.));
#204 = CARTESIAN_POINT ('', (-99.75, -18., 12.));
#205 = CARTESIAN_POINT ('', (-99.8333333333335, -17.7499999999999, 11.8333333333333));
#206 = CARTESIAN_POINT ('', (-99.9166666666668, -17.5, 11.6666666666666));
#207 = CARTESIAN_POINT ('', (-100., -17.25, 11.5));
#208 = CARTESIAN_POINT ('', (-99.75, -18., -12.));
#209 = CARTESIAN_POINT ('', (-99.8333333333335, -17.7499999999999, -11.8333333333333));
#210 = CARTESIAN_POINT ('', (-99.9166666666668, -17.4999999999999, -11.6666666666667));
#211 = CARTESIAN_POINT ('', (-100., -17.25, -11.5));
#212 = CARTESIAN_POINT ('', (-99.75, 6.00000000000002, -24.));
#213 = CARTESIAN_POINT ('', (-99.8333333333335, 5.91666666666666, -23.6666666666666));
#214 = CARTESIAN_POINT ('', (-99.9166666666668, 5.83333333333334, -23.3333333333333));
#215 = CARTESIAN_POINT ('', (-100., 5.75000000000002, -23.));
#216 = CARTESIAN_POINT ('', (-99.75, 6., -1.46957615897682E-15));
#217 = CARTESIAN_POINT ('', (-99.8333333333335, 5.91666666666664, -1.44916537899103E-15));
#218 = CARTESIAN_POINT ('', (-99.9166666666668, 5.83333333333333, -1.42875459900524E-15));
#219 = CARTESIAN_POINT ('', (-100., 5.75, -1.40834381901946E-15));
#220 = (
   BOUNDED_SURFACE ()
   B_SPLINE_SURFACE (5, 3, ((#196, #197, #198, #199), (#200, #201, #202, #203), (#204, #205, #206, #207), (#208, #209, #210, #211), (#212, #213, #214, #215), (#216, #217, #218, #219)), .UNSPECIFIED., .T., .F., .U.)
   B_SPLINE_SURFACE_WITH_KNOTS ((6, 6), (4, 4), (0., 1.), (0., 1.), .UNSPECIFIED.)
   SURFACE ()
   GEOMETRIC_REPRESENTATION_ITEM ()
   RATIONAL_B_SPLINE_SURFACE (((5., 5., 5., 5.), (1., 1., 1., 1.), (1., 1., 1., 1.), (1., 1., 1., 1.), (1., 1., 1., 1.), (5., 5., 5., 5.)))
   REPRESENTATION_ITEM ('')
);
#221 = ADVANCED_FACE ('', (#195), #220, .F.);
#222 = CARTESIAN_POINT ('', (-100., 6.12323399573677E-15, -6.12323399573677E-15));
#223 = VERTEX_POINT ('', #222);
#224 = CARTESIAN_POINT ('', (-100., 5.75, -1.40834381901946E-15));
#225 = CARTESIAN_POINT ('', (-99.9999999999999, 3.83333333333335, -9.38895879346305E-16));
#226 = CARTESIAN_POINT ('', (-99.9999999999999, 1.91666666666666, -4.69447939673149E-16));
#227 = CARTESIAN_POINT ('', (-100., 6.12323399573677E-15, -6.12323399573677E-15));
#228 = B_SPLINE_CURVE_WITH_KNOTS ('', 3, (#224, #225, #226, #227), .UNSPECIFIED., .F., .U., (4, 4), (0., 1.), .UNSPECIFIED.);
#229 = EDGE_CURVE ('', #175, #223, #228, .T.);
#230 = ORIENTED_EDGE ('', *, *, #229, .F.);
#231 = ORIENTED_EDGE ('', *, *, #192, .T.);
#232 = ORIENTED_EDGE ('', *, *, #229, .T.);
#233 = EDGE_LOOP ('', (#230, #231, #232));
#234 = FACE_OUTER_BOUND ('', #233, .F.);
#235 = CARTESIAN_POINT ('', (-100., 5.75, -1.40834381901946E-15));
#236 = CARTESIAN_POINT ('', (-99.9999999999999, 3.83333333333335, -9.38895879346305E-16));
#237 = CARTESIAN_POINT ('', (-99.9999999999999, 1.91666666666666, -4.69447939673149E-16));
#238 = CARTESIAN_POINT ('', (-100., 6.12323399573677E-15, -6.12323399573677E-15));
#239 = CARTESIAN_POINT ('', (-100., 5.74999999999998, 23.));
#240 = CARTESIAN_POINT ('', (-99.9999999999999, 3.83333333333333, 15.3333333333334));
#241 = CARTESIAN_POINT ('', (-99.9999999999999, 1.91666666666664, 7.66666666666662));
#242 = CARTESIAN_POINT ('', (-100., 6.12323399573677E-15, -6.12323399573677E-15));
#243 = CARTESIAN_POINT ('', (-100., -17.25, 11.5));
#244 = CARTESIAN_POINT ('', (-99.9999999999999, -11.5, 7.66666666666666));
#245 = CARTESIAN_POINT ('', (-99.9999999999999, -5.74999999999997, 3.83333333333329));
#246 = CARTESIAN_POINT ('', (-100., 6.12323399573677E-15, -6.12323399573677E-15));
#247 = CARTESIAN_POINT ('', (-100., -17.25, -11.5));
#248 = CARTESIAN_POINT ('', (-99.9999999999999, -11.5, -7.6666666666667));
#249 = CARTESIAN_POINT ('', (-99.9999999999999, -5.74999999999995, -3.83333333333334));
#250 = CARTESIAN_POINT ('', (-100., 6.12323399573677E-15, -6.12323399573677E-15));
#251 = CARTESIAN_POINT ('', (-100., 5.75000000000002, -23.));
#252 = CARTESIAN_POINT ('', (-99.9999999999999, 3.83333333333337, -15.3333333333334));
#253 = CARTESIAN_POINT ('', (-99.9999999999999, 1.91666666666669, -7.66666666666663));
#254 = CARTESIAN_POINT ('', (-100., 6.12323399573677E-15, -6.12323399573677E-15));
#255 = CARTESIAN_POINT ('', (-100., 5.75, -1.40834381901946E-15));
#256 = CARTESIAN_POINT ('', (-99.9999999999999, 3.83333333333335, -9.38895879346305E-16));
#257 = CARTESIAN_POINT ('', (-99.9999999999999, 1.91666666666666, -4.69447939673149E-16));
#258 = CARTESIAN_POINT ('', (-100., 6.12323399573677E-15, -6.12323399573677E-15));
#259 = (
   BOUNDED_SURFACE ()
   B_SPLINE_SURFACE (5, 3, ((#235, #236, #237, #238), (#239, #240, #241, #242), (#243, #244, #245, #246), (#247, #248, #249, #250), (#251, #252, #253, #254), (#255, #256, #257, #258)), .UNSPECIFIED., .T., .F., .U.)
   B_SPLINE_SURFACE_WITH_KNOTS ((6, 6), (4, 4), (0., 1.), (0., 1.), .UNSPECIFIED.)
   SURFACE ()
   GEOMETRIC_REPRESENTATION_ITEM ()
   RATIONAL_B_SPLINE_SURFACE (((5., 5., 5., 5.), (1., 1., 1., 1.), (1., 1., 1., 1.), (1., 1., 1., 1.), (1., 1., 1., 1.), (5., 5., 5., 5.)))
   REPRESENTATION_ITEM ('')
);
#260 = ADVANCED_FACE ('', (#234), #259, .F.);
#261 = CLOSED_SHELL ('', (#49, #125, #173, #221, #260));
#262 = MANIFOLD_SOLID_BREP ('', #261);
#263 = (
   LENGTH_UNIT ()
   NAMED_UNIT (*)
   SI_UNIT (.MILLI., .METRE.)
);
#264 = (
   NAMED_UNIT (*)
   SI_UNIT ($, .STERADIAN.)
   SOLID_ANGLE_UNIT ()
);
#265 = (
   NAMED_UNIT (*)
   SI_UNIT ($, .RADIAN.)
   PLANE_ANGLE_UNIT ()
);
#266 = UNCERTAINTY_MEASURE_WITH_UNIT (LENGTH_MEASURE(0.001), #263, 'DISTANCE_ACCURACY_VALUE', '');
#267 = (
   GEOMETRIC_REPRESENTATION_CONTEXT (3)
   GLOBAL_UNCERTAINTY_ASSIGNED_CONTEXT ((#266))
   GLOBAL_UNIT_ASSIGNED_CONTEXT ((#263, #264, #265))
   REPRESENTATION_CONTEXT ('', '3D')
);
#268 = SHAPE_REPRESENTATION ('', (), #267);
#269 = APPLICATION_CONTEXT ('configuration controlled 3D designs of mechanical parts and assemblies');
#270 = APPLICATION_PROTOCOL_DEFINITION ('International Standard', 'config_control_design', 1997, #269);
#271 = MECHANICAL_CONTEXT ('', #269, 'mechanical');
#272 = PRODUCT ('', '', '', (#271));
#273 = PERSON_AND_ORGANIZATION_ROLE ('design_owner');
#274 = PERSON ('', '', $, $, $, $);
#275 = ORGANIZATION ($, '', '');
#276 = PERSON_AND_ORGANIZATION (#274, #275);
#277 = CC_DESIGN_PERSON_AND_ORGANIZATION_ASSIGNMENT (#276, #273, (#272));
#278 = PRODUCT_RELATED_PRODUCT_CATEGORY ('detail', $, (#272));
#279 = PRODUCT_DEFINITION_FORMATION_WITH_SPECIFIED_SOURCE ('', '', #272, .NOT_KNOWN.);
#280 = APPROVAL_STATUS ('approved');
#281 = APPROVAL (#280, '');
#282 = CALENDAR_DATE (2021, 7, 1);
#283 = COORDINATED_UNIVERSAL_TIME_OFFSET (0, $, .AHEAD.);
#284 = LOCAL_TIME (8, 40, 33., #283);
#285 = DATE_AND_TIME (#282, #284);
#286 = APPROVAL_DATE_TIME (#285, #281);
#287 = APPROVAL_ROLE ('');
#288 = PERSON ('', '', $, $, $, $);
#289 = ORGANIZATION ($, '', '');
#290 = PERSON_AND_ORGANIZATION (#288, #289);
#291 = APPROVAL_PERSON_ORGANIZATION (#290, #281, #287);
#292 = CC_DESIGN_APPROVAL (#281, (#279));
#293 = PERSON_AND_ORGANIZATION_ROLE ('creator');
#294 = PERSON ('', '', $, $, $, $);
#295 = ORGANIZATION ($, '', '');
#296 = PERSON_AND_ORGANIZATION (#294, #295);
#297 = CC_DESIGN_PERSON_AND_ORGANIZATION_ASSIGNMENT (#296, #293, (#279));
#298 = PERSON_AND_ORGANIZATION_ROLE ('part_supplier');
#299 = PERSON ('', '', $, $, $, $);
#300 = ORGANIZATION ($, '', '');
#301 = PERSON_AND_ORGANIZATION (#299, #300);
#302 = CC_DESIGN_PERSON_AND_ORGANIZATION_ASSIGNMENT (#301, #298, (#279));
#303 = SECURITY_CLASSIFICATION_LEVEL ('unclassified');
#304 = SECURITY_CLASSIFICATION ('', '', #303);
#305 = APPROVAL_STATUS ('approved');
#306 = APPROVAL (#305, '');
#307 = CALENDAR_DATE (2021, 7, 1);
#308 = COORDINATED_UNIVERSAL_TIME_OFFSET (0, $, .AHEAD.);
#309 = LOCAL_TIME (8, 40, 33., #308);
#310 = DATE_AND_TIME (#307, #309);
#311 = APPROVAL_DATE_TIME (#310, #306);
#312 = APPROVAL_ROLE ('');
#313 = PERSON ('', '', $, $, $, $);
#314 = ORGANIZATION ($, '', '');
#315 = PERSON_AND_ORGANIZATION (#313, #314);
#316 = APPROVAL_PERSON_ORGANIZATION (#315, #306, #312);
#317 = CC_DESIGN_APPROVAL (#306, (#304));
#318 = DATE_TIME_ROLE ('classification_date');
#319 = CALENDAR_DATE (2021, 7, 1);
#320 = COORDINATED_UNIVERSAL_TIME_OFFSET (0, $, .AHEAD.);
#321 = LOCAL_TIME (8, 40, 33., #320);
#322 = DATE_AND_TIME (#319, #321);
#323 = CC_DESIGN_DATE_AND_TIME_ASSIGNMENT (#322, #318, (#304));
#324 = PERSON_AND_ORGANIZATION_ROLE ('classification_officer');
#325 = PERSON ('', '', $, $, $, $);
#326 = ORGANIZATION ($, '', '');
#327 = PERSON_AND_ORGANIZATION (#325, #326);
#328 = CC_DESIGN_PERSON_AND_ORGANIZATION_ASSIGNMENT (#327, #324, (#304));
#329 = CC_DESIGN_SECURITY_CLASSIFICATION (#304, (#279));
#330 = DESIGN_CONTEXT ('', #269, 'design');
#331 = PRODUCT_DEFINITION ('', '', #279, #330);
#332 = APPROVAL_STATUS ('approved');
#333 = APPROVAL (#332, '');
#334 = CALENDAR_DATE (2021, 7, 1);
#335 = COORDINATED_UNIVERSAL_TIME_OFFSET (0, $, .AHEAD.);
#336 = LOCAL_TIME (8, 40, 33., #335);
#337 = DATE_AND_TIME (#334, #336);
#338 = APPROVAL_DATE_TIME (#337, #333);
#339 = APPROVAL_ROLE ('');
#340 = PERSON ('', '', $, $, $, $);
#341 = ORGANIZATION ($, '', '');
#342 = PERSON_AND_ORGANIZATION (#340, #341);
#343 = APPROVAL_PERSON_ORGANIZATION (#342, #333, #339);
#344 = CC_DESIGN_APPROVAL (#333, (#331));
#345 = DATE_TIME_ROLE ('creation_date');
#346 = CALENDAR_DATE (2021, 7, 1);
#347 = COORDINATED_UNIVERSAL_TIME_OFFSET (0, $, .AHEAD.);
#348 = LOCAL_TIME (8, 40, 33., #347);
#349 = DATE_AND_TIME (#346, #348);
#350 = CC_DESIGN_DATE_AND_TIME_ASSIGNMENT (#349, #345, (#331));
#351 = PERSON_AND_ORGANIZATION_ROLE ('creator');
#352 = PERSON ('', '', $, $, $, $);
#353 = ORGANIZATION ($, '', '');
#354 = PERSON_AND_ORGANIZATION (#352, #353);
#355 = CC_DESIGN_PERSON_AND_ORGANIZATION_ASSIGNMENT (#354, #351, (#331));
#356 = PRODUCT_DEFINITION_SHAPE ('', '', #331);
#357 = SHAPE_DEFINITION_REPRESENTATION (#356, #268);
#358 = SHAPE_REPRESENTATION_RELATIONSHIP ('', '', #268, #359);
#359 = ADVANCED_BREP_SHAPE_REPRESENTATION ('', (#262), #267);
ENDSEC;
END-ISO-10303-21;
