ISO-10303-21;
HEADER;
FILE_DESCRIPTION ((), '1');
FILE_NAME ('C:\\Users\\kevin\\157 Range\\157 1600-0.50RA.STP', '2021-01-07T08:43:33', ('Unknown'), ('mafordeurope'), 'OneCNC-XR7 Mill 3D Expert', 'OneCNC-XR7 Mill 3D Expert', '');
FILE_SCHEMA (('CONFIG_CONTROL_DESIGN'));
ENDSEC;

DATA;
#1 = CARTESIAN_POINT ('', (0., 0., 0.));
#2 = VERTEX_POINT ('', #1);
#3 = CARTESIAN_POINT ('', (9.86076131526265E-32, 7.5, -1.83697019872103E-15));
#4 = VERTEX_POINT ('', #3);
#5 = CARTESIAN_POINT ('', (0., 0., 0.));
#6 = CARTESIAN_POINT ('', (4.93038065763132E-32, 2.5, -6.12323399573677E-16));
#7 = CARTESIAN_POINT ('', (9.86076131526265E-32, 4.99999999999999, -1.22464679914735E-15));
#8 = CARTESIAN_POINT ('', (9.86076131526265E-32, 7.5, -1.83697019872103E-15));
#9 = B_SPLINE_CURVE_WITH_KNOTS ('', 3, (#5, #6, #7, #8), .UNSPECIFIED., .F., .U., (4, 4), (0., 1.), .UNSPECIFIED.);
#10 = EDGE_CURVE ('', #2, #4, #9, .T.);
#11 = ORIENTED_EDGE ('', *, *, #10, .F.);
#12 = ORIENTED_EDGE ('', *, *, #10, .T.);
#13 = CARTESIAN_POINT ('', (9.86076131526265E-32, 7.5, -1.83697019872103E-15));
#14 = CARTESIAN_POINT ('', (-1.83697019872103E-15, 7.50000000000001, 30.));
#15 = CARTESIAN_POINT ('', (-2.75545529808154E-15, -22.5, 15.));
#16 = CARTESIAN_POINT ('', (-9.18485099360516E-16, -22.5, -15.));
#17 = CARTESIAN_POINT ('', (1.83697019872103E-15, 7.49999999999999, -30.));
#18 = CARTESIAN_POINT ('', (9.86076131526265E-32, 7.5, -1.83697019872103E-15));
#19 = (
   BOUNDED_CURVE ()
   B_SPLINE_CURVE (5, (#13, #14, #15, #16, #17, #18), .UNSPECIFIED., .T., .U.)
   B_SPLINE_CURVE_WITH_KNOTS ((6, 6), (0., 1.), .UNSPECIFIED.)
   CURVE ()
   GEOMETRIC_REPRESENTATION_ITEM ()
   RATIONAL_B_SPLINE_CURVE ((5., 1., 1., 1., 1., 5.))
   REPRESENTATION_ITEM ('')
);
#20 = EDGE_CURVE ('', #4, #4, #19, .T.);
#21 = ORIENTED_EDGE ('', *, *, #20, .F.);
#22 = EDGE_LOOP ('', (#11, #12, #21));
#23 = FACE_OUTER_BOUND ('', #22, .F.);
#24 = CARTESIAN_POINT ('', (0., 0., 0.));
#25 = CARTESIAN_POINT ('', (4.93038065763132E-32, 2.5, -6.12323399573677E-16));
#26 = CARTESIAN_POINT ('', (9.86076131526265E-32, 4.99999999999999, -1.22464679914735E-15));
#27 = CARTESIAN_POINT ('', (9.86076131526265E-32, 7.5, -1.83697019872103E-15));
#28 = CARTESIAN_POINT ('', (0., 0., 0.));
#29 = CARTESIAN_POINT ('', (-6.12323399573676E-16, 2.5, 10.));
#30 = CARTESIAN_POINT ('', (-1.22464679914735E-15, 4.99999999999999, 19.9999999999999));
#31 = CARTESIAN_POINT ('', (-1.83697019872103E-15, 7.50000000000001, 30.));
#32 = CARTESIAN_POINT ('', (0., 0., 0.));
#33 = CARTESIAN_POINT ('', (-9.18485099360515E-16, -7.5, 5.));
#34 = CARTESIAN_POINT ('', (-1.83697019872102E-15, -15., 9.99999999999998));
#35 = CARTESIAN_POINT ('', (-2.75545529808154E-15, -22.5, 15.));
#36 = CARTESIAN_POINT ('', (0., 0., 0.));
#37 = CARTESIAN_POINT ('', (-3.06161699786838E-16, -7.5, -5.));
#38 = CARTESIAN_POINT ('', (-6.12323399573675E-16, -15., -9.99999999999997));
#39 = CARTESIAN_POINT ('', (-9.18485099360516E-16, -22.5, -15.));
#40 = CARTESIAN_POINT ('', (0., 0., 0.));
#41 = CARTESIAN_POINT ('', (6.12323399573677E-16, 2.5, -10.));
#42 = CARTESIAN_POINT ('', (1.22464679914735E-15, 4.99999999999998, -19.9999999999999));
#43 = CARTESIAN_POINT ('', (1.83697019872103E-15, 7.49999999999999, -30.));
#44 = CARTESIAN_POINT ('', (0., 0., 0.));
#45 = CARTESIAN_POINT ('', (4.93038065763132E-32, 2.5, -6.12323399573677E-16));
#46 = CARTESIAN_POINT ('', (9.86076131526265E-32, 4.99999999999999, -1.22464679914735E-15));
#47 = CARTESIAN_POINT ('', (9.86076131526265E-32, 7.5, -1.83697019872103E-15));
#48 = (
   BOUNDED_SURFACE ()
   B_SPLINE_SURFACE (5, 3, ((#24, #25, #26, #27), (#28, #29, #30, #31), (#32, #33, #34, #35), (#36, #37, #38, #39), (#40, #41, #42, #43), (#44, #45, #46, #47)), .UNSPECIFIED., .T., .F., .U.)
   B_SPLINE_SURFACE_WITH_KNOTS ((6, 6), (4, 4), (0., 1.), (0., 1.), .UNSPECIFIED.)
   SURFACE ()
   GEOMETRIC_REPRESENTATION_ITEM ()
   RATIONAL_B_SPLINE_SURFACE (((5., 5., 5., 5.), (1., 1., 1., 1.), (1., 1., 1., 1.), (1., 1., 1., 1.), (1., 1., 1., 1.), (5., 5., 5., 5.)))
   REPRESENTATION_ITEM ('')
);
#49 = ADVANCED_FACE ('', (#23), #48, .F.);
#50 = CARTESIAN_POINT ('', (-0.5, 8., -1.95943487863577E-15));
#51 = VERTEX_POINT ('', #50);
#52 = CARTESIAN_POINT ('', (9.86076131526265E-32, 7.5, -1.83697019872103E-15));
#53 = CARTESIAN_POINT ('', (9.86076131526265E-32, 7.58801006997535, -1.85852644881864E-15));
#54 = CARTESIAN_POINT ('', (-0.0379028087976897, 7.72730101693357, -1.89264289128716E-15));
#55 = CARTESIAN_POINT ('', (-0.205021401527423, 7.93286667337575, -1.94299195592246E-15));
#56 = CARTESIAN_POINT ('', (-0.377723889808762, 8., -1.95943487863577E-15));
#57 = CARTESIAN_POINT ('', (-0.5, 8., -1.95943487863577E-15));
#58 = B_SPLINE_CURVE_WITH_KNOTS ('', 3, (#52, #53, #54, #55, #56, #57), .UNSPECIFIED., .F., .U., (4, 1, 1, 4), (0., 0.33617370428258, 0.532939663384363, 1.), .UNSPECIFIED.);
#59 = EDGE_CURVE ('', #4, #51, #58, .T.);
#60 = ORIENTED_EDGE ('', *, *, #59, .F.);
#61 = ORIENTED_EDGE ('', *, *, #20, .T.);
#62 = ORIENTED_EDGE ('', *, *, #59, .T.);
#63 = CARTESIAN_POINT ('', (-0.5, 8., -1.95943487863577E-15));
#64 = CARTESIAN_POINT ('', (-0.500000000000002, 8.00000000000001, 32.));
#65 = CARTESIAN_POINT ('', (-0.500000000000003, -24., 16.));
#66 = CARTESIAN_POINT ('', (-0.500000000000001, -24., -16.));
#67 = CARTESIAN_POINT ('', (-0.499999999999998, 7.99999999999999, -32.));
#68 = CARTESIAN_POINT ('', (-0.5, 8., -1.95943487863577E-15));
#69 = (
   BOUNDED_CURVE ()
   B_SPLINE_CURVE (5, (#63, #64, #65, #66, #67, #68), .UNSPECIFIED., .T., .U.)
   B_SPLINE_CURVE_WITH_KNOTS ((6, 6), (0., 1.), .UNSPECIFIED.)
   CURVE ()
   GEOMETRIC_REPRESENTATION_ITEM ()
   RATIONAL_B_SPLINE_CURVE ((5., 1., 1., 1., 1., 5.))
   REPRESENTATION_ITEM ('')
);
#70 = EDGE_CURVE ('', #51, #51, #69, .T.);
#71 = ORIENTED_EDGE ('', *, *, #70, .F.);
#72 = EDGE_LOOP ('', (#60, #61, #62, #71));
#73 = FACE_OUTER_BOUND ('', #72, .F.);
#74 = CARTESIAN_POINT ('', (9.86076131526265E-32, 7.5, -1.83697019872103E-15));
#75 = CARTESIAN_POINT ('', (9.86076131526265E-32, 7.58801006997535, -1.85852644881864E-15));
#76 = CARTESIAN_POINT ('', (-0.0379028087976897, 7.72730101693357, -1.89264289128716E-15));
#77 = CARTESIAN_POINT ('', (-0.205021401527423, 7.93286667337575, -1.94299195592246E-15));
#78 = CARTESIAN_POINT ('', (-0.377723889808762, 8., -1.95943487863577E-15));
#79 = CARTESIAN_POINT ('', (-0.5, 8., -1.95943487863577E-15));
#80 = CARTESIAN_POINT ('', (-1.83697019872103E-15, 7.50000000000001, 30.));
#81 = CARTESIAN_POINT ('', (-1.85852644881864E-15, 7.58801006997536, 30.3520402799014));
#82 = CARTESIAN_POINT ('', (-0.0379028087976916, 7.72730101693357, 30.9092040677343));
#83 = CARTESIAN_POINT ('', (-0.205021401527425, 7.93286667337576, 31.731466693503));
#84 = CARTESIAN_POINT ('', (-0.377723889808764, 8.00000000000001, 32.));
#85 = CARTESIAN_POINT ('', (-0.500000000000002, 8.00000000000001, 32.));
#86 = CARTESIAN_POINT ('', (-2.75545529808154E-15, -22.5, 15.));
#87 = CARTESIAN_POINT ('', (-2.78778967322796E-15, -22.7640302099261, 15.1760201399507));
#88 = CARTESIAN_POINT ('', (-0.0379028087976925, -23.1819030508007, 15.4546020338671));
#89 = CARTESIAN_POINT ('', (-0.205021401527426, -23.7986000201273, 15.8657333467515));
#90 = CARTESIAN_POINT ('', (-0.377723889808765, -24., 16.));
#91 = CARTESIAN_POINT ('', (-0.500000000000003, -24., 16.));
#92 = CARTESIAN_POINT ('', (-9.18485099360516E-16, -22.5, -15.));
#93 = CARTESIAN_POINT ('', (-9.29263224409321E-16, -22.7640302099261, -15.1760201399507));
#94 = CARTESIAN_POINT ('', (-0.0379028087976906, -23.1819030508007, -15.4546020338671));
#95 = CARTESIAN_POINT ('', (-0.205021401527424, -23.7986000201273, -15.8657333467515));
#96 = CARTESIAN_POINT ('', (-0.377723889808763, -24., -16.));
#97 = CARTESIAN_POINT ('', (-0.500000000000001, -24., -16.));
#98 = CARTESIAN_POINT ('', (1.83697019872103E-15, 7.49999999999999, -30.));
#99 = CARTESIAN_POINT ('', (1.85852644881864E-15, 7.58801006997535, -30.3520402799014));
#100 = CARTESIAN_POINT ('', (-0.0379028087976878, 7.72730101693356, -30.9092040677343));
#101 = CARTESIAN_POINT ('', (-0.205021401527421, 7.93286667337574, -31.731466693503));
#102 = CARTESIAN_POINT ('', (-0.37772388980876, 7.99999999999999, -32.));
#103 = CARTESIAN_POINT ('', (-0.499999999999998, 7.99999999999999, -32.));
#104 = CARTESIAN_POINT ('', (9.86076131526265E-32, 7.5, -1.83697019872103E-15));
#105 = CARTESIAN_POINT ('', (9.86076131526265E-32, 7.58801006997535, -1.85852644881864E-15));
#106 = CARTESIAN_POINT ('', (-0.0379028087976897, 7.72730101693357, -1.89264289128716E-15));
#107 = CARTESIAN_POINT ('', (-0.205021401527423, 7.93286667337575, -1.94299195592246E-15));
#108 = CARTESIAN_POINT ('', (-0.377723889808762, 8., -1.95943487863577E-15));
#109 = CARTESIAN_POINT ('', (-0.5, 8., -1.95943487863577E-15));
#110 = (
   BOUNDED_SURFACE ()
   B_SPLINE_SURFACE (5, 3, ((#74, #75, #76, #77, #78, #79), (#80, #81, #82, #83, #84, #85), (#86, #87, #88, #89, #90, #91), (#92, #93, #94, #95, #96, #97), (#98, #99, #100, #101, #102, #103), (#104, #105, #106, #107, #108, #109)), .UNSPECIFIED., .T., .F., .U.)
   B_SPLINE_SURFACE_WITH_KNOTS ((6, 6), (4, 1, 1, 4), (0., 1.), (0., 0.33617370428258, 0.532939663384363, 1.), .UNSPECIFIED.)
   SURFACE ()
   GEOMETRIC_REPRESENTATION_ITEM ()
   RATIONAL_B_SPLINE_SURFACE (((5., 5., 5., 5., 5., 5.), (1., 1., 1., 1., 1., 1.), (1., 1., 1., 1., 1., 1.), (1., 1., 1., 1., 1., 1.), (1., 1., 1., 1., 1., 1.), (5., 5., 5., 5., 5., 5.)))
   REPRESENTATION_ITEM ('')
);
#111 = ADVANCED_FACE ('', (#73), #110, .F.);
#112 = CARTESIAN_POINT ('', (-149.75, 8., -1.95943487863576E-15));
#113 = VERTEX_POINT ('', #112);
#114 = CARTESIAN_POINT ('', (-0.5, 8., -1.95943487863577E-15));
#115 = CARTESIAN_POINT ('', (-50.25, 8., -1.95943487863576E-15));
#116 = CARTESIAN_POINT ('', (-100., 8., -1.95943487863576E-15));
#117 = CARTESIAN_POINT ('', (-149.75, 8., -1.95943487863576E-15));
#118 = B_SPLINE_CURVE_WITH_KNOTS ('', 3, (#114, #115, #116, #117), .UNSPECIFIED., .F., .U., (4, 4), (0., 1.), .UNSPECIFIED.);
#119 = EDGE_CURVE ('', #51, #113, #118, .T.);
#120 = ORIENTED_EDGE ('', *, *, #119, .F.);
#121 = ORIENTED_EDGE ('', *, *, #70, .T.);
#122 = ORIENTED_EDGE ('', *, *, #119, .T.);
#123 = CARTESIAN_POINT ('', (-149.75, 8., -1.95943487863576E-15));
#124 = CARTESIAN_POINT ('', (-149.75, 7.99999999999997, 32.));
#125 = CARTESIAN_POINT ('', (-149.75, -24., 16.));
#126 = CARTESIAN_POINT ('', (-149.75, -23.9999999999999, -16.));
#127 = CARTESIAN_POINT ('', (-149.75, 8.00000000000003, -32.));
#128 = CARTESIAN_POINT ('', (-149.75, 8., -1.95943487863576E-15));
#129 = (
   BOUNDED_CURVE ()
   B_SPLINE_CURVE (5, (#123, #124, #125, #126, #127, #128), .UNSPECIFIED., .T., .U.)
   B_SPLINE_CURVE_WITH_KNOTS ((6, 6), (0., 1.), .UNSPECIFIED.)
   CURVE ()
   GEOMETRIC_REPRESENTATION_ITEM ()
   RATIONAL_B_SPLINE_CURVE ((5., 1., 1., 1., 1., 5.))
   REPRESENTATION_ITEM ('')
);
#130 = EDGE_CURVE ('', #113, #113, #129, .T.);
#131 = ORIENTED_EDGE ('', *, *, #130, .F.);
#132 = EDGE_LOOP ('', (#120, #121, #122, #131));
#133 = FACE_OUTER_BOUND ('', #132, .F.);
#134 = CARTESIAN_POINT ('', (-0.5, 8., -1.95943487863577E-15));
#135 = CARTESIAN_POINT ('', (-50.25, 8., -1.95943487863576E-15));
#136 = CARTESIAN_POINT ('', (-100., 8., -1.95943487863576E-15));
#137 = CARTESIAN_POINT ('', (-149.75, 8., -1.95943487863576E-15));
#138 = CARTESIAN_POINT ('', (-0.500000000000002, 8.00000000000001, 32.));
#139 = CARTESIAN_POINT ('', (-50.25, 8., 32.));
#140 = CARTESIAN_POINT ('', (-100., 7.99999999999998, 32.));
#141 = CARTESIAN_POINT ('', (-149.75, 7.99999999999997, 32.));
#142 = CARTESIAN_POINT ('', (-0.500000000000003, -24., 16.));
#143 = CARTESIAN_POINT ('', (-50.25, -24., 16.));
#144 = CARTESIAN_POINT ('', (-100., -24., 16.));
#145 = CARTESIAN_POINT ('', (-149.75, -24., 16.));
#146 = CARTESIAN_POINT ('', (-0.500000000000001, -24., -16.));
#147 = CARTESIAN_POINT ('', (-50.25, -24., -16.));
#148 = CARTESIAN_POINT ('', (-100., -24., -16.));
#149 = CARTESIAN_POINT ('', (-149.75, -23.9999999999999, -16.));
#150 = CARTESIAN_POINT ('', (-0.499999999999998, 7.99999999999999, -32.));
#151 = CARTESIAN_POINT ('', (-50.25, 8.00000000000001, -32.));
#152 = CARTESIAN_POINT ('', (-100., 8.00000000000002, -32.));
#153 = CARTESIAN_POINT ('', (-149.75, 8.00000000000003, -32.));
#154 = CARTESIAN_POINT ('', (-0.5, 8., -1.95943487863577E-15));
#155 = CARTESIAN_POINT ('', (-50.25, 8., -1.95943487863576E-15));
#156 = CARTESIAN_POINT ('', (-100., 8., -1.95943487863576E-15));
#157 = CARTESIAN_POINT ('', (-149.75, 8., -1.95943487863576E-15));
#158 = (
   BOUNDED_SURFACE ()
   B_SPLINE_SURFACE (5, 3, ((#134, #135, #136, #137), (#138, #139, #140, #141), (#142, #143, #144, #145), (#146, #147, #148, #149), (#150, #151, #152, #153), (#154, #155, #156, #157)), .UNSPECIFIED., .T., .F., .U.)
   B_SPLINE_SURFACE_WITH_KNOTS ((6, 6), (4, 4), (0., 1.), (0., 1.), .UNSPECIFIED.)
   SURFACE ()
   GEOMETRIC_REPRESENTATION_ITEM ()
   RATIONAL_B_SPLINE_SURFACE (((5., 5., 5., 5.), (1., 1., 1., 1.), (1., 1., 1., 1.), (1., 1., 1., 1.), (1., 1., 1., 1.), (5., 5., 5., 5.)))
   REPRESENTATION_ITEM ('')
);
#159 = ADVANCED_FACE ('', (#133), #158, .F.);
#160 = CARTESIAN_POINT ('', (-150., 7.75, -1.89820253867839E-15));
#161 = VERTEX_POINT ('', #160);
#162 = CARTESIAN_POINT ('', (-149.75, 8., -1.95943487863576E-15));
#163 = CARTESIAN_POINT ('', (-149.833333333333, 7.91666666666665, -1.93902409864997E-15));
#164 = CARTESIAN_POINT ('', (-149.916666666668, 7.83333333333333, -1.91861331866418E-15));
#165 = CARTESIAN_POINT ('', (-150., 7.75, -1.89820253867839E-15));
#166 = B_SPLINE_CURVE_WITH_KNOTS ('', 3, (#162, #163, #164, #165), .UNSPECIFIED., .F., .U., (4, 4), (0., 1.), .UNSPECIFIED.);
#167 = EDGE_CURVE ('', #113, #161, #166, .T.);
#168 = ORIENTED_EDGE ('', *, *, #167, .F.);
#169 = ORIENTED_EDGE ('', *, *, #130, .T.);
#170 = ORIENTED_EDGE ('', *, *, #167, .T.);
#171 = CARTESIAN_POINT ('', (-150., 7.75, -1.89820253867839E-15));
#172 = CARTESIAN_POINT ('', (-150., 7.74999999999997, 31.));
#173 = CARTESIAN_POINT ('', (-150., -23.25, 15.5));
#174 = CARTESIAN_POINT ('', (-150., -23.2499999999999, -15.5));
#175 = CARTESIAN_POINT ('', (-150., 7.75000000000003, -31.));
#176 = CARTESIAN_POINT ('', (-150., 7.75, -1.89820253867839E-15));
#177 = (
   BOUNDED_CURVE ()
   B_SPLINE_CURVE (5, (#171, #172, #173, #174, #175, #176), .UNSPECIFIED., .T., .U.)
   B_SPLINE_CURVE_WITH_KNOTS ((6, 6), (0., 1.), .UNSPECIFIED.)
   CURVE ()
   GEOMETRIC_REPRESENTATION_ITEM ()
   RATIONAL_B_SPLINE_CURVE ((5., 1., 1., 1., 1., 5.))
   REPRESENTATION_ITEM ('')
);
#178 = EDGE_CURVE ('', #161, #161, #177, .T.);
#179 = ORIENTED_EDGE ('', *, *, #178, .F.);
#180 = EDGE_LOOP ('', (#168, #169, #170, #179));
#181 = FACE_OUTER_BOUND ('', #180, .F.);
#182 = CARTESIAN_POINT ('', (-149.75, 8., -1.95943487863576E-15));
#183 = CARTESIAN_POINT ('', (-149.833333333333, 7.91666666666665, -1.93902409864997E-15));
#184 = CARTESIAN_POINT ('', (-149.916666666668, 7.83333333333333, -1.91861331866418E-15));
#185 = CARTESIAN_POINT ('', (-150., 7.75, -1.89820253867839E-15));
#186 = CARTESIAN_POINT ('', (-149.75, 7.99999999999997, 32.));
#187 = CARTESIAN_POINT ('', (-149.833333333333, 7.91666666666662, 31.6666666666666));
#188 = CARTESIAN_POINT ('', (-149.916666666668, 7.8333333333333, 31.3333333333333));
#189 = CARTESIAN_POINT ('', (-150., 7.74999999999997, 31.));
#190 = CARTESIAN_POINT ('', (-149.75, -24., 16.));
#191 = CARTESIAN_POINT ('', (-149.833333333333, -23.7499999999999, 15.8333333333333));
#192 = CARTESIAN_POINT ('', (-149.916666666668, -23.5, 15.6666666666666));
#193 = CARTESIAN_POINT ('', (-150., -23.25, 15.5));
#194 = CARTESIAN_POINT ('', (-149.75, -23.9999999999999, -16.));
#195 = CARTESIAN_POINT ('', (-149.833333333333, -23.7499999999999, -15.8333333333333));
#196 = CARTESIAN_POINT ('', (-149.916666666668, -23.4999999999999, -15.6666666666667));
#197 = CARTESIAN_POINT ('', (-150., -23.2499999999999, -15.5));
#198 = CARTESIAN_POINT ('', (-149.75, 8.00000000000003, -32.));
#199 = CARTESIAN_POINT ('', (-149.833333333333, 7.91666666666668, -31.6666666666666));
#200 = CARTESIAN_POINT ('', (-149.916666666668, 7.83333333333336, -31.3333333333333));
#201 = CARTESIAN_POINT ('', (-150., 7.75000000000003, -31.));
#202 = CARTESIAN_POINT ('', (-149.75, 8., -1.95943487863576E-15));
#203 = CARTESIAN_POINT ('', (-149.833333333333, 7.91666666666665, -1.93902409864997E-15));
#204 = CARTESIAN_POINT ('', (-149.916666666668, 7.83333333333333, -1.91861331866418E-15));
#205 = CARTESIAN_POINT ('', (-150., 7.75, -1.89820253867839E-15));
#206 = (
   BOUNDED_SURFACE ()
   B_SPLINE_SURFACE (5, 3, ((#182, #183, #184, #185), (#186, #187, #188, #189), (#190, #191, #192, #193), (#194, #195, #196, #197), (#198, #199, #200, #201), (#202, #203, #204, #205)), .UNSPECIFIED., .T., .F., .U.)
   B_SPLINE_SURFACE_WITH_KNOTS ((6, 6), (4, 4), (0., 1.), (0., 1.), .UNSPECIFIED.)
   SURFACE ()
   GEOMETRIC_REPRESENTATION_ITEM ()
   RATIONAL_B_SPLINE_SURFACE (((5., 5., 5., 5.), (1., 1., 1., 1.), (1., 1., 1., 1.), (1., 1., 1., 1.), (1., 1., 1., 1.), (5., 5., 5., 5.)))
   REPRESENTATION_ITEM ('')
);
#207 = ADVANCED_FACE ('', (#181), #206, .F.);
#208 = CARTESIAN_POINT ('', (-150., 9.18485099360515E-15, -9.18485099360515E-15));
#209 = VERTEX_POINT ('', #208);
#210 = CARTESIAN_POINT ('', (-150., 7.75, -1.89820253867839E-15));
#211 = CARTESIAN_POINT ('', (-150., 5.16666666666667, -1.26546835911893E-15));
#212 = CARTESIAN_POINT ('', (-150., 2.58333333333333, -6.3273417955946E-16));
#213 = CARTESIAN_POINT ('', (-150., 9.18485099360515E-15, -9.18485099360515E-15));
#214 = B_SPLINE_CURVE_WITH_KNOTS ('', 3, (#210, #211, #212, #213), .UNSPECIFIED., .F., .U., (4, 4), (0., 1.), .UNSPECIFIED.);
#215 = EDGE_CURVE ('', #161, #209, #214, .T.);
#216 = ORIENTED_EDGE ('', *, *, #215, .F.);
#217 = ORIENTED_EDGE ('', *, *, #178, .T.);
#218 = ORIENTED_EDGE ('', *, *, #215, .T.);
#219 = EDGE_LOOP ('', (#216, #217, #218));
#220 = FACE_OUTER_BOUND ('', #219, .F.);
#221 = CARTESIAN_POINT ('', (-150., 7.75, -1.89820253867839E-15));
#222 = CARTESIAN_POINT ('', (-150., 5.16666666666667, -1.26546835911893E-15));
#223 = CARTESIAN_POINT ('', (-150., 2.58333333333333, -6.3273417955946E-16));
#224 = CARTESIAN_POINT ('', (-150., 9.18485099360515E-15, -9.18485099360515E-15));
#225 = CARTESIAN_POINT ('', (-150., 7.74999999999997, 31.));
#226 = CARTESIAN_POINT ('', (-150., 5.16666666666664, 20.6666666666666));
#227 = CARTESIAN_POINT ('', (-150., 2.58333333333329, 10.3333333333333));
#228 = CARTESIAN_POINT ('', (-150., 9.18485099360515E-15, -9.18485099360515E-15));
#229 = CARTESIAN_POINT ('', (-150., -23.25, 15.5));
#230 = CARTESIAN_POINT ('', (-150., -15.5, 10.3333333333333));
#231 = CARTESIAN_POINT ('', (-150., -7.74999999999996, 5.1666666666666));
#232 = CARTESIAN_POINT ('', (-150., 9.18485099360515E-15, -9.18485099360515E-15));
#233 = CARTESIAN_POINT ('', (-150., -23.2499999999999, -15.5));
#234 = CARTESIAN_POINT ('', (-150., -15.5, -10.3333333333334));
#235 = CARTESIAN_POINT ('', (-150., -7.74999999999993, -5.16666666666667));
#236 = CARTESIAN_POINT ('', (-150., 9.18485099360515E-15, -9.18485099360515E-15));
#237 = CARTESIAN_POINT ('', (-150., 7.75000000000003, -31.));
#238 = CARTESIAN_POINT ('', (-150., 5.1666666666667, -20.6666666666666));
#239 = CARTESIAN_POINT ('', (-150., 2.58333333333336, -10.3333333333333));
#240 = CARTESIAN_POINT ('', (-150., 9.18485099360515E-15, -9.18485099360515E-15));
#241 = CARTESIAN_POINT ('', (-150., 7.75, -1.89820253867839E-15));
#242 = CARTESIAN_POINT ('', (-150., 5.16666666666667, -1.26546835911893E-15));
#243 = CARTESIAN_POINT ('', (-150., 2.58333333333333, -6.3273417955946E-16));
#244 = CARTESIAN_POINT ('', (-150., 9.18485099360515E-15, -9.18485099360515E-15));
#245 = (
   BOUNDED_SURFACE ()
   B_SPLINE_SURFACE (5, 3, ((#221, #222, #223, #224), (#225, #226, #227, #228), (#229, #230, #231, #232), (#233, #234, #235, #236), (#237, #238, #239, #240), (#241, #242, #243, #244)), .UNSPECIFIED., .T., .F., .U.)
   B_SPLINE_SURFACE_WITH_KNOTS ((6, 6), (4, 4), (0., 1.), (0., 1.), .UNSPECIFIED.)
   SURFACE ()
   GEOMETRIC_REPRESENTATION_ITEM ()
   RATIONAL_B_SPLINE_SURFACE (((5., 5., 5., 5.), (1., 1., 1., 1.), (1., 1., 1., 1.), (1., 1., 1., 1.), (1., 1., 1., 1.), (5., 5., 5., 5.)))
   REPRESENTATION_ITEM ('')
);
#246 = ADVANCED_FACE ('', (#220), #245, .F.);
#247 = CLOSED_SHELL ('', (#49, #111, #159, #207, #246));
#248 = MANIFOLD_SOLID_BREP ('', #247);
#249 = (
   LENGTH_UNIT ()
   NAMED_UNIT (*)
   SI_UNIT (.MILLI., .METRE.)
);
#250 = (
   NAMED_UNIT (*)
   SI_UNIT ($, .STERADIAN.)
   SOLID_ANGLE_UNIT ()
);
#251 = (
   NAMED_UNIT (*)
   SI_UNIT ($, .RADIAN.)
   PLANE_ANGLE_UNIT ()
);
#252 = UNCERTAINTY_MEASURE_WITH_UNIT (LENGTH_MEASURE(0.001), #249, 'DISTANCE_ACCURACY_VALUE', '');
#253 = (
   GEOMETRIC_REPRESENTATION_CONTEXT (3)
   GLOBAL_UNCERTAINTY_ASSIGNED_CONTEXT ((#252))
   GLOBAL_UNIT_ASSIGNED_CONTEXT ((#249, #250, #251))
   REPRESENTATION_CONTEXT ('', '3D')
);
#254 = SHAPE_REPRESENTATION ('', (), #253);
#255 = APPLICATION_CONTEXT ('configuration controlled 3D designs of mechanical parts and assemblies');
#256 = APPLICATION_PROTOCOL_DEFINITION ('International Standard', 'config_control_design', 1997, #255);
#257 = MECHANICAL_CONTEXT ('', #255, 'mechanical');
#258 = PRODUCT ('', '', '', (#257));
#259 = PERSON_AND_ORGANIZATION_ROLE ('design_owner');
#260 = PERSON ('', '', $, $, $, $);
#261 = ORGANIZATION ($, '', '');
#262 = PERSON_AND_ORGANIZATION (#260, #261);
#263 = CC_DESIGN_PERSON_AND_ORGANIZATION_ASSIGNMENT (#262, #259, (#258));
#264 = PRODUCT_RELATED_PRODUCT_CATEGORY ('detail', $, (#258));
#265 = PRODUCT_DEFINITION_FORMATION_WITH_SPECIFIED_SOURCE ('', '', #258, .NOT_KNOWN.);
#266 = APPROVAL_STATUS ('approved');
#267 = APPROVAL (#266, '');
#268 = CALENDAR_DATE (2021, 7, 1);
#269 = COORDINATED_UNIVERSAL_TIME_OFFSET (0, $, .AHEAD.);
#270 = LOCAL_TIME (8, 43, 33., #269);
#271 = DATE_AND_TIME (#268, #270);
#272 = APPROVAL_DATE_TIME (#271, #267);
#273 = APPROVAL_ROLE ('');
#274 = PERSON ('', '', $, $, $, $);
#275 = ORGANIZATION ($, '', '');
#276 = PERSON_AND_ORGANIZATION (#274, #275);
#277 = APPROVAL_PERSON_ORGANIZATION (#276, #267, #273);
#278 = CC_DESIGN_APPROVAL (#267, (#265));
#279 = PERSON_AND_ORGANIZATION_ROLE ('creator');
#280 = PERSON ('', '', $, $, $, $);
#281 = ORGANIZATION ($, '', '');
#282 = PERSON_AND_ORGANIZATION (#280, #281);
#283 = CC_DESIGN_PERSON_AND_ORGANIZATION_ASSIGNMENT (#282, #279, (#265));
#284 = PERSON_AND_ORGANIZATION_ROLE ('part_supplier');
#285 = PERSON ('', '', $, $, $, $);
#286 = ORGANIZATION ($, '', '');
#287 = PERSON_AND_ORGANIZATION (#285, #286);
#288 = CC_DESIGN_PERSON_AND_ORGANIZATION_ASSIGNMENT (#287, #284, (#265));
#289 = SECURITY_CLASSIFICATION_LEVEL ('unclassified');
#290 = SECURITY_CLASSIFICATION ('', '', #289);
#291 = APPROVAL_STATUS ('approved');
#292 = APPROVAL (#291, '');
#293 = CALENDAR_DATE (2021, 7, 1);
#294 = COORDINATED_UNIVERSAL_TIME_OFFSET (0, $, .AHEAD.);
#295 = LOCAL_TIME (8, 43, 33., #294);
#296 = DATE_AND_TIME (#293, #295);
#297 = APPROVAL_DATE_TIME (#296, #292);
#298 = APPROVAL_ROLE ('');
#299 = PERSON ('', '', $, $, $, $);
#300 = ORGANIZATION ($, '', '');
#301 = PERSON_AND_ORGANIZATION (#299, #300);
#302 = APPROVAL_PERSON_ORGANIZATION (#301, #292, #298);
#303 = CC_DESIGN_APPROVAL (#292, (#290));
#304 = DATE_TIME_ROLE ('classification_date');
#305 = CALENDAR_DATE (2021, 7, 1);
#306 = COORDINATED_UNIVERSAL_TIME_OFFSET (0, $, .AHEAD.);
#307 = LOCAL_TIME (8, 43, 33., #306);
#308 = DATE_AND_TIME (#305, #307);
#309 = CC_DESIGN_DATE_AND_TIME_ASSIGNMENT (#308, #304, (#290));
#310 = PERSON_AND_ORGANIZATION_ROLE ('classification_officer');
#311 = PERSON ('', '', $, $, $, $);
#312 = ORGANIZATION ($, '', '');
#313 = PERSON_AND_ORGANIZATION (#311, #312);
#314 = CC_DESIGN_PERSON_AND_ORGANIZATION_ASSIGNMENT (#313, #310, (#290));
#315 = CC_DESIGN_SECURITY_CLASSIFICATION (#290, (#265));
#316 = DESIGN_CONTEXT ('', #255, 'design');
#317 = PRODUCT_DEFINITION ('', '', #265, #316);
#318 = APPROVAL_STATUS ('approved');
#319 = APPROVAL (#318, '');
#320 = CALENDAR_DATE (2021, 7, 1);
#321 = COORDINATED_UNIVERSAL_TIME_OFFSET (0, $, .AHEAD.);
#322 = LOCAL_TIME (8, 43, 33., #321);
#323 = DATE_AND_TIME (#320, #322);
#324 = APPROVAL_DATE_TIME (#323, #319);
#325 = APPROVAL_ROLE ('');
#326 = PERSON ('', '', $, $, $, $);
#327 = ORGANIZATION ($, '', '');
#328 = PERSON_AND_ORGANIZATION (#326, #327);
#329 = APPROVAL_PERSON_ORGANIZATION (#328, #319, #325);
#330 = CC_DESIGN_APPROVAL (#319, (#317));
#331 = DATE_TIME_ROLE ('creation_date');
#332 = CALENDAR_DATE (2021, 7, 1);
#333 = COORDINATED_UNIVERSAL_TIME_OFFSET (0, $, .AHEAD.);
#334 = LOCAL_TIME (8, 43, 33., #333);
#335 = DATE_AND_TIME (#332, #334);
#336 = CC_DESIGN_DATE_AND_TIME_ASSIGNMENT (#335, #331, (#317));
#337 = PERSON_AND_ORGANIZATION_ROLE ('creator');
#338 = PERSON ('', '', $, $, $, $);
#339 = ORGANIZATION ($, '', '');
#340 = PERSON_AND_ORGANIZATION (#338, #339);
#341 = CC_DESIGN_PERSON_AND_ORGANIZATION_ASSIGNMENT (#340, #337, (#317));
#342 = PRODUCT_DEFINITION_SHAPE ('', '', #317);
#343 = SHAPE_DEFINITION_REPRESENTATION (#342, #254);
#344 = SHAPE_REPRESENTATION_RELATIONSHIP ('', '', #254, #345);
#345 = ADVANCED_BREP_SHAPE_REPRESENTATION ('', (#248), #253);
ENDSEC;
END-ISO-10303-21;
