ISO-10303-21;
HEADER;
FILE_DESCRIPTION ((), '1');
FILE_NAME ('D:\\Documents\\Mark Dainty\\178-1 Range\\178 0600-1A.STP', '2020-04-16T11:02:06', ('Unknown'), ('M A Ford Europe'), 'OneCNC-XR7 Mill 3D Expert', 'OneCNC-XR7 Mill 3D Expert', '');
FILE_SCHEMA (('CONFIG_CONTROL_DESIGN'));
ENDSEC;

DATA;
#1 = CARTESIAN_POINT ('', (-74.75, 3., -7.34788079488411E-16));
#2 = VERTEX_POINT ('', #1);
#3 = CARTESIAN_POINT ('', (4.93038065763132E-32, 3., -7.34788079488412E-16));
#4 = VERTEX_POINT ('', #3);
#5 = CARTESIAN_POINT ('', (-74.75, 3., -7.34788079488411E-16));
#6 = CARTESIAN_POINT ('', (-49.8333333333335, 3., -7.34788079488411E-16));
#7 = CARTESIAN_POINT ('', (-24.9166666666667, 3., -7.34788079488411E-16));
#8 = CARTESIAN_POINT ('', (4.93038065763132E-32, 3., -7.34788079488412E-16));
#9 = B_SPLINE_CURVE_WITH_KNOTS ('', 3, (#5, #6, #7, #8), .UNSPECIFIED., .F., .U., (4, 4), (0., 1.), .UNSPECIFIED.);
#10 = EDGE_CURVE ('', #2, #4, #9, .T.);
#11 = ORIENTED_EDGE ('', *, *, #10, .F.);
#12 = CARTESIAN_POINT ('', (-74.75, 3., -7.34788079488411E-16));
#13 = CARTESIAN_POINT ('', (-74.75, 2.99999999999998, 12.));
#14 = CARTESIAN_POINT ('', (-74.75, -8.99999999999999, 5.99999999999998));
#15 = CARTESIAN_POINT ('', (-74.75, -8.99999999999997, -6.00000000000001));
#16 = CARTESIAN_POINT ('', (-74.75, 3.00000000000002, -12.));
#17 = CARTESIAN_POINT ('', (-74.75, 3., -7.34788079488411E-16));
#18 = (
   BOUNDED_CURVE ()
   B_SPLINE_CURVE (5, (#12, #13, #14, #15, #16, #17), .UNSPECIFIED., .T., .U.)
   B_SPLINE_CURVE_WITH_KNOTS ((6, 6), (0., 1.), .UNSPECIFIED.)
   CURVE ()
   GEOMETRIC_REPRESENTATION_ITEM ()
   RATIONAL_B_SPLINE_CURVE ((5., 1., 1., 1., 1., 5.))
   REPRESENTATION_ITEM ('')
);
#19 = EDGE_CURVE ('', #2, #2, #18, .T.);
#20 = ORIENTED_EDGE ('', *, *, #19, .T.);
#21 = ORIENTED_EDGE ('', *, *, #10, .T.);
#22 = CARTESIAN_POINT ('', (4.93038065763132E-32, 3., -7.34788079488412E-16));
#23 = CARTESIAN_POINT ('', (-7.34788079488412E-16, 3., 12.));
#24 = CARTESIAN_POINT ('', (-1.10218211923262E-15, -9., 6.));
#25 = CARTESIAN_POINT ('', (-3.67394039744206E-16, -9., -6.));
#26 = CARTESIAN_POINT ('', (7.34788079488412E-16, 3., -12.));
#27 = CARTESIAN_POINT ('', (4.93038065763132E-32, 3., -7.34788079488412E-16));
#28 = (
   BOUNDED_CURVE ()
   B_SPLINE_CURVE (5, (#22, #23, #24, #25, #26, #27), .UNSPECIFIED., .T., .U.)
   B_SPLINE_CURVE_WITH_KNOTS ((6, 6), (0., 1.), .UNSPECIFIED.)
   CURVE ()
   GEOMETRIC_REPRESENTATION_ITEM ()
   RATIONAL_B_SPLINE_CURVE ((5., 1., 1., 1., 1., 5.))
   REPRESENTATION_ITEM ('')
);
#29 = EDGE_CURVE ('', #4, #4, #28, .T.);
#30 = ORIENTED_EDGE ('', *, *, #29, .F.);
#31 = EDGE_LOOP ('', (#11, #20, #21, #30));
#32 = FACE_OUTER_BOUND ('', #31, .T.);
#33 = CARTESIAN_POINT ('', (-74.75, 3., -7.34788079488411E-16));
#34 = CARTESIAN_POINT ('', (-49.8333333333335, 3., -7.34788079488411E-16));
#35 = CARTESIAN_POINT ('', (-24.9166666666667, 3., -7.34788079488411E-16));
#36 = CARTESIAN_POINT ('', (4.93038065763132E-32, 3., -7.34788079488412E-16));
#37 = CARTESIAN_POINT ('', (-74.75, 2.99999999999998, 12.));
#38 = CARTESIAN_POINT ('', (-49.8333333333335, 2.99999999999999, 12.));
#39 = CARTESIAN_POINT ('', (-24.9166666666667, 3., 12.));
#40 = CARTESIAN_POINT ('', (-7.34788079488412E-16, 3., 12.));
#41 = CARTESIAN_POINT ('', (-74.75, -8.99999999999999, 5.99999999999998));
#42 = CARTESIAN_POINT ('', (-49.8333333333335, -8.99999999999999, 5.99999999999998));
#43 = CARTESIAN_POINT ('', (-24.9166666666667, -8.99999999999999, 5.99999999999999));
#44 = CARTESIAN_POINT ('', (-1.10218211923262E-15, -9., 6.));
#45 = CARTESIAN_POINT ('', (-74.75, -8.99999999999997, -6.00000000000001));
#46 = CARTESIAN_POINT ('', (-49.8333333333335, -8.99999999999998, -6.));
#47 = CARTESIAN_POINT ('', (-24.9166666666667, -8.99999999999999, -6.));
#48 = CARTESIAN_POINT ('', (-3.67394039744206E-16, -9., -6.));
#49 = CARTESIAN_POINT ('', (-74.75, 3.00000000000002, -12.));
#50 = CARTESIAN_POINT ('', (-49.8333333333335, 3.00000000000001, -12.));
#51 = CARTESIAN_POINT ('', (-24.9166666666667, 3., -12.));
#52 = CARTESIAN_POINT ('', (7.34788079488412E-16, 3., -12.));
#53 = CARTESIAN_POINT ('', (-74.75, 3., -7.34788079488411E-16));
#54 = CARTESIAN_POINT ('', (-49.8333333333335, 3., -7.34788079488411E-16));
#55 = CARTESIAN_POINT ('', (-24.9166666666667, 3., -7.34788079488411E-16));
#56 = CARTESIAN_POINT ('', (4.93038065763132E-32, 3., -7.34788079488412E-16));
#57 = (
   BOUNDED_SURFACE ()
   B_SPLINE_SURFACE (5, 3, ((#33, #34, #35, #36), (#37, #38, #39, #40), (#41, #42, #43, #44), (#45, #46, #47, #48), (#49, #50, #51, #52), (#53, #54, #55, #56)), .UNSPECIFIED., .T., .F., .U.)
   B_SPLINE_SURFACE_WITH_KNOTS ((6, 6), (4, 4), (0., 1.), (0., 1.), .UNSPECIFIED.)
   SURFACE ()
   GEOMETRIC_REPRESENTATION_ITEM ()
   RATIONAL_B_SPLINE_SURFACE (((5., 5., 5., 5.), (1., 1., 1., 1.), (1., 1., 1., 1.), (1., 1., 1., 1.), (1., 1., 1., 1.), (5., 5., 5., 5.)))
   REPRESENTATION_ITEM ('')
);
#58 = ADVANCED_FACE ('', (#32), #57, .T.);
#59 = CARTESIAN_POINT ('', (-75., 2.75, -6.73555739531043E-16));
#60 = VERTEX_POINT ('', #59);
#61 = CARTESIAN_POINT ('', (-75., 2.75, -6.73555739531043E-16));
#62 = CARTESIAN_POINT ('', (-74.9166666666665, 2.83333333333333, -6.93966519516831E-16));
#63 = CARTESIAN_POINT ('', (-74.8333333333333, 2.91666666666666, -7.14377299502621E-16));
#64 = CARTESIAN_POINT ('', (-74.75, 3., -7.34788079488411E-16));
#65 = B_SPLINE_CURVE_WITH_KNOTS ('', 3, (#61, #62, #63, #64), .UNSPECIFIED., .F., .U., (4, 4), (0., 1.), .UNSPECIFIED.);
#66 = EDGE_CURVE ('', #60, #2, #65, .T.);
#67 = ORIENTED_EDGE ('', *, *, #66, .F.);
#68 = CARTESIAN_POINT ('', (-75., 2.75, -6.73555739531043E-16));
#69 = CARTESIAN_POINT ('', (-75., 2.74999999999998, 11.));
#70 = CARTESIAN_POINT ('', (-75., -8.24999999999999, 5.49999999999998));
#71 = CARTESIAN_POINT ('', (-75., -8.24999999999997, -5.50000000000001));
#72 = CARTESIAN_POINT ('', (-75., 2.75000000000002, -11.));
#73 = CARTESIAN_POINT ('', (-75., 2.75, -6.73555739531043E-16));
#74 = (
   BOUNDED_CURVE ()
   B_SPLINE_CURVE (5, (#68, #69, #70, #71, #72, #73), .UNSPECIFIED., .T., .U.)
   B_SPLINE_CURVE_WITH_KNOTS ((6, 6), (0., 1.), .UNSPECIFIED.)
   CURVE ()
   GEOMETRIC_REPRESENTATION_ITEM ()
   RATIONAL_B_SPLINE_CURVE ((5., 1., 1., 1., 1., 5.))
   REPRESENTATION_ITEM ('')
);
#75 = EDGE_CURVE ('', #60, #60, #74, .T.);
#76 = ORIENTED_EDGE ('', *, *, #75, .T.);
#77 = ORIENTED_EDGE ('', *, *, #66, .T.);
#78 = ORIENTED_EDGE ('', *, *, #19, .F.);
#79 = EDGE_LOOP ('', (#67, #76, #77, #78));
#80 = FACE_OUTER_BOUND ('', #79, .T.);
#81 = CARTESIAN_POINT ('', (-75., 2.75, -6.73555739531043E-16));
#82 = CARTESIAN_POINT ('', (-74.9166666666665, 2.83333333333333, -6.93966519516831E-16));
#83 = CARTESIAN_POINT ('', (-74.8333333333333, 2.91666666666666, -7.14377299502621E-16));
#84 = CARTESIAN_POINT ('', (-74.75, 3., -7.34788079488411E-16));
#85 = CARTESIAN_POINT ('', (-75., 2.74999999999998, 11.));
#86 = CARTESIAN_POINT ('', (-74.9166666666665, 2.83333333333331, 11.3333333333333));
#87 = CARTESIAN_POINT ('', (-74.8333333333333, 2.91666666666665, 11.6666666666666));
#88 = CARTESIAN_POINT ('', (-74.75, 2.99999999999998, 12.));
#89 = CARTESIAN_POINT ('', (-75., -8.24999999999999, 5.49999999999998));
#90 = CARTESIAN_POINT ('', (-74.9166666666665, -8.49999999999998, 5.66666666666663));
#91 = CARTESIAN_POINT ('', (-74.8333333333333, -8.74999999999998, 5.83333333333331));
#92 = CARTESIAN_POINT ('', (-74.75, -8.99999999999999, 5.99999999999998));
#93 = CARTESIAN_POINT ('', (-75., -8.24999999999997, -5.50000000000001));
#94 = CARTESIAN_POINT ('', (-74.9166666666665, -8.49999999999996, -5.66666666666667));
#95 = CARTESIAN_POINT ('', (-74.8333333333333, -8.74999999999997, -5.83333333333334));
#96 = CARTESIAN_POINT ('', (-74.75, -8.99999999999997, -6.00000000000001));
#97 = CARTESIAN_POINT ('', (-75., 2.75000000000002, -11.));
#98 = CARTESIAN_POINT ('', (-74.9166666666665, 2.83333333333334, -11.3333333333333));
#99 = CARTESIAN_POINT ('', (-74.8333333333333, 2.91666666666668, -11.6666666666666));
#100 = CARTESIAN_POINT ('', (-74.75, 3.00000000000002, -12.));
#101 = CARTESIAN_POINT ('', (-75., 2.75, -6.73555739531043E-16));
#102 = CARTESIAN_POINT ('', (-74.9166666666665, 2.83333333333333, -6.93966519516831E-16));
#103 = CARTESIAN_POINT ('', (-74.8333333333333, 2.91666666666666, -7.14377299502621E-16));
#104 = CARTESIAN_POINT ('', (-74.75, 3., -7.34788079488411E-16));
#105 = (
   BOUNDED_SURFACE ()
   B_SPLINE_SURFACE (5, 3, ((#81, #82, #83, #84), (#85, #86, #87, #88), (#89, #90, #91, #92), (#93, #94, #95, #96), (#97, #98, #99, #100), (#101, #102, #103, #104)), .UNSPECIFIED., .T., .F., .U.)
   B_SPLINE_SURFACE_WITH_KNOTS ((6, 6), (4, 4), (0., 1.), (0., 1.), .UNSPECIFIED.)
   SURFACE ()
   GEOMETRIC_REPRESENTATION_ITEM ()
   RATIONAL_B_SPLINE_SURFACE (((5., 5., 5., 5.), (1., 1., 1., 1.), (1., 1., 1., 1.), (1., 1., 1., 1.), (1., 1., 1., 1.), (5., 5., 5., 5.)))
   REPRESENTATION_ITEM ('')
);
#106 = ADVANCED_FACE ('', (#80), #105, .T.);
#107 = CARTESIAN_POINT ('', (-75., 4.59242549680257E-15, -4.59242549680257E-15));
#108 = VERTEX_POINT ('', #107);
#109 = CARTESIAN_POINT ('', (-75., 4.59242549680257E-15, -4.59242549680257E-15));
#110 = CARTESIAN_POINT ('', (-75., 2.75, -6.73555739531043E-16));
#111 = B_SPLINE_CURVE_WITH_KNOTS ('', 1, (#109, #110), .UNSPECIFIED., .F., .U., (2, 2), (0., 1.), .UNSPECIFIED.);
#112 = EDGE_CURVE ('', #108, #60, #111, .T.);
#113 = ORIENTED_EDGE ('', *, *, #112, .F.);
#114 = ORIENTED_EDGE ('', *, *, #112, .T.);
#115 = ORIENTED_EDGE ('', *, *, #75, .F.);
#116 = EDGE_LOOP ('', (#113, #114, #115));
#117 = FACE_OUTER_BOUND ('', #116, .T.);
#118 = CARTESIAN_POINT ('', (-75., 4.59242549680257E-15, -4.59242549680257E-15));
#119 = CARTESIAN_POINT ('', (-75., 2.75, -6.73555739531043E-16));
#120 = CARTESIAN_POINT ('', (-75., 4.59242549680257E-15, -4.59242549680257E-15));
#121 = CARTESIAN_POINT ('', (-75., 2.74999999999998, 11.));
#122 = CARTESIAN_POINT ('', (-75., 4.59242549680257E-15, -4.59242549680257E-15));
#123 = CARTESIAN_POINT ('', (-75., -8.24999999999999, 5.49999999999998));
#124 = CARTESIAN_POINT ('', (-75., 4.59242549680257E-15, -4.59242549680257E-15));
#125 = CARTESIAN_POINT ('', (-75., -8.24999999999997, -5.50000000000001));
#126 = CARTESIAN_POINT ('', (-75., 4.59242549680257E-15, -4.59242549680257E-15));
#127 = CARTESIAN_POINT ('', (-75., 2.75000000000002, -11.));
#128 = CARTESIAN_POINT ('', (-75., 4.59242549680257E-15, -4.59242549680257E-15));
#129 = CARTESIAN_POINT ('', (-75., 2.75, -6.73555739531043E-16));
#130 = (
   BOUNDED_SURFACE ()
   B_SPLINE_SURFACE (5, 1, ((#118, #119), (#120, #121), (#122, #123), (#124, #125), (#126, #127), (#128, #129)), .UNSPECIFIED., .T., .F., .U.)
   B_SPLINE_SURFACE_WITH_KNOTS ((6, 6), (2, 2), (0., 1.), (0., 1.), .UNSPECIFIED.)
   SURFACE ()
   GEOMETRIC_REPRESENTATION_ITEM ()
   RATIONAL_B_SPLINE_SURFACE (((5., 5.), (1., 1.), (1., 1.), (1., 1.), (1., 1.), (5., 5.)))
   REPRESENTATION_ITEM ('')
);
#131 = ADVANCED_FACE ('', (#117), #130, .T.);
#132 = CARTESIAN_POINT ('', (-1.83697019872103E-16, 1.12481983699639E-32, -1.12481983699639E-32));
#133 = VERTEX_POINT ('', #132);
#134 = CARTESIAN_POINT ('', (4.93038065763132E-32, 3., -7.34788079488412E-16));
#135 = CARTESIAN_POINT ('', (-1.83697019872103E-16, 1.12481983699639E-32, -1.12481983699639E-32));
#136 = B_SPLINE_CURVE_WITH_KNOTS ('', 1, (#134, #135), .UNSPECIFIED., .F., .U., (2, 2), (0., 1.), .UNSPECIFIED.);
#137 = EDGE_CURVE ('', #4, #133, #136, .T.);
#138 = ORIENTED_EDGE ('', *, *, #137, .F.);
#139 = ORIENTED_EDGE ('', *, *, #29, .T.);
#140 = ORIENTED_EDGE ('', *, *, #137, .T.);
#141 = EDGE_LOOP ('', (#138, #139, #140));
#142 = FACE_OUTER_BOUND ('', #141, .T.);
#143 = CARTESIAN_POINT ('', (4.93038065763132E-32, 3., -7.34788079488412E-16));
#144 = CARTESIAN_POINT ('', (-1.83697019872103E-16, 1.12481983699639E-32, -1.12481983699639E-32));
#145 = CARTESIAN_POINT ('', (-7.34788079488412E-16, 3., 12.));
#146 = CARTESIAN_POINT ('', (-1.83697019872103E-16, 1.12481983699639E-32, -1.12481983699639E-32));
#147 = CARTESIAN_POINT ('', (-1.10218211923262E-15, -9., 6.));
#148 = CARTESIAN_POINT ('', (-1.83697019872103E-16, 1.12481983699639E-32, -1.12481983699639E-32));
#149 = CARTESIAN_POINT ('', (-3.67394039744206E-16, -9., -6.));
#150 = CARTESIAN_POINT ('', (-1.83697019872103E-16, 1.12481983699639E-32, -1.12481983699639E-32));
#151 = CARTESIAN_POINT ('', (7.34788079488412E-16, 3., -12.));
#152 = CARTESIAN_POINT ('', (-1.83697019872103E-16, 1.12481983699639E-32, -1.12481983699639E-32));
#153 = CARTESIAN_POINT ('', (4.93038065763132E-32, 3., -7.34788079488412E-16));
#154 = CARTESIAN_POINT ('', (-1.83697019872103E-16, 1.12481983699639E-32, -1.12481983699639E-32));
#155 = (
   BOUNDED_SURFACE ()
   B_SPLINE_SURFACE (5, 1, ((#143, #144), (#145, #146), (#147, #148), (#149, #150), (#151, #152), (#153, #154)), .UNSPECIFIED., .T., .F., .U.)
   B_SPLINE_SURFACE_WITH_KNOTS ((6, 6), (2, 2), (0., 1.), (0., 1.), .UNSPECIFIED.)
   SURFACE ()
   GEOMETRIC_REPRESENTATION_ITEM ()
   RATIONAL_B_SPLINE_SURFACE (((5., 5.), (1., 1.), (1., 1.), (1., 1.), (1., 1.), (5., 5.)))
   REPRESENTATION_ITEM ('')
);
#156 = ADVANCED_FACE ('', (#142), #155, .T.);
#157 = CLOSED_SHELL ('', (#58, #106, #131, #156));
#158 = MANIFOLD_SOLID_BREP ('', #157);
#159 = (
   LENGTH_UNIT ()
   NAMED_UNIT (*)
   SI_UNIT (.MILLI., .METRE.)
);
#160 = (
   NAMED_UNIT (*)
   SI_UNIT ($, .STERADIAN.)
   SOLID_ANGLE_UNIT ()
);
#161 = (
   NAMED_UNIT (*)
   SI_UNIT ($, .RADIAN.)
   PLANE_ANGLE_UNIT ()
);
#162 = UNCERTAINTY_MEASURE_WITH_UNIT (LENGTH_MEASURE(0.001), #159, 'DISTANCE_ACCURACY_VALUE', '');
#163 = (
   GEOMETRIC_REPRESENTATION_CONTEXT (3)
   GLOBAL_UNCERTAINTY_ASSIGNED_CONTEXT ((#162))
   GLOBAL_UNIT_ASSIGNED_CONTEXT ((#159, #160, #161))
   REPRESENTATION_CONTEXT ('', '3D')
);
#164 = SHAPE_REPRESENTATION ('', (), #163);
#165 = APPLICATION_CONTEXT ('configuration controlled 3D designs of mechanical parts and assemblies');
#166 = APPLICATION_PROTOCOL_DEFINITION ('International Standard', 'config_control_design', 1997, #165);
#167 = MECHANICAL_CONTEXT ('', #165, 'mechanical');
#168 = PRODUCT ('', '', '', (#167));
#169 = PERSON_AND_ORGANIZATION_ROLE ('design_owner');
#170 = PERSON ('', '', $, $, $, $);
#171 = ORGANIZATION ($, '', '');
#172 = PERSON_AND_ORGANIZATION (#170, #171);
#173 = CC_DESIGN_PERSON_AND_ORGANIZATION_ASSIGNMENT (#172, #169, (#168));
#174 = PRODUCT_RELATED_PRODUCT_CATEGORY ('detail', $, (#168));
#175 = PRODUCT_DEFINITION_FORMATION_WITH_SPECIFIED_SOURCE ('', '', #168, .NOT_KNOWN.);
#176 = APPROVAL_STATUS ('approved');
#177 = APPROVAL (#176, '');
#178 = CALENDAR_DATE (2020, 16, 4);
#179 = COORDINATED_UNIVERSAL_TIME_OFFSET (0, $, .AHEAD.);
#180 = LOCAL_TIME (11, 2, 6., #179);
#181 = DATE_AND_TIME (#178, #180);
#182 = APPROVAL_DATE_TIME (#181, #177);
#183 = APPROVAL_ROLE ('');
#184 = PERSON ('', '', $, $, $, $);
#185 = ORGANIZATION ($, '', '');
#186 = PERSON_AND_ORGANIZATION (#184, #185);
#187 = APPROVAL_PERSON_ORGANIZATION (#186, #177, #183);
#188 = CC_DESIGN_APPROVAL (#177, (#175));
#189 = PERSON_AND_ORGANIZATION_ROLE ('creator');
#190 = PERSON ('', '', $, $, $, $);
#191 = ORGANIZATION ($, '', '');
#192 = PERSON_AND_ORGANIZATION (#190, #191);
#193 = CC_DESIGN_PERSON_AND_ORGANIZATION_ASSIGNMENT (#192, #189, (#175));
#194 = PERSON_AND_ORGANIZATION_ROLE ('part_supplier');
#195 = PERSON ('', '', $, $, $, $);
#196 = ORGANIZATION ($, '', '');
#197 = PERSON_AND_ORGANIZATION (#195, #196);
#198 = CC_DESIGN_PERSON_AND_ORGANIZATION_ASSIGNMENT (#197, #194, (#175));
#199 = SECURITY_CLASSIFICATION_LEVEL ('unclassified');
#200 = SECURITY_CLASSIFICATION ('', '', #199);
#201 = APPROVAL_STATUS ('approved');
#202 = APPROVAL (#201, '');
#203 = CALENDAR_DATE (2020, 16, 4);
#204 = COORDINATED_UNIVERSAL_TIME_OFFSET (0, $, .AHEAD.);
#205 = LOCAL_TIME (11, 2, 6., #204);
#206 = DATE_AND_TIME (#203, #205);
#207 = APPROVAL_DATE_TIME (#206, #202);
#208 = APPROVAL_ROLE ('');
#209 = PERSON ('', '', $, $, $, $);
#210 = ORGANIZATION ($, '', '');
#211 = PERSON_AND_ORGANIZATION (#209, #210);
#212 = APPROVAL_PERSON_ORGANIZATION (#211, #202, #208);
#213 = CC_DESIGN_APPROVAL (#202, (#200));
#214 = DATE_TIME_ROLE ('classification_date');
#215 = CALENDAR_DATE (2020, 16, 4);
#216 = COORDINATED_UNIVERSAL_TIME_OFFSET (0, $, .AHEAD.);
#217 = LOCAL_TIME (11, 2, 6., #216);
#218 = DATE_AND_TIME (#215, #217);
#219 = CC_DESIGN_DATE_AND_TIME_ASSIGNMENT (#218, #214, (#200));
#220 = PERSON_AND_ORGANIZATION_ROLE ('classification_officer');
#221 = PERSON ('', '', $, $, $, $);
#222 = ORGANIZATION ($, '', '');
#223 = PERSON_AND_ORGANIZATION (#221, #222);
#224 = CC_DESIGN_PERSON_AND_ORGANIZATION_ASSIGNMENT (#223, #220, (#200));
#225 = CC_DESIGN_SECURITY_CLASSIFICATION (#200, (#175));
#226 = DESIGN_CONTEXT ('', #165, 'design');
#227 = PRODUCT_DEFINITION ('', '', #175, #226);
#228 = APPROVAL_STATUS ('approved');
#229 = APPROVAL (#228, '');
#230 = CALENDAR_DATE (2020, 16, 4);
#231 = COORDINATED_UNIVERSAL_TIME_OFFSET (0, $, .AHEAD.);
#232 = LOCAL_TIME (11, 2, 6., #231);
#233 = DATE_AND_TIME (#230, #232);
#234 = APPROVAL_DATE_TIME (#233, #229);
#235 = APPROVAL_ROLE ('');
#236 = PERSON ('', '', $, $, $, $);
#237 = ORGANIZATION ($, '', '');
#238 = PERSON_AND_ORGANIZATION (#236, #237);
#239 = APPROVAL_PERSON_ORGANIZATION (#238, #229, #235);
#240 = CC_DESIGN_APPROVAL (#229, (#227));
#241 = DATE_TIME_ROLE ('creation_date');
#242 = CALENDAR_DATE (2020, 16, 4);
#243 = COORDINATED_UNIVERSAL_TIME_OFFSET (0, $, .AHEAD.);
#244 = LOCAL_TIME (11, 2, 6., #243);
#245 = DATE_AND_TIME (#242, #244);
#246 = CC_DESIGN_DATE_AND_TIME_ASSIGNMENT (#245, #241, (#227));
#247 = PERSON_AND_ORGANIZATION_ROLE ('creator');
#248 = PERSON ('', '', $, $, $, $);
#249 = ORGANIZATION ($, '', '');
#250 = PERSON_AND_ORGANIZATION (#248, #249);
#251 = CC_DESIGN_PERSON_AND_ORGANIZATION_ASSIGNMENT (#250, #247, (#227));
#252 = PRODUCT_DEFINITION_SHAPE ('', '', #227);
#253 = SHAPE_DEFINITION_REPRESENTATION (#252, #164);
#254 = SHAPE_REPRESENTATION_RELATIONSHIP ('', '', #164, #255);
#255 = ADVANCED_BREP_SHAPE_REPRESENTATION ('', (#158), #163);
ENDSEC;
END-ISO-10303-21;
