ISO-10303-21;
HEADER;
FILE_DESCRIPTION ((), '1');
FILE_NAME ('D:\\Documents\\Mark Dainty\\178R Range\\178 2500-1_0RA.STP', '2020-04-15T12:54:50', ('Unknown'), ('M A Ford Europe'), 'OneCNC-XR7 Mill 3D Expert', 'OneCNC-XR7 Mill 3D Expert', '');
FILE_SCHEMA (('CONFIG_CONTROL_DESIGN'));
ENDSEC;

DATA;
#1 = CARTESIAN_POINT ('', (-1., 12.5, -3.06161699786838E-15));
#2 = VERTEX_POINT ('', #1);
#3 = CARTESIAN_POINT ('', (1.97215226305253E-31, 11.5, -2.81668763803891E-15));
#4 = VERTEX_POINT ('', #3);
#5 = CARTESIAN_POINT ('', (-1., 12.5, -3.06161699786838E-15));
#6 = CARTESIAN_POINT ('', (-0.823979860049297, 12.5, -3.06161699786838E-15));
#7 = CARTESIAN_POINT ('', (-0.545397966132821, 12.4241943824046, -3.04304997647927E-15));
#8 = CARTESIAN_POINT ('', (-0.220054300201928, 12.1596999306322, -2.9782675197282E-15));
#9 = CARTESIAN_POINT ('', (-0.0405284603756849, 11.8537419336111, -2.90332942338313E-15));
#10 = CARTESIAN_POINT ('', (1.97215226305253E-31, 11.6092553777797, -2.84344748777643E-15));
#11 = CARTESIAN_POINT ('', (1.97215226305253E-31, 11.5, -2.81668763803891E-15));
#12 = B_SPLINE_CURVE_WITH_KNOTS ('', 3, (#5, #6, #7, #8, #9, #10, #11), .UNSPECIFIED., .F., .U., (4, 1, 1, 1, 4), (0., 0.33617370428258, 0.532939663384364, 0.791337598803809, 1.), .UNSPECIFIED.);
#13 = EDGE_CURVE ('', #2, #4, #12, .T.);
#14 = ORIENTED_EDGE ('', *, *, #13, .F.);
#15 = CARTESIAN_POINT ('', (-1., 12.5, -3.06161699786838E-15));
#16 = CARTESIAN_POINT ('', (-1., 12.5, 50.));
#17 = CARTESIAN_POINT ('', (-1., -37.5, 25.));
#18 = CARTESIAN_POINT ('', (-1., -37.5, -25.));
#19 = CARTESIAN_POINT ('', (-0.999999999999997, 12.5, -50.));
#20 = CARTESIAN_POINT ('', (-1., 12.5, -3.06161699786838E-15));
#21 = (
   BOUNDED_CURVE ()
   B_SPLINE_CURVE (5, (#15, #16, #17, #18, #19, #20), .UNSPECIFIED., .T., .U.)
   B_SPLINE_CURVE_WITH_KNOTS ((6, 6), (0., 1.), .UNSPECIFIED.)
   CURVE ()
   GEOMETRIC_REPRESENTATION_ITEM ()
   RATIONAL_B_SPLINE_CURVE ((5., 1., 1., 1., 1., 5.))
   REPRESENTATION_ITEM ('')
);
#22 = EDGE_CURVE ('', #2, #2, #21, .T.);
#23 = ORIENTED_EDGE ('', *, *, #22, .T.);
#24 = ORIENTED_EDGE ('', *, *, #13, .T.);
#25 = CARTESIAN_POINT ('', (1.97215226305253E-31, 11.5, -2.81668763803891E-15));
#26 = CARTESIAN_POINT ('', (-2.81668763803891E-15, 11.5, 46.));
#27 = CARTESIAN_POINT ('', (-4.22503145705837E-15, -34.5, 23.));
#28 = CARTESIAN_POINT ('', (-1.40834381901946E-15, -34.5, -23.));
#29 = CARTESIAN_POINT ('', (2.81668763803891E-15, 11.5, -46.));
#30 = CARTESIAN_POINT ('', (1.97215226305253E-31, 11.5, -2.81668763803891E-15));
#31 = (
   BOUNDED_CURVE ()
   B_SPLINE_CURVE (5, (#25, #26, #27, #28, #29, #30), .UNSPECIFIED., .T., .U.)
   B_SPLINE_CURVE_WITH_KNOTS ((6, 6), (0., 1.), .UNSPECIFIED.)
   CURVE ()
   GEOMETRIC_REPRESENTATION_ITEM ()
   RATIONAL_B_SPLINE_CURVE ((5., 1., 1., 1., 1., 5.))
   REPRESENTATION_ITEM ('')
);
#32 = EDGE_CURVE ('', #4, #4, #31, .T.);
#33 = ORIENTED_EDGE ('', *, *, #32, .F.);
#34 = EDGE_LOOP ('', (#14, #23, #24, #33));
#35 = FACE_OUTER_BOUND ('', #34, .T.);
#36 = CARTESIAN_POINT ('', (-1., 12.5, -3.06161699786838E-15));
#37 = CARTESIAN_POINT ('', (-0.823979860049297, 12.5, -3.06161699786838E-15));
#38 = CARTESIAN_POINT ('', (-0.545397966132821, 12.4241943824046, -3.04304997647927E-15));
#39 = CARTESIAN_POINT ('', (-0.220054300201928, 12.1596999306322, -2.9782675197282E-15));
#40 = CARTESIAN_POINT ('', (-0.0405284603756849, 11.8537419336111, -2.90332942338313E-15));
#41 = CARTESIAN_POINT ('', (1.97215226305253E-31, 11.6092553777797, -2.84344748777643E-15));
#42 = CARTESIAN_POINT ('', (1.97215226305253E-31, 11.5, -2.81668763803891E-15));
#43 = CARTESIAN_POINT ('', (-1., 12.5, 50.));
#44 = CARTESIAN_POINT ('', (-0.8239798600493, 12.5, 50.));
#45 = CARTESIAN_POINT ('', (-0.545397966132824, 12.4241943824046, 49.6967775296184));
#46 = CARTESIAN_POINT ('', (-0.220054300201931, 12.1596999306322, 48.6387997225288));
#47 = CARTESIAN_POINT ('', (-0.0405284603756878, 11.8537419336112, 47.4149677344446));
#48 = CARTESIAN_POINT ('', (-2.84344748777643E-15, 11.6092553777797, 46.4370215111189));
#49 = CARTESIAN_POINT ('', (-2.81668763803891E-15, 11.5, 46.));
#50 = CARTESIAN_POINT ('', (-1., -37.5, 25.));
#51 = CARTESIAN_POINT ('', (-0.823979860049302, -37.5, 25.));
#52 = CARTESIAN_POINT ('', (-0.545397966132826, -37.2725831472138, 24.8483887648092));
#53 = CARTESIAN_POINT ('', (-0.220054300201933, -36.4790997918966, 24.3193998612644));
#54 = CARTESIAN_POINT ('', (-0.0405284603756893, -35.5612258008334, 23.7074838672223));
#55 = CARTESIAN_POINT ('', (-4.26517123166465E-15, -34.8277661333392, 23.2185107555595));
#56 = CARTESIAN_POINT ('', (-4.22503145705837E-15, -34.5, 23.));
#57 = CARTESIAN_POINT ('', (-1., -37.5, -25.));
#58 = CARTESIAN_POINT ('', (-0.823979860049299, -37.5, -25.));
#59 = CARTESIAN_POINT ('', (-0.545397966132823, -37.2725831472138, -24.8483887648092));
#60 = CARTESIAN_POINT ('', (-0.22005430020193, -36.4790997918966, -24.3193998612644));
#61 = CARTESIAN_POINT ('', (-0.0405284603756864, -35.5612258008334, -23.7074838672223));
#62 = CARTESIAN_POINT ('', (-1.42172374388822E-15, -34.8277661333392, -23.2185107555595));
#63 = CARTESIAN_POINT ('', (-1.40834381901946E-15, -34.5, -23.));
#64 = CARTESIAN_POINT ('', (-0.999999999999997, 12.5, -50.));
#65 = CARTESIAN_POINT ('', (-0.823979860049294, 12.5, -50.));
#66 = CARTESIAN_POINT ('', (-0.545397966132818, 12.4241943824046, -49.6967775296184));
#67 = CARTESIAN_POINT ('', (-0.220054300201925, 12.1596999306322, -48.6387997225288));
#68 = CARTESIAN_POINT ('', (-0.040528460375682, 11.8537419336111, -47.4149677344446));
#69 = CARTESIAN_POINT ('', (2.84344748777643E-15, 11.6092553777797, -46.4370215111189));
#70 = CARTESIAN_POINT ('', (2.81668763803891E-15, 11.5, -46.));
#71 = CARTESIAN_POINT ('', (-1., 12.5, -3.06161699786838E-15));
#72 = CARTESIAN_POINT ('', (-0.823979860049297, 12.5, -3.06161699786838E-15));
#73 = CARTESIAN_POINT ('', (-0.545397966132821, 12.4241943824046, -3.04304997647927E-15));
#74 = CARTESIAN_POINT ('', (-0.220054300201928, 12.1596999306322, -2.9782675197282E-15));
#75 = CARTESIAN_POINT ('', (-0.0405284603756849, 11.8537419336111, -2.90332942338313E-15));
#76 = CARTESIAN_POINT ('', (1.97215226305253E-31, 11.6092553777797, -2.84344748777643E-15));
#77 = CARTESIAN_POINT ('', (1.97215226305253E-31, 11.5, -2.81668763803891E-15));
#78 = (
   BOUNDED_SURFACE ()
   B_SPLINE_SURFACE (5, 3, ((#36, #37, #38, #39, #40, #41, #42), (#43, #44, #45, #46, #47, #48, #49), (#50, #51, #52, #53, #54, #55, #56), (#57, #58, #59, #60, #61, #62, #63), (#64, #65, #66, #67, #68, #69, #70), (#71, #72, #73, #74, #75, #76, #77)), .UNSPECIFIED., .T., .F., .U.)
   B_SPLINE_SURFACE_WITH_KNOTS ((6, 6), (4, 1, 1, 1, 4), (0., 1.), (0., 0.33617370428258, 0.532939663384364, 0.791337598803809, 1.), .UNSPECIFIED.)
   SURFACE ()
   GEOMETRIC_REPRESENTATION_ITEM ()
   RATIONAL_B_SPLINE_SURFACE (((5., 5., 5., 5., 5., 5., 5.), (1., 1., 1., 1., 1., 1., 1.), (1., 1., 1., 1., 1., 1., 1.), (1., 1., 1., 1., 1., 1., 1.), (1., 1., 1., 1., 1., 1., 1.), (5., 5., 5., 5., 5., 5., 5.)))
   REPRESENTATION_ITEM ('')
);
#79 = ADVANCED_FACE ('', (#35), #78, .T.);
#80 = CARTESIAN_POINT ('', (-103.75, 12.5, -3.06161699786838E-15));
#81 = VERTEX_POINT ('', #80);
#82 = CARTESIAN_POINT ('', (-103.75, 12.5, -3.06161699786838E-15));
#83 = CARTESIAN_POINT ('', (-69.4999999999999, 12.5, -3.06161699786838E-15));
#84 = CARTESIAN_POINT ('', (-35.25, 12.5, -3.06161699786838E-15));
#85 = CARTESIAN_POINT ('', (-1., 12.5, -3.06161699786838E-15));
#86 = B_SPLINE_CURVE_WITH_KNOTS ('', 3, (#82, #83, #84, #85), .UNSPECIFIED., .F., .U., (4, 4), (0., 1.), .UNSPECIFIED.);
#87 = EDGE_CURVE ('', #81, #2, #86, .T.);
#88 = ORIENTED_EDGE ('', *, *, #87, .F.);
#89 = CARTESIAN_POINT ('', (-103.75, 12.5, -3.06161699786838E-15));
#90 = CARTESIAN_POINT ('', (-103.75, 12.5, 50.));
#91 = CARTESIAN_POINT ('', (-103.75, -37.5, 25.));
#92 = CARTESIAN_POINT ('', (-103.75, -37.5, -25.));
#93 = CARTESIAN_POINT ('', (-103.75, 12.5, -50.));
#94 = CARTESIAN_POINT ('', (-103.75, 12.5, -3.06161699786838E-15));
#95 = (
   BOUNDED_CURVE ()
   B_SPLINE_CURVE (5, (#89, #90, #91, #92, #93, #94), .UNSPECIFIED., .T., .U.)
   B_SPLINE_CURVE_WITH_KNOTS ((6, 6), (0., 1.), .UNSPECIFIED.)
   CURVE ()
   GEOMETRIC_REPRESENTATION_ITEM ()
   RATIONAL_B_SPLINE_CURVE ((5., 1., 1., 1., 1., 5.))
   REPRESENTATION_ITEM ('')
);
#96 = EDGE_CURVE ('', #81, #81, #95, .T.);
#97 = ORIENTED_EDGE ('', *, *, #96, .T.);
#98 = ORIENTED_EDGE ('', *, *, #87, .T.);
#99 = ORIENTED_EDGE ('', *, *, #22, .F.);
#100 = EDGE_LOOP ('', (#88, #97, #98, #99));
#101 = FACE_OUTER_BOUND ('', #100, .T.);
#102 = CARTESIAN_POINT ('', (-103.75, 12.5, -3.06161699786838E-15));
#103 = CARTESIAN_POINT ('', (-69.4999999999999, 12.5, -3.06161699786838E-15));
#104 = CARTESIAN_POINT ('', (-35.25, 12.5, -3.06161699786838E-15));
#105 = CARTESIAN_POINT ('', (-1., 12.5, -3.06161699786838E-15));
#106 = CARTESIAN_POINT ('', (-103.75, 12.5, 50.));
#107 = CARTESIAN_POINT ('', (-69.4999999999999, 12.5, 49.9999999999999));
#108 = CARTESIAN_POINT ('', (-35.25, 12.5, 50.));
#109 = CARTESIAN_POINT ('', (-1., 12.5, 50.));
#110 = CARTESIAN_POINT ('', (-103.75, -37.5, 25.));
#111 = CARTESIAN_POINT ('', (-69.4999999999999, -37.5, 25.));
#112 = CARTESIAN_POINT ('', (-35.25, -37.5, 25.));
#113 = CARTESIAN_POINT ('', (-1., -37.5, 25.));
#114 = CARTESIAN_POINT ('', (-103.75, -37.5, -25.));
#115 = CARTESIAN_POINT ('', (-69.4999999999999, -37.5, -25.));
#116 = CARTESIAN_POINT ('', (-35.25, -37.5, -25.));
#117 = CARTESIAN_POINT ('', (-1., -37.5, -25.));
#118 = CARTESIAN_POINT ('', (-103.75, 12.5, -50.));
#119 = CARTESIAN_POINT ('', (-69.4999999999999, 12.5, -50.));
#120 = CARTESIAN_POINT ('', (-35.25, 12.5, -50.));
#121 = CARTESIAN_POINT ('', (-0.999999999999997, 12.5, -50.));
#122 = CARTESIAN_POINT ('', (-103.75, 12.5, -3.06161699786838E-15));
#123 = CARTESIAN_POINT ('', (-69.4999999999999, 12.5, -3.06161699786838E-15));
#124 = CARTESIAN_POINT ('', (-35.25, 12.5, -3.06161699786838E-15));
#125 = CARTESIAN_POINT ('', (-1., 12.5, -3.06161699786838E-15));
#126 = (
   BOUNDED_SURFACE ()
   B_SPLINE_SURFACE (5, 3, ((#102, #103, #104, #105), (#106, #107, #108, #109), (#110, #111, #112, #113), (#114, #115, #116, #117), (#118, #119, #120, #121), (#122, #123, #124, #125)), .UNSPECIFIED., .T., .F., .U.)
   B_SPLINE_SURFACE_WITH_KNOTS ((6, 6), (4, 4), (0., 1.), (0., 1.), .UNSPECIFIED.)
   SURFACE ()
   GEOMETRIC_REPRESENTATION_ITEM ()
   RATIONAL_B_SPLINE_SURFACE (((5., 5., 5., 5.), (1., 1., 1., 1.), (1., 1., 1., 1.), (1., 1., 1., 1.), (1., 1., 1., 1.), (5., 5., 5., 5.)))
   REPRESENTATION_ITEM ('')
);
#127 = ADVANCED_FACE ('', (#101), #126, .T.);
#128 = CARTESIAN_POINT ('', (-104., 12.25, -3.00038465791101E-15));
#129 = VERTEX_POINT ('', #128);
#130 = CARTESIAN_POINT ('', (-104., 12.25, -3.00038465791101E-15));
#131 = CARTESIAN_POINT ('', (-103.916666666666, 12.3333333333333, -3.0207954378968E-15));
#132 = CARTESIAN_POINT ('', (-103.833333333334, 12.4166666666667, -3.0412062178826E-15));
#133 = CARTESIAN_POINT ('', (-103.75, 12.5, -3.06161699786838E-15));
#134 = B_SPLINE_CURVE_WITH_KNOTS ('', 3, (#130, #131, #132, #133), .UNSPECIFIED., .F., .U., (4, 4), (0., 1.), .UNSPECIFIED.);
#135 = EDGE_CURVE ('', #129, #81, #134, .T.);
#136 = ORIENTED_EDGE ('', *, *, #135, .F.);
#137 = CARTESIAN_POINT ('', (-104., 12.25, -3.00038465791101E-15));
#138 = CARTESIAN_POINT ('', (-104., 12.25, 49.));
#139 = CARTESIAN_POINT ('', (-104., -36.75, 24.5));
#140 = CARTESIAN_POINT ('', (-104., -36.75, -24.5));
#141 = CARTESIAN_POINT ('', (-104., 12.25, -49.));
#142 = CARTESIAN_POINT ('', (-104., 12.25, -3.00038465791101E-15));
#143 = (
   BOUNDED_CURVE ()
   B_SPLINE_CURVE (5, (#137, #138, #139, #140, #141, #142), .UNSPECIFIED., .T., .U.)
   B_SPLINE_CURVE_WITH_KNOTS ((6, 6), (0., 1.), .UNSPECIFIED.)
   CURVE ()
   GEOMETRIC_REPRESENTATION_ITEM ()
   RATIONAL_B_SPLINE_CURVE ((5., 1., 1., 1., 1., 5.))
   REPRESENTATION_ITEM ('')
);
#144 = EDGE_CURVE ('', #129, #129, #143, .T.);
#145 = ORIENTED_EDGE ('', *, *, #144, .T.);
#146 = ORIENTED_EDGE ('', *, *, #135, .T.);
#147 = ORIENTED_EDGE ('', *, *, #96, .F.);
#148 = EDGE_LOOP ('', (#136, #145, #146, #147));
#149 = FACE_OUTER_BOUND ('', #148, .T.);
#150 = CARTESIAN_POINT ('', (-104., 12.25, -3.00038465791101E-15));
#151 = CARTESIAN_POINT ('', (-103.916666666666, 12.3333333333333, -3.0207954378968E-15));
#152 = CARTESIAN_POINT ('', (-103.833333333334, 12.4166666666667, -3.0412062178826E-15));
#153 = CARTESIAN_POINT ('', (-103.75, 12.5, -3.06161699786838E-15));
#154 = CARTESIAN_POINT ('', (-104., 12.25, 49.));
#155 = CARTESIAN_POINT ('', (-103.916666666666, 12.3333333333333, 49.3333333333332));
#156 = CARTESIAN_POINT ('', (-103.833333333334, 12.4166666666667, 49.6666666666668));
#157 = CARTESIAN_POINT ('', (-103.75, 12.5, 50.));
#158 = CARTESIAN_POINT ('', (-104., -36.75, 24.5));
#159 = CARTESIAN_POINT ('', (-103.916666666666, -36.9999999999999, 24.6666666666666));
#160 = CARTESIAN_POINT ('', (-103.833333333334, -37.2500000000001, 24.8333333333334));
#161 = CARTESIAN_POINT ('', (-103.75, -37.5, 25.));
#162 = CARTESIAN_POINT ('', (-104., -36.75, -24.5));
#163 = CARTESIAN_POINT ('', (-103.916666666666, -36.9999999999999, -24.6666666666666));
#164 = CARTESIAN_POINT ('', (-103.833333333334, -37.2500000000001, -24.8333333333334));
#165 = CARTESIAN_POINT ('', (-103.75, -37.5, -25.));
#166 = CARTESIAN_POINT ('', (-104., 12.25, -49.));
#167 = CARTESIAN_POINT ('', (-103.916666666666, 12.3333333333333, -49.3333333333332));
#168 = CARTESIAN_POINT ('', (-103.833333333334, 12.4166666666667, -49.6666666666668));
#169 = CARTESIAN_POINT ('', (-103.75, 12.5, -50.));
#170 = CARTESIAN_POINT ('', (-104., 12.25, -3.00038465791101E-15));
#171 = CARTESIAN_POINT ('', (-103.916666666666, 12.3333333333333, -3.0207954378968E-15));
#172 = CARTESIAN_POINT ('', (-103.833333333334, 12.4166666666667, -3.0412062178826E-15));
#173 = CARTESIAN_POINT ('', (-103.75, 12.5, -3.06161699786838E-15));
#174 = (
   BOUNDED_SURFACE ()
   B_SPLINE_SURFACE (5, 3, ((#150, #151, #152, #153), (#154, #155, #156, #157), (#158, #159, #160, #161), (#162, #163, #164, #165), (#166, #167, #168, #169), (#170, #171, #172, #173)), .UNSPECIFIED., .T., .F., .U.)
   B_SPLINE_SURFACE_WITH_KNOTS ((6, 6), (4, 4), (0., 1.), (0., 1.), .UNSPECIFIED.)
   SURFACE ()
   GEOMETRIC_REPRESENTATION_ITEM ()
   RATIONAL_B_SPLINE_SURFACE (((5., 5., 5., 5.), (1., 1., 1., 1.), (1., 1., 1., 1.), (1., 1., 1., 1.), (1., 1., 1., 1.), (5., 5., 5., 5.)))
   REPRESENTATION_ITEM ('')
);
#175 = ADVANCED_FACE ('', (#149), #174, .T.);
#176 = CARTESIAN_POINT ('', (-104., 6.36816335556624E-15, -6.36816335556624E-15));
#177 = VERTEX_POINT ('', #176);
#178 = CARTESIAN_POINT ('', (-104., 6.36816335556624E-15, -6.36816335556624E-15));
#179 = CARTESIAN_POINT ('', (-104., 12.25, -3.00038465791101E-15));
#180 = B_SPLINE_CURVE_WITH_KNOTS ('', 1, (#178, #179), .UNSPECIFIED., .F., .U., (2, 2), (0., 1.), .UNSPECIFIED.);
#181 = EDGE_CURVE ('', #177, #129, #180, .T.);
#182 = ORIENTED_EDGE ('', *, *, #181, .F.);
#183 = ORIENTED_EDGE ('', *, *, #181, .T.);
#184 = ORIENTED_EDGE ('', *, *, #144, .F.);
#185 = EDGE_LOOP ('', (#182, #183, #184));
#186 = FACE_OUTER_BOUND ('', #185, .T.);
#187 = CARTESIAN_POINT ('', (-104., 6.36816335556624E-15, -6.36816335556624E-15));
#188 = CARTESIAN_POINT ('', (-104., 12.25, -3.00038465791101E-15));
#189 = CARTESIAN_POINT ('', (-104., 6.36816335556624E-15, -6.36816335556624E-15));
#190 = CARTESIAN_POINT ('', (-104., 12.25, 49.));
#191 = CARTESIAN_POINT ('', (-104., 6.36816335556624E-15, -6.36816335556624E-15));
#192 = CARTESIAN_POINT ('', (-104., -36.75, 24.5));
#193 = CARTESIAN_POINT ('', (-104., 6.36816335556624E-15, -6.36816335556624E-15));
#194 = CARTESIAN_POINT ('', (-104., -36.75, -24.5));
#195 = CARTESIAN_POINT ('', (-104., 6.36816335556624E-15, -6.36816335556624E-15));
#196 = CARTESIAN_POINT ('', (-104., 12.25, -49.));
#197 = CARTESIAN_POINT ('', (-104., 6.36816335556624E-15, -6.36816335556624E-15));
#198 = CARTESIAN_POINT ('', (-104., 12.25, -3.00038465791101E-15));
#199 = (
   BOUNDED_SURFACE ()
   B_SPLINE_SURFACE (5, 1, ((#187, #188), (#189, #190), (#191, #192), (#193, #194), (#195, #196), (#197, #198)), .UNSPECIFIED., .T., .F., .U.)
   B_SPLINE_SURFACE_WITH_KNOTS ((6, 6), (2, 2), (0., 1.), (0., 1.), .UNSPECIFIED.)
   SURFACE ()
   GEOMETRIC_REPRESENTATION_ITEM ()
   RATIONAL_B_SPLINE_SURFACE (((5., 5.), (1., 1.), (1., 1.), (1., 1.), (1., 1.), (5., 5.)))
   REPRESENTATION_ITEM ('')
);
#200 = ADVANCED_FACE ('', (#186), #199, .T.);
#201 = CARTESIAN_POINT ('', (-7.04171909509728E-16, 4.31180937515284E-32, -4.31180937515284E-32));
#202 = VERTEX_POINT ('', #201);
#203 = CARTESIAN_POINT ('', (1.97215226305253E-31, 11.5, -2.81668763803891E-15));
#204 = CARTESIAN_POINT ('', (-7.04171909509728E-16, 4.31180937515284E-32, -4.31180937515284E-32));
#205 = B_SPLINE_CURVE_WITH_KNOTS ('', 1, (#203, #204), .UNSPECIFIED., .F., .U., (2, 2), (0., 1.), .UNSPECIFIED.);
#206 = EDGE_CURVE ('', #4, #202, #205, .T.);
#207 = ORIENTED_EDGE ('', *, *, #206, .F.);
#208 = ORIENTED_EDGE ('', *, *, #32, .T.);
#209 = ORIENTED_EDGE ('', *, *, #206, .T.);
#210 = EDGE_LOOP ('', (#207, #208, #209));
#211 = FACE_OUTER_BOUND ('', #210, .T.);
#212 = CARTESIAN_POINT ('', (1.97215226305253E-31, 11.5, -2.81668763803891E-15));
#213 = CARTESIAN_POINT ('', (-7.04171909509728E-16, 4.31180937515284E-32, -4.31180937515284E-32));
#214 = CARTESIAN_POINT ('', (-2.81668763803891E-15, 11.5, 46.));
#215 = CARTESIAN_POINT ('', (-7.04171909509728E-16, 4.31180937515284E-32, -4.31180937515284E-32));
#216 = CARTESIAN_POINT ('', (-4.22503145705837E-15, -34.5, 23.));
#217 = CARTESIAN_POINT ('', (-7.04171909509728E-16, 4.31180937515284E-32, -4.31180937515284E-32));
#218 = CARTESIAN_POINT ('', (-1.40834381901946E-15, -34.5, -23.));
#219 = CARTESIAN_POINT ('', (-7.04171909509728E-16, 4.31180937515284E-32, -4.31180937515284E-32));
#220 = CARTESIAN_POINT ('', (2.81668763803891E-15, 11.5, -46.));
#221 = CARTESIAN_POINT ('', (-7.04171909509728E-16, 4.31180937515284E-32, -4.31180937515284E-32));
#222 = CARTESIAN_POINT ('', (1.97215226305253E-31, 11.5, -2.81668763803891E-15));
#223 = CARTESIAN_POINT ('', (-7.04171909509728E-16, 4.31180937515284E-32, -4.31180937515284E-32));
#224 = (
   BOUNDED_SURFACE ()
   B_SPLINE_SURFACE (5, 1, ((#212, #213), (#214, #215), (#216, #217), (#218, #219), (#220, #221), (#222, #223)), .UNSPECIFIED., .T., .F., .U.)
   B_SPLINE_SURFACE_WITH_KNOTS ((6, 6), (2, 2), (0., 1.), (0., 1.), .UNSPECIFIED.)
   SURFACE ()
   GEOMETRIC_REPRESENTATION_ITEM ()
   RATIONAL_B_SPLINE_SURFACE (((5., 5.), (1., 1.), (1., 1.), (1., 1.), (1., 1.), (5., 5.)))
   REPRESENTATION_ITEM ('')
);
#225 = ADVANCED_FACE ('', (#211), #224, .T.);
#226 = CLOSED_SHELL ('', (#79, #127, #175, #200, #225));
#227 = MANIFOLD_SOLID_BREP ('', #226);
#228 = (
   LENGTH_UNIT ()
   NAMED_UNIT (*)
   SI_UNIT (.MILLI., .METRE.)
);
#229 = (
   NAMED_UNIT (*)
   SI_UNIT ($, .STERADIAN.)
   SOLID_ANGLE_UNIT ()
);
#230 = (
   NAMED_UNIT (*)
   SI_UNIT ($, .RADIAN.)
   PLANE_ANGLE_UNIT ()
);
#231 = UNCERTAINTY_MEASURE_WITH_UNIT (LENGTH_MEASURE(0.001), #228, 'DISTANCE_ACCURACY_VALUE', '');
#232 = (
   GEOMETRIC_REPRESENTATION_CONTEXT (3)
   GLOBAL_UNCERTAINTY_ASSIGNED_CONTEXT ((#231))
   GLOBAL_UNIT_ASSIGNED_CONTEXT ((#228, #229, #230))
   REPRESENTATION_CONTEXT ('', '3D')
);
#233 = SHAPE_REPRESENTATION ('', (), #232);
#234 = APPLICATION_CONTEXT ('configuration controlled 3D designs of mechanical parts and assemblies');
#235 = APPLICATION_PROTOCOL_DEFINITION ('International Standard', 'config_control_design', 1997, #234);
#236 = MECHANICAL_CONTEXT ('', #234, 'mechanical');
#237 = PRODUCT ('', '', '', (#236));
#238 = PERSON_AND_ORGANIZATION_ROLE ('design_owner');
#239 = PERSON ('', '', $, $, $, $);
#240 = ORGANIZATION ($, '', '');
#241 = PERSON_AND_ORGANIZATION (#239, #240);
#242 = CC_DESIGN_PERSON_AND_ORGANIZATION_ASSIGNMENT (#241, #238, (#237));
#243 = PRODUCT_RELATED_PRODUCT_CATEGORY ('detail', $, (#237));
#244 = PRODUCT_DEFINITION_FORMATION_WITH_SPECIFIED_SOURCE ('', '', #237, .NOT_KNOWN.);
#245 = APPROVAL_STATUS ('approved');
#246 = APPROVAL (#245, '');
#247 = CALENDAR_DATE (2020, 15, 4);
#248 = COORDINATED_UNIVERSAL_TIME_OFFSET (0, $, .AHEAD.);
#249 = LOCAL_TIME (12, 54, 50., #248);
#250 = DATE_AND_TIME (#247, #249);
#251 = APPROVAL_DATE_TIME (#250, #246);
#252 = APPROVAL_ROLE ('');
#253 = PERSON ('', '', $, $, $, $);
#254 = ORGANIZATION ($, '', '');
#255 = PERSON_AND_ORGANIZATION (#253, #254);
#256 = APPROVAL_PERSON_ORGANIZATION (#255, #246, #252);
#257 = CC_DESIGN_APPROVAL (#246, (#244));
#258 = PERSON_AND_ORGANIZATION_ROLE ('creator');
#259 = PERSON ('', '', $, $, $, $);
#260 = ORGANIZATION ($, '', '');
#261 = PERSON_AND_ORGANIZATION (#259, #260);
#262 = CC_DESIGN_PERSON_AND_ORGANIZATION_ASSIGNMENT (#261, #258, (#244));
#263 = PERSON_AND_ORGANIZATION_ROLE ('part_supplier');
#264 = PERSON ('', '', $, $, $, $);
#265 = ORGANIZATION ($, '', '');
#266 = PERSON_AND_ORGANIZATION (#264, #265);
#267 = CC_DESIGN_PERSON_AND_ORGANIZATION_ASSIGNMENT (#266, #263, (#244));
#268 = SECURITY_CLASSIFICATION_LEVEL ('unclassified');
#269 = SECURITY_CLASSIFICATION ('', '', #268);
#270 = APPROVAL_STATUS ('approved');
#271 = APPROVAL (#270, '');
#272 = CALENDAR_DATE (2020, 15, 4);
#273 = COORDINATED_UNIVERSAL_TIME_OFFSET (0, $, .AHEAD.);
#274 = LOCAL_TIME (12, 54, 50., #273);
#275 = DATE_AND_TIME (#272, #274);
#276 = APPROVAL_DATE_TIME (#275, #271);
#277 = APPROVAL_ROLE ('');
#278 = PERSON ('', '', $, $, $, $);
#279 = ORGANIZATION ($, '', '');
#280 = PERSON_AND_ORGANIZATION (#278, #279);
#281 = APPROVAL_PERSON_ORGANIZATION (#280, #271, #277);
#282 = CC_DESIGN_APPROVAL (#271, (#269));
#283 = DATE_TIME_ROLE ('classification_date');
#284 = CALENDAR_DATE (2020, 15, 4);
#285 = COORDINATED_UNIVERSAL_TIME_OFFSET (0, $, .AHEAD.);
#286 = LOCAL_TIME (12, 54, 50., #285);
#287 = DATE_AND_TIME (#284, #286);
#288 = CC_DESIGN_DATE_AND_TIME_ASSIGNMENT (#287, #283, (#269));
#289 = PERSON_AND_ORGANIZATION_ROLE ('classification_officer');
#290 = PERSON ('', '', $, $, $, $);
#291 = ORGANIZATION ($, '', '');
#292 = PERSON_AND_ORGANIZATION (#290, #291);
#293 = CC_DESIGN_PERSON_AND_ORGANIZATION_ASSIGNMENT (#292, #289, (#269));
#294 = CC_DESIGN_SECURITY_CLASSIFICATION (#269, (#244));
#295 = DESIGN_CONTEXT ('', #234, 'design');
#296 = PRODUCT_DEFINITION ('', '', #244, #295);
#297 = APPROVAL_STATUS ('approved');
#298 = APPROVAL (#297, '');
#299 = CALENDAR_DATE (2020, 15, 4);
#300 = COORDINATED_UNIVERSAL_TIME_OFFSET (0, $, .AHEAD.);
#301 = LOCAL_TIME (12, 54, 50., #300);
#302 = DATE_AND_TIME (#299, #301);
#303 = APPROVAL_DATE_TIME (#302, #298);
#304 = APPROVAL_ROLE ('');
#305 = PERSON ('', '', $, $, $, $);
#306 = ORGANIZATION ($, '', '');
#307 = PERSON_AND_ORGANIZATION (#305, #306);
#308 = APPROVAL_PERSON_ORGANIZATION (#307, #298, #304);
#309 = CC_DESIGN_APPROVAL (#298, (#296));
#310 = DATE_TIME_ROLE ('creation_date');
#311 = CALENDAR_DATE (2020, 15, 4);
#312 = COORDINATED_UNIVERSAL_TIME_OFFSET (0, $, .AHEAD.);
#313 = LOCAL_TIME (12, 54, 50., #312);
#314 = DATE_AND_TIME (#311, #313);
#315 = CC_DESIGN_DATE_AND_TIME_ASSIGNMENT (#314, #310, (#296));
#316 = PERSON_AND_ORGANIZATION_ROLE ('creator');
#317 = PERSON ('', '', $, $, $, $);
#318 = ORGANIZATION ($, '', '');
#319 = PERSON_AND_ORGANIZATION (#317, #318);
#320 = CC_DESIGN_PERSON_AND_ORGANIZATION_ASSIGNMENT (#319, #316, (#296));
#321 = PRODUCT_DEFINITION_SHAPE ('', '', #296);
#322 = SHAPE_DEFINITION_REPRESENTATION (#321, #233);
#323 = SHAPE_REPRESENTATION_RELATIONSHIP ('', '', #233, #324);
#324 = ADVANCED_BREP_SHAPE_REPRESENTATION ('', (#227), #232);
ENDSEC;
END-ISO-10303-21;
