ISO-10303-21;
HEADER;
FILE_DESCRIPTION ((), '1');
FILE_NAME ('C:\\Users\\kevin\\179 Range\\179 0150A.STP', '2020-04-16T12:04:22', ('Unknown'), ('mafordeurope'), 'OneCNC-XR7 Mill 3D Expert', 'OneCNC-XR7 Mill 3D Expert', '');
FILE_SCHEMA (('CONFIG_CONTROL_DESIGN'));
ENDSEC;

DATA;
#1 = CARTESIAN_POINT ('', (0., 0., 0.));
#2 = VERTEX_POINT ('', #1);
#3 = CARTESIAN_POINT ('', (-0.75, 0.75, -1.83697019872103E-16));
#4 = VERTEX_POINT ('', #3);
#5 = CARTESIAN_POINT ('', (0., 0., 0.));
#6 = CARTESIAN_POINT ('', (1.54074395550979E-33, 0.132015104963028, -3.23343751464148E-17));
#7 = CARTESIAN_POINT ('', (-0.0568542131965343, 0.340951525400385, -8.35090388491979E-17));
#8 = CARTESIAN_POINT ('', (-0.307532102291133, 0.649300010063585, -1.59032635802143E-16));
#9 = CARTESIAN_POINT ('', (-0.566585834713142, 0.749999999999999, -1.83697019872103E-16));
#10 = CARTESIAN_POINT ('', (-0.75, 0.75, -1.83697019872103E-16));
#11 = B_SPLINE_CURVE_WITH_KNOTS ('', 3, (#5, #6, #7, #8, #9, #10), .UNSPECIFIED., .F., .U., (4, 1, 1, 4), (0., 0.33617370428258, 0.532939663384363, 1.), .UNSPECIFIED.);
#12 = EDGE_CURVE ('', #2, #4, #11, .T.);
#13 = ORIENTED_EDGE ('', *, *, #12, .F.);
#14 = ORIENTED_EDGE ('', *, *, #12, .T.);
#15 = CARTESIAN_POINT ('', (-0.75, 0.75, -1.83697019872103E-16));
#16 = CARTESIAN_POINT ('', (-0.75, 0.750000000000001, 3.));
#17 = CARTESIAN_POINT ('', (-0.75, -2.25, 1.5));
#18 = CARTESIAN_POINT ('', (-0.75, -2.25, -1.5));
#19 = CARTESIAN_POINT ('', (-0.75, 0.749999999999999, -3.));
#20 = CARTESIAN_POINT ('', (-0.75, 0.75, -1.83697019872103E-16));
#21 = (
   BOUNDED_CURVE ()
   B_SPLINE_CURVE (5, (#15, #16, #17, #18, #19, #20), .UNSPECIFIED., .T., .U.)
   B_SPLINE_CURVE_WITH_KNOTS ((6, 6), (0., 1.), .UNSPECIFIED.)
   CURVE ()
   GEOMETRIC_REPRESENTATION_ITEM ()
   RATIONAL_B_SPLINE_CURVE ((5., 1., 1., 1., 1., 5.))
   REPRESENTATION_ITEM ('')
);
#22 = EDGE_CURVE ('', #4, #4, #21, .T.);
#23 = ORIENTED_EDGE ('', *, *, #22, .F.);
#24 = EDGE_LOOP ('', (#13, #14, #23));
#25 = FACE_OUTER_BOUND ('', #24, .F.);
#26 = CARTESIAN_POINT ('', (0., 0., 0.));
#27 = CARTESIAN_POINT ('', (1.54074395550979E-33, 0.132015104963028, -3.23343751464148E-17));
#28 = CARTESIAN_POINT ('', (-0.0568542131965343, 0.340951525400385, -8.35090388491979E-17));
#29 = CARTESIAN_POINT ('', (-0.307532102291133, 0.649300010063585, -1.59032635802143E-16));
#30 = CARTESIAN_POINT ('', (-0.566585834713142, 0.749999999999999, -1.83697019872103E-16));
#31 = CARTESIAN_POINT ('', (-0.75, 0.75, -1.83697019872103E-16));
#32 = CARTESIAN_POINT ('', (0., 0., 0.));
#33 = CARTESIAN_POINT ('', (-3.23343751464147E-17, 0.132015104963028, 0.528060419852111));
#34 = CARTESIAN_POINT ('', (-0.0568542131965344, 0.340951525400386, 1.36380610160154));
#35 = CARTESIAN_POINT ('', (-0.307532102291133, 0.649300010063586, 2.59720004025434));
#36 = CARTESIAN_POINT ('', (-0.566585834713142, 0.75, 3.));
#37 = CARTESIAN_POINT ('', (-0.75, 0.750000000000001, 3.));
#38 = CARTESIAN_POINT ('', (0., 0., 0.));
#39 = CARTESIAN_POINT ('', (-4.85015627196221E-17, -0.396045314889083, 0.264030209926056));
#40 = CARTESIAN_POINT ('', (-0.0568542131965345, -1.02285457620116, 0.681903050800771));
#41 = CARTESIAN_POINT ('', (-0.307532102291133, -1.94790003019076, 1.29860002012717));
#42 = CARTESIAN_POINT ('', (-0.566585834713142, -2.25, 1.5));
#43 = CARTESIAN_POINT ('', (-0.75, -2.25, 1.5));
#44 = CARTESIAN_POINT ('', (0., 0., 0.));
#45 = CARTESIAN_POINT ('', (-1.61671875732074E-17, -0.396045314889083, -0.264030209926055));
#46 = CARTESIAN_POINT ('', (-0.0568542131965344, -1.02285457620116, -0.681903050800771));
#47 = CARTESIAN_POINT ('', (-0.307532102291133, -1.94790003019076, -1.29860002012717));
#48 = CARTESIAN_POINT ('', (-0.566585834713142, -2.25, -1.5));
#49 = CARTESIAN_POINT ('', (-0.75, -2.25, -1.5));
#50 = CARTESIAN_POINT ('', (0., 0., 0.));
#51 = CARTESIAN_POINT ('', (3.23343751464147E-17, 0.132015104963028, -0.528060419852111));
#52 = CARTESIAN_POINT ('', (-0.0568542131965342, 0.340951525400385, -1.36380610160154));
#53 = CARTESIAN_POINT ('', (-0.307532102291132, 0.649300010063585, -2.59720004025434));
#54 = CARTESIAN_POINT ('', (-0.566585834713142, 0.749999999999998, -3.));
#55 = CARTESIAN_POINT ('', (-0.75, 0.749999999999999, -3.));
#56 = CARTESIAN_POINT ('', (0., 0., 0.));
#57 = CARTESIAN_POINT ('', (1.54074395550979E-33, 0.132015104963028, -3.23343751464148E-17));
#58 = CARTESIAN_POINT ('', (-0.0568542131965343, 0.340951525400385, -8.35090388491979E-17));
#59 = CARTESIAN_POINT ('', (-0.307532102291133, 0.649300010063585, -1.59032635802143E-16));
#60 = CARTESIAN_POINT ('', (-0.566585834713142, 0.749999999999999, -1.83697019872103E-16));
#61 = CARTESIAN_POINT ('', (-0.75, 0.75, -1.83697019872103E-16));
#62 = (
   BOUNDED_SURFACE ()
   B_SPLINE_SURFACE (5, 3, ((#26, #27, #28, #29, #30, #31), (#32, #33, #34, #35, #36, #37), (#38, #39, #40, #41, #42, #43), (#44, #45, #46, #47, #48, #49), (#50, #51, #52, #53, #54, #55), (#56, #57, #58, #59, #60, #61)), .UNSPECIFIED., .T., .F., .U.)
   B_SPLINE_SURFACE_WITH_KNOTS ((6, 6), (4, 1, 1, 4), (0., 1.), (0., 0.33617370428258, 0.532939663384363, 1.), .UNSPECIFIED.)
   SURFACE ()
   GEOMETRIC_REPRESENTATION_ITEM ()
   RATIONAL_B_SPLINE_SURFACE (((5., 5., 5., 5., 5., 5.), (1., 1., 1., 1., 1., 1.), (1., 1., 1., 1., 1., 1.), (1., 1., 1., 1., 1., 1.), (1., 1., 1., 1., 1., 1.), (5., 5., 5., 5., 5., 5.)))
   REPRESENTATION_ITEM ('')
);
#63 = ADVANCED_FACE ('', (#25), #62, .F.);
#64 = CARTESIAN_POINT ('', (-3., 0.75, -1.83697019872103E-16));
#65 = VERTEX_POINT ('', #64);
#66 = CARTESIAN_POINT ('', (-0.75, 0.75, -1.83697019872103E-16));
#67 = CARTESIAN_POINT ('', (-1.5, 0.75, -1.83697019872103E-16));
#68 = CARTESIAN_POINT ('', (-2.25, 0.75, -1.83697019872103E-16));
#69 = CARTESIAN_POINT ('', (-3., 0.75, -1.83697019872103E-16));
#70 = B_SPLINE_CURVE_WITH_KNOTS ('', 3, (#66, #67, #68, #69), .UNSPECIFIED., .F., .U., (4, 4), (0., 1.), .UNSPECIFIED.);
#71 = EDGE_CURVE ('', #4, #65, #70, .T.);
#72 = ORIENTED_EDGE ('', *, *, #71, .F.);
#73 = ORIENTED_EDGE ('', *, *, #22, .T.);
#74 = ORIENTED_EDGE ('', *, *, #71, .T.);
#75 = CARTESIAN_POINT ('', (-3., 0.75, -1.83697019872103E-16));
#76 = CARTESIAN_POINT ('', (-3., 0.75, 3.));
#77 = CARTESIAN_POINT ('', (-3., -2.25, 1.5));
#78 = CARTESIAN_POINT ('', (-3., -2.25, -1.5));
#79 = CARTESIAN_POINT ('', (-3., 0.75, -3.));
#80 = CARTESIAN_POINT ('', (-3., 0.75, -1.83697019872103E-16));
#81 = (
   BOUNDED_CURVE ()
   B_SPLINE_CURVE (5, (#75, #76, #77, #78, #79, #80), .UNSPECIFIED., .T., .U.)
   B_SPLINE_CURVE_WITH_KNOTS ((6, 6), (0., 1.), .UNSPECIFIED.)
   CURVE ()
   GEOMETRIC_REPRESENTATION_ITEM ()
   RATIONAL_B_SPLINE_CURVE ((5., 1., 1., 1., 1., 5.))
   REPRESENTATION_ITEM ('')
);
#82 = EDGE_CURVE ('', #65, #65, #81, .T.);
#83 = ORIENTED_EDGE ('', *, *, #82, .F.);
#84 = EDGE_LOOP ('', (#72, #73, #74, #83));
#85 = FACE_OUTER_BOUND ('', #84, .F.);
#86 = CARTESIAN_POINT ('', (-0.75, 0.75, -1.83697019872103E-16));
#87 = CARTESIAN_POINT ('', (-1.5, 0.75, -1.83697019872103E-16));
#88 = CARTESIAN_POINT ('', (-2.25, 0.75, -1.83697019872103E-16));
#89 = CARTESIAN_POINT ('', (-3., 0.75, -1.83697019872103E-16));
#90 = CARTESIAN_POINT ('', (-0.75, 0.750000000000001, 3.));
#91 = CARTESIAN_POINT ('', (-1.5, 0.75, 3.));
#92 = CARTESIAN_POINT ('', (-2.25, 0.75, 3.));
#93 = CARTESIAN_POINT ('', (-3., 0.75, 3.));
#94 = CARTESIAN_POINT ('', (-0.75, -2.25, 1.5));
#95 = CARTESIAN_POINT ('', (-1.5, -2.25, 1.5));
#96 = CARTESIAN_POINT ('', (-2.25, -2.25, 1.5));
#97 = CARTESIAN_POINT ('', (-3., -2.25, 1.5));
#98 = CARTESIAN_POINT ('', (-0.75, -2.25, -1.5));
#99 = CARTESIAN_POINT ('', (-1.5, -2.25, -1.5));
#100 = CARTESIAN_POINT ('', (-2.25, -2.25, -1.5));
#101 = CARTESIAN_POINT ('', (-3., -2.25, -1.5));
#102 = CARTESIAN_POINT ('', (-0.75, 0.749999999999999, -3.));
#103 = CARTESIAN_POINT ('', (-1.5, 0.75, -3.));
#104 = CARTESIAN_POINT ('', (-2.25, 0.75, -3.));
#105 = CARTESIAN_POINT ('', (-3., 0.75, -3.));
#106 = CARTESIAN_POINT ('', (-0.75, 0.75, -1.83697019872103E-16));
#107 = CARTESIAN_POINT ('', (-1.5, 0.75, -1.83697019872103E-16));
#108 = CARTESIAN_POINT ('', (-2.25, 0.75, -1.83697019872103E-16));
#109 = CARTESIAN_POINT ('', (-3., 0.75, -1.83697019872103E-16));
#110 = (
   BOUNDED_SURFACE ()
   B_SPLINE_SURFACE (5, 3, ((#86, #87, #88, #89), (#90, #91, #92, #93), (#94, #95, #96, #97), (#98, #99, #100, #101), (#102, #103, #104, #105), (#106, #107, #108, #109)), .UNSPECIFIED., .T., .F., .U.)
   B_SPLINE_SURFACE_WITH_KNOTS ((6, 6), (4, 4), (0., 1.), (0., 1.), .UNSPECIFIED.)
   SURFACE ()
   GEOMETRIC_REPRESENTATION_ITEM ()
   RATIONAL_B_SPLINE_SURFACE (((5., 5., 5., 5.), (1., 1., 1., 1.), (1., 1., 1., 1.), (1., 1., 1., 1.), (1., 1., 1., 1.), (5., 5., 5., 5.)))
   REPRESENTATION_ITEM ('')
);
#111 = ADVANCED_FACE ('', (#85), #110, .F.);
#112 = CARTESIAN_POINT ('', (-3., 1.5, -3.67394039744206E-16));
#113 = VERTEX_POINT ('', #112);
#114 = CARTESIAN_POINT ('', (-3., 0.75, -1.83697019872103E-16));
#115 = CARTESIAN_POINT ('', (-3., 0.999999999999999, -2.4492935982947E-16));
#116 = CARTESIAN_POINT ('', (-3., 1.25, -3.06161699786838E-16));
#117 = CARTESIAN_POINT ('', (-3., 1.5, -3.67394039744206E-16));
#118 = B_SPLINE_CURVE_WITH_KNOTS ('', 3, (#114, #115, #116, #117), .UNSPECIFIED., .F., .U., (4, 4), (0., 1.), .UNSPECIFIED.);
#119 = EDGE_CURVE ('', #65, #113, #118, .T.);
#120 = ORIENTED_EDGE ('', *, *, #119, .F.);
#121 = ORIENTED_EDGE ('', *, *, #82, .T.);
#122 = ORIENTED_EDGE ('', *, *, #119, .T.);
#123 = CARTESIAN_POINT ('', (-3., 1.5, -3.67394039744206E-16));
#124 = CARTESIAN_POINT ('', (-3., 1.5, 6.));
#125 = CARTESIAN_POINT ('', (-3., -4.5, 3.));
#126 = CARTESIAN_POINT ('', (-3., -4.5, -3.));
#127 = CARTESIAN_POINT ('', (-3., 1.5, -6.));
#128 = CARTESIAN_POINT ('', (-3., 1.5, -3.67394039744206E-16));
#129 = (
   BOUNDED_CURVE ()
   B_SPLINE_CURVE (5, (#123, #124, #125, #126, #127, #128), .UNSPECIFIED., .T., .U.)
   B_SPLINE_CURVE_WITH_KNOTS ((6, 6), (0., 1.), .UNSPECIFIED.)
   CURVE ()
   GEOMETRIC_REPRESENTATION_ITEM ()
   RATIONAL_B_SPLINE_CURVE ((5., 1., 1., 1., 1., 5.))
   REPRESENTATION_ITEM ('')
);
#130 = EDGE_CURVE ('', #113, #113, #129, .T.);
#131 = ORIENTED_EDGE ('', *, *, #130, .F.);
#132 = EDGE_LOOP ('', (#120, #121, #122, #131));
#133 = FACE_OUTER_BOUND ('', #132, .F.);
#134 = CARTESIAN_POINT ('', (-3., 0.75, -1.83697019872103E-16));
#135 = CARTESIAN_POINT ('', (-3., 0.999999999999999, -2.4492935982947E-16));
#136 = CARTESIAN_POINT ('', (-3., 1.25, -3.06161699786838E-16));
#137 = CARTESIAN_POINT ('', (-3., 1.5, -3.67394039744206E-16));
#138 = CARTESIAN_POINT ('', (-3., 0.75, 3.));
#139 = CARTESIAN_POINT ('', (-3., 0.999999999999999, 4.));
#140 = CARTESIAN_POINT ('', (-3., 1.25, 5.));
#141 = CARTESIAN_POINT ('', (-3., 1.5, 6.));
#142 = CARTESIAN_POINT ('', (-3., -2.25, 1.5));
#143 = CARTESIAN_POINT ('', (-3., -3., 2.));
#144 = CARTESIAN_POINT ('', (-3., -3.75, 2.5));
#145 = CARTESIAN_POINT ('', (-3., -4.5, 3.));
#146 = CARTESIAN_POINT ('', (-3., -2.25, -1.5));
#147 = CARTESIAN_POINT ('', (-3., -3., -2.));
#148 = CARTESIAN_POINT ('', (-3., -3.75, -2.5));
#149 = CARTESIAN_POINT ('', (-3., -4.5, -3.));
#150 = CARTESIAN_POINT ('', (-3., 0.75, -3.));
#151 = CARTESIAN_POINT ('', (-3., 0.999999999999999, -4.));
#152 = CARTESIAN_POINT ('', (-3., 1.25, -5.));
#153 = CARTESIAN_POINT ('', (-3., 1.5, -6.));
#154 = CARTESIAN_POINT ('', (-3., 0.75, -1.83697019872103E-16));
#155 = CARTESIAN_POINT ('', (-3., 0.999999999999999, -2.4492935982947E-16));
#156 = CARTESIAN_POINT ('', (-3., 1.25, -3.06161699786838E-16));
#157 = CARTESIAN_POINT ('', (-3., 1.5, -3.67394039744206E-16));
#158 = (
   BOUNDED_SURFACE ()
   B_SPLINE_SURFACE (5, 3, ((#134, #135, #136, #137), (#138, #139, #140, #141), (#142, #143, #144, #145), (#146, #147, #148, #149), (#150, #151, #152, #153), (#154, #155, #156, #157)), .UNSPECIFIED., .T., .F., .U.)
   B_SPLINE_SURFACE_WITH_KNOTS ((6, 6), (4, 4), (0., 1.), (0., 1.), .UNSPECIFIED.)
   SURFACE ()
   GEOMETRIC_REPRESENTATION_ITEM ()
   RATIONAL_B_SPLINE_SURFACE (((5., 5., 5., 5.), (1., 1., 1., 1.), (1., 1., 1., 1.), (1., 1., 1., 1.), (1., 1., 1., 1.), (5., 5., 5., 5.)))
   REPRESENTATION_ITEM ('')
);
#159 = ADVANCED_FACE ('', (#133), #158, .F.);
#160 = CARTESIAN_POINT ('', (-37.75, 1.5, -3.67394039744205E-16));
#161 = VERTEX_POINT ('', #160);
#162 = CARTESIAN_POINT ('', (-3., 1.5, -3.67394039744206E-16));
#163 = CARTESIAN_POINT ('', (-14.5833333333333, 1.5, -3.67394039744206E-16));
#164 = CARTESIAN_POINT ('', (-26.1666666666667, 1.5, -3.67394039744205E-16));
#165 = CARTESIAN_POINT ('', (-37.75, 1.5, -3.67394039744205E-16));
#166 = B_SPLINE_CURVE_WITH_KNOTS ('', 3, (#162, #163, #164, #165), .UNSPECIFIED., .F., .U., (4, 4), (0., 1.), .UNSPECIFIED.);
#167 = EDGE_CURVE ('', #113, #161, #166, .T.);
#168 = ORIENTED_EDGE ('', *, *, #167, .F.);
#169 = ORIENTED_EDGE ('', *, *, #130, .T.);
#170 = ORIENTED_EDGE ('', *, *, #167, .T.);
#171 = CARTESIAN_POINT ('', (-37.75, 1.5, -3.67394039744205E-16));
#172 = CARTESIAN_POINT ('', (-37.75, 1.49999999999999, 5.99999999999999));
#173 = CARTESIAN_POINT ('', (-37.75, -4.49999999999999, 2.99999999999999));
#174 = CARTESIAN_POINT ('', (-37.75, -4.49999999999999, -3.));
#175 = CARTESIAN_POINT ('', (-37.75, 1.50000000000001, -5.99999999999999));
#176 = CARTESIAN_POINT ('', (-37.75, 1.5, -3.67394039744205E-16));
#177 = (
   BOUNDED_CURVE ()
   B_SPLINE_CURVE (5, (#171, #172, #173, #174, #175, #176), .UNSPECIFIED., .T., .U.)
   B_SPLINE_CURVE_WITH_KNOTS ((6, 6), (0., 1.), .UNSPECIFIED.)
   CURVE ()
   GEOMETRIC_REPRESENTATION_ITEM ()
   RATIONAL_B_SPLINE_CURVE ((5., 1., 1., 1., 1., 5.))
   REPRESENTATION_ITEM ('')
);
#178 = EDGE_CURVE ('', #161, #161, #177, .T.);
#179 = ORIENTED_EDGE ('', *, *, #178, .F.);
#180 = EDGE_LOOP ('', (#168, #169, #170, #179));
#181 = FACE_OUTER_BOUND ('', #180, .F.);
#182 = CARTESIAN_POINT ('', (-3., 1.5, -3.67394039744206E-16));
#183 = CARTESIAN_POINT ('', (-14.5833333333333, 1.5, -3.67394039744206E-16));
#184 = CARTESIAN_POINT ('', (-26.1666666666667, 1.5, -3.67394039744205E-16));
#185 = CARTESIAN_POINT ('', (-37.75, 1.5, -3.67394039744205E-16));
#186 = CARTESIAN_POINT ('', (-3., 1.5, 6.));
#187 = CARTESIAN_POINT ('', (-14.5833333333333, 1.5, 5.99999999999999));
#188 = CARTESIAN_POINT ('', (-26.1666666666667, 1.49999999999999, 5.99999999999999));
#189 = CARTESIAN_POINT ('', (-37.75, 1.49999999999999, 5.99999999999999));
#190 = CARTESIAN_POINT ('', (-3., -4.5, 3.));
#191 = CARTESIAN_POINT ('', (-14.5833333333333, -4.49999999999999, 2.99999999999999));
#192 = CARTESIAN_POINT ('', (-26.1666666666667, -4.49999999999999, 2.99999999999999));
#193 = CARTESIAN_POINT ('', (-37.75, -4.49999999999999, 2.99999999999999));
#194 = CARTESIAN_POINT ('', (-3., -4.5, -3.));
#195 = CARTESIAN_POINT ('', (-14.5833333333333, -4.49999999999999, -3.));
#196 = CARTESIAN_POINT ('', (-26.1666666666667, -4.49999999999999, -3.));
#197 = CARTESIAN_POINT ('', (-37.75, -4.49999999999999, -3.));
#198 = CARTESIAN_POINT ('', (-3., 1.5, -6.));
#199 = CARTESIAN_POINT ('', (-14.5833333333333, 1.5, -5.99999999999999));
#200 = CARTESIAN_POINT ('', (-26.1666666666667, 1.5, -5.99999999999999));
#201 = CARTESIAN_POINT ('', (-37.75, 1.50000000000001, -5.99999999999999));
#202 = CARTESIAN_POINT ('', (-3., 1.5, -3.67394039744206E-16));
#203 = CARTESIAN_POINT ('', (-14.5833333333333, 1.5, -3.67394039744206E-16));
#204 = CARTESIAN_POINT ('', (-26.1666666666667, 1.5, -3.67394039744205E-16));
#205 = CARTESIAN_POINT ('', (-37.75, 1.5, -3.67394039744205E-16));
#206 = (
   BOUNDED_SURFACE ()
   B_SPLINE_SURFACE (5, 3, ((#182, #183, #184, #185), (#186, #187, #188, #189), (#190, #191, #192, #193), (#194, #195, #196, #197), (#198, #199, #200, #201), (#202, #203, #204, #205)), .UNSPECIFIED., .T., .F., .U.)
   B_SPLINE_SURFACE_WITH_KNOTS ((6, 6), (4, 4), (0., 1.), (0., 1.), .UNSPECIFIED.)
   SURFACE ()
   GEOMETRIC_REPRESENTATION_ITEM ()
   RATIONAL_B_SPLINE_SURFACE (((5., 5., 5., 5.), (1., 1., 1., 1.), (1., 1., 1., 1.), (1., 1., 1., 1.), (1., 1., 1., 1.), (5., 5., 5., 5.)))
   REPRESENTATION_ITEM ('')
);
#207 = ADVANCED_FACE ('', (#181), #206, .F.);
#208 = CARTESIAN_POINT ('', (-38., 1.25, -3.06161699786838E-16));
#209 = VERTEX_POINT ('', #208);
#210 = CARTESIAN_POINT ('', (-38., 2.32682891837997E-15, -2.32682891837997E-15));
#211 = VERTEX_POINT ('', #210);
#212 = CARTESIAN_POINT ('', (-38., 1.25, -3.06161699786838E-16));
#213 = CARTESIAN_POINT ('', (-38., 2.32682891837997E-15, -2.32682891837997E-15));
#214 = B_SPLINE_CURVE_WITH_KNOTS ('', 1, (#212, #213), .UNSPECIFIED., .F., .U., (2, 2), (0., 1.), .UNSPECIFIED.);
#215 = EDGE_CURVE ('', #209, #211, #214, .T.);
#216 = ORIENTED_EDGE ('', *, *, #215, .F.);
#217 = CARTESIAN_POINT ('', (-38., 1.25, -3.06161699786838E-16));
#218 = CARTESIAN_POINT ('', (-38., 1.24999999999999, 4.99999999999999));
#219 = CARTESIAN_POINT ('', (-38., -3.75, 2.49999999999999));
#220 = CARTESIAN_POINT ('', (-38., -3.74999999999999, -2.5));
#221 = CARTESIAN_POINT ('', (-38., 1.25000000000001, -4.99999999999999));
#222 = CARTESIAN_POINT ('', (-38., 1.25, -3.06161699786838E-16));
#223 = (
   BOUNDED_CURVE ()
   B_SPLINE_CURVE (5, (#217, #218, #219, #220, #221, #222), .UNSPECIFIED., .T., .U.)
   B_SPLINE_CURVE_WITH_KNOTS ((6, 6), (0., 1.), .UNSPECIFIED.)
   CURVE ()
   GEOMETRIC_REPRESENTATION_ITEM ()
   RATIONAL_B_SPLINE_CURVE ((5., 1., 1., 1., 1., 5.))
   REPRESENTATION_ITEM ('')
);
#224 = EDGE_CURVE ('', #209, #209, #223, .T.);
#225 = ORIENTED_EDGE ('', *, *, #224, .T.);
#226 = ORIENTED_EDGE ('', *, *, #215, .T.);
#227 = EDGE_LOOP ('', (#216, #225, #226));
#228 = FACE_OUTER_BOUND ('', #227, .F.);
#229 = CARTESIAN_POINT ('', (-38., 1.25, -3.06161699786838E-16));
#230 = CARTESIAN_POINT ('', (-38., 2.32682891837997E-15, -2.32682891837997E-15));
#231 = CARTESIAN_POINT ('', (-38., 1.24999999999999, 4.99999999999999));
#232 = CARTESIAN_POINT ('', (-38., 2.32682891837997E-15, -2.32682891837997E-15));
#233 = CARTESIAN_POINT ('', (-38., -3.75, 2.49999999999999));
#234 = CARTESIAN_POINT ('', (-38., 2.32682891837997E-15, -2.32682891837997E-15));
#235 = CARTESIAN_POINT ('', (-38., -3.74999999999999, -2.5));
#236 = CARTESIAN_POINT ('', (-38., 2.32682891837997E-15, -2.32682891837997E-15));
#237 = CARTESIAN_POINT ('', (-38., 1.25000000000001, -4.99999999999999));
#238 = CARTESIAN_POINT ('', (-38., 2.32682891837997E-15, -2.32682891837997E-15));
#239 = CARTESIAN_POINT ('', (-38., 1.25, -3.06161699786838E-16));
#240 = CARTESIAN_POINT ('', (-38., 2.32682891837997E-15, -2.32682891837997E-15));
#241 = (
   BOUNDED_SURFACE ()
   B_SPLINE_SURFACE (5, 1, ((#229, #230), (#231, #232), (#233, #234), (#235, #236), (#237, #238), (#239, #240)), .UNSPECIFIED., .T., .F., .U.)
   B_SPLINE_SURFACE_WITH_KNOTS ((6, 6), (2, 2), (0., 1.), (0., 1.), .UNSPECIFIED.)
   SURFACE ()
   GEOMETRIC_REPRESENTATION_ITEM ()
   RATIONAL_B_SPLINE_SURFACE (((5., 5.), (1., 1.), (1., 1.), (1., 1.), (1., 1.), (5., 5.)))
   REPRESENTATION_ITEM ('')
);
#242 = ADVANCED_FACE ('', (#228), #241, .F.);
#243 = CARTESIAN_POINT ('', (-37.75, 1.5, -3.67394039744205E-16));
#244 = CARTESIAN_POINT ('', (-37.8333333333333, 1.41666666666666, -3.46983259758415E-16));
#245 = CARTESIAN_POINT ('', (-37.9166666666667, 1.33333333333333, -3.26572479772626E-16));
#246 = CARTESIAN_POINT ('', (-38., 1.25, -3.06161699786838E-16));
#247 = B_SPLINE_CURVE_WITH_KNOTS ('', 3, (#243, #244, #245, #246), .UNSPECIFIED., .F., .U., (4, 4), (0., 1.), .UNSPECIFIED.);
#248 = EDGE_CURVE ('', #161, #209, #247, .T.);
#249 = ORIENTED_EDGE ('', *, *, #248, .F.);
#250 = ORIENTED_EDGE ('', *, *, #178, .T.);
#251 = ORIENTED_EDGE ('', *, *, #248, .T.);
#252 = ORIENTED_EDGE ('', *, *, #224, .F.);
#253 = EDGE_LOOP ('', (#249, #250, #251, #252));
#254 = FACE_OUTER_BOUND ('', #253, .F.);
#255 = CARTESIAN_POINT ('', (-37.75, 1.5, -3.67394039744205E-16));
#256 = CARTESIAN_POINT ('', (-37.8333333333333, 1.41666666666666, -3.46983259758415E-16));
#257 = CARTESIAN_POINT ('', (-37.9166666666667, 1.33333333333333, -3.26572479772626E-16));
#258 = CARTESIAN_POINT ('', (-38., 1.25, -3.06161699786838E-16));
#259 = CARTESIAN_POINT ('', (-37.75, 1.49999999999999, 5.99999999999999));
#260 = CARTESIAN_POINT ('', (-37.8333333333333, 1.41666666666665, 5.66666666666664));
#261 = CARTESIAN_POINT ('', (-37.9166666666667, 1.33333333333332, 5.3333333333333));
#262 = CARTESIAN_POINT ('', (-38., 1.24999999999999, 4.99999999999999));
#263 = CARTESIAN_POINT ('', (-37.75, -4.49999999999999, 2.99999999999999));
#264 = CARTESIAN_POINT ('', (-37.8333333333333, -4.24999999999998, 2.83333333333331));
#265 = CARTESIAN_POINT ('', (-37.9166666666667, -3.99999999999998, 2.66666666666664));
#266 = CARTESIAN_POINT ('', (-38., -3.75, 2.49999999999999));
#267 = CARTESIAN_POINT ('', (-37.75, -4.49999999999999, -3.));
#268 = CARTESIAN_POINT ('', (-37.8333333333333, -4.24999999999997, -2.83333333333333));
#269 = CARTESIAN_POINT ('', (-37.9166666666667, -3.99999999999997, -2.66666666666666));
#270 = CARTESIAN_POINT ('', (-38., -3.74999999999999, -2.5));
#271 = CARTESIAN_POINT ('', (-37.75, 1.50000000000001, -5.99999999999999));
#272 = CARTESIAN_POINT ('', (-37.8333333333333, 1.41666666666667, -5.66666666666664));
#273 = CARTESIAN_POINT ('', (-37.9166666666667, 1.33333333333334, -5.33333333333331));
#274 = CARTESIAN_POINT ('', (-38., 1.25000000000001, -4.99999999999999));
#275 = CARTESIAN_POINT ('', (-37.75, 1.5, -3.67394039744205E-16));
#276 = CARTESIAN_POINT ('', (-37.8333333333333, 1.41666666666666, -3.46983259758415E-16));
#277 = CARTESIAN_POINT ('', (-37.9166666666667, 1.33333333333333, -3.26572479772626E-16));
#278 = CARTESIAN_POINT ('', (-38., 1.25, -3.06161699786838E-16));
#279 = (
   BOUNDED_SURFACE ()
   B_SPLINE_SURFACE (5, 3, ((#255, #256, #257, #258), (#259, #260, #261, #262), (#263, #264, #265, #266), (#267, #268, #269, #270), (#271, #272, #273, #274), (#275, #276, #277, #278)), .UNSPECIFIED., .T., .F., .U.)
   B_SPLINE_SURFACE_WITH_KNOTS ((6, 6), (4, 4), (0., 1.), (0., 1.), .UNSPECIFIED.)
   SURFACE ()
   GEOMETRIC_REPRESENTATION_ITEM ()
   RATIONAL_B_SPLINE_SURFACE (((5., 5., 5., 5.), (1., 1., 1., 1.), (1., 1., 1., 1.), (1., 1., 1., 1.), (1., 1., 1., 1.), (5., 5., 5., 5.)))
   REPRESENTATION_ITEM ('')
);
#280 = ADVANCED_FACE ('', (#254), #279, .F.);
#281 = CLOSED_SHELL ('', (#63, #111, #159, #207, #242, #280));
#282 = MANIFOLD_SOLID_BREP ('', #281);
#283 = (
   LENGTH_UNIT ()
   NAMED_UNIT (*)
   SI_UNIT (.MILLI., .METRE.)
);
#284 = (
   NAMED_UNIT (*)
   SI_UNIT ($, .STERADIAN.)
   SOLID_ANGLE_UNIT ()
);
#285 = (
   NAMED_UNIT (*)
   SI_UNIT ($, .RADIAN.)
   PLANE_ANGLE_UNIT ()
);
#286 = UNCERTAINTY_MEASURE_WITH_UNIT (LENGTH_MEASURE(0.001), #283, 'DISTANCE_ACCURACY_VALUE', '');
#287 = (
   GEOMETRIC_REPRESENTATION_CONTEXT (3)
   GLOBAL_UNCERTAINTY_ASSIGNED_CONTEXT ((#286))
   GLOBAL_UNIT_ASSIGNED_CONTEXT ((#283, #284, #285))
   REPRESENTATION_CONTEXT ('', '3D')
);
#288 = SHAPE_REPRESENTATION ('', (), #287);
#289 = APPLICATION_CONTEXT ('configuration controlled 3D designs of mechanical parts and assemblies');
#290 = APPLICATION_PROTOCOL_DEFINITION ('International Standard', 'config_control_design', 1997, #289);
#291 = MECHANICAL_CONTEXT ('', #289, 'mechanical');
#292 = PRODUCT ('', '', '', (#291));
#293 = PERSON_AND_ORGANIZATION_ROLE ('design_owner');
#294 = PERSON ('', '', $, $, $, $);
#295 = ORGANIZATION ($, '', '');
#296 = PERSON_AND_ORGANIZATION (#294, #295);
#297 = CC_DESIGN_PERSON_AND_ORGANIZATION_ASSIGNMENT (#296, #293, (#292));
#298 = PRODUCT_RELATED_PRODUCT_CATEGORY ('detail', $, (#292));
#299 = PRODUCT_DEFINITION_FORMATION_WITH_SPECIFIED_SOURCE ('', '', #292, .NOT_KNOWN.);
#300 = APPROVAL_STATUS ('approved');
#301 = APPROVAL (#300, '');
#302 = CALENDAR_DATE (2020, 16, 4);
#303 = COORDINATED_UNIVERSAL_TIME_OFFSET (0, $, .AHEAD.);
#304 = LOCAL_TIME (12, 4, 22., #303);
#305 = DATE_AND_TIME (#302, #304);
#306 = APPROVAL_DATE_TIME (#305, #301);
#307 = APPROVAL_ROLE ('');
#308 = PERSON ('', '', $, $, $, $);
#309 = ORGANIZATION ($, '', '');
#310 = PERSON_AND_ORGANIZATION (#308, #309);
#311 = APPROVAL_PERSON_ORGANIZATION (#310, #301, #307);
#312 = CC_DESIGN_APPROVAL (#301, (#299));
#313 = PERSON_AND_ORGANIZATION_ROLE ('creator');
#314 = PERSON ('', '', $, $, $, $);
#315 = ORGANIZATION ($, '', '');
#316 = PERSON_AND_ORGANIZATION (#314, #315);
#317 = CC_DESIGN_PERSON_AND_ORGANIZATION_ASSIGNMENT (#316, #313, (#299));
#318 = PERSON_AND_ORGANIZATION_ROLE ('part_supplier');
#319 = PERSON ('', '', $, $, $, $);
#320 = ORGANIZATION ($, '', '');
#321 = PERSON_AND_ORGANIZATION (#319, #320);
#322 = CC_DESIGN_PERSON_AND_ORGANIZATION_ASSIGNMENT (#321, #318, (#299));
#323 = SECURITY_CLASSIFICATION_LEVEL ('unclassified');
#324 = SECURITY_CLASSIFICATION ('', '', #323);
#325 = APPROVAL_STATUS ('approved');
#326 = APPROVAL (#325, '');
#327 = CALENDAR_DATE (2020, 16, 4);
#328 = COORDINATED_UNIVERSAL_TIME_OFFSET (0, $, .AHEAD.);
#329 = LOCAL_TIME (12, 4, 22., #328);
#330 = DATE_AND_TIME (#327, #329);
#331 = APPROVAL_DATE_TIME (#330, #326);
#332 = APPROVAL_ROLE ('');
#333 = PERSON ('', '', $, $, $, $);
#334 = ORGANIZATION ($, '', '');
#335 = PERSON_AND_ORGANIZATION (#333, #334);
#336 = APPROVAL_PERSON_ORGANIZATION (#335, #326, #332);
#337 = CC_DESIGN_APPROVAL (#326, (#324));
#338 = DATE_TIME_ROLE ('classification_date');
#339 = CALENDAR_DATE (2020, 16, 4);
#340 = COORDINATED_UNIVERSAL_TIME_OFFSET (0, $, .AHEAD.);
#341 = LOCAL_TIME (12, 4, 22., #340);
#342 = DATE_AND_TIME (#339, #341);
#343 = CC_DESIGN_DATE_AND_TIME_ASSIGNMENT (#342, #338, (#324));
#344 = PERSON_AND_ORGANIZATION_ROLE ('classification_officer');
#345 = PERSON ('', '', $, $, $, $);
#346 = ORGANIZATION ($, '', '');
#347 = PERSON_AND_ORGANIZATION (#345, #346);
#348 = CC_DESIGN_PERSON_AND_ORGANIZATION_ASSIGNMENT (#347, #344, (#324));
#349 = CC_DESIGN_SECURITY_CLASSIFICATION (#324, (#299));
#350 = DESIGN_CONTEXT ('', #289, 'design');
#351 = PRODUCT_DEFINITION ('', '', #299, #350);
#352 = APPROVAL_STATUS ('approved');
#353 = APPROVAL (#352, '');
#354 = CALENDAR_DATE (2020, 16, 4);
#355 = COORDINATED_UNIVERSAL_TIME_OFFSET (0, $, .AHEAD.);
#356 = LOCAL_TIME (12, 4, 22., #355);
#357 = DATE_AND_TIME (#354, #356);
#358 = APPROVAL_DATE_TIME (#357, #353);
#359 = APPROVAL_ROLE ('');
#360 = PERSON ('', '', $, $, $, $);
#361 = ORGANIZATION ($, '', '');
#362 = PERSON_AND_ORGANIZATION (#360, #361);
#363 = APPROVAL_PERSON_ORGANIZATION (#362, #353, #359);
#364 = CC_DESIGN_APPROVAL (#353, (#351));
#365 = DATE_TIME_ROLE ('creation_date');
#366 = CALENDAR_DATE (2020, 16, 4);
#367 = COORDINATED_UNIVERSAL_TIME_OFFSET (0, $, .AHEAD.);
#368 = LOCAL_TIME (12, 4, 22., #367);
#369 = DATE_AND_TIME (#366, #368);
#370 = CC_DESIGN_DATE_AND_TIME_ASSIGNMENT (#369, #365, (#351));
#371 = PERSON_AND_ORGANIZATION_ROLE ('creator');
#372 = PERSON ('', '', $, $, $, $);
#373 = ORGANIZATION ($, '', '');
#374 = PERSON_AND_ORGANIZATION (#372, #373);
#375 = CC_DESIGN_PERSON_AND_ORGANIZATION_ASSIGNMENT (#374, #371, (#351));
#376 = PRODUCT_DEFINITION_SHAPE ('', '', #351);
#377 = SHAPE_DEFINITION_REPRESENTATION (#376, #288);
#378 = SHAPE_REPRESENTATION_RELATIONSHIP ('', '', #288, #379);
#379 = ADVANCED_BREP_SHAPE_REPRESENTATION ('', (#282), #287);
ENDSEC;
END-ISO-10303-21;
