ISO-10303-21;
HEADER;
FILE_DESCRIPTION ((), '1');
FILE_NAME ('C:\\Users\\kevin\\179 Range\\179 0250A.STP', '2020-04-16T12:00:08', ('Unknown'), ('mafordeurope'), 'OneCNC-XR7 Mill 3D Expert', 'OneCNC-XR7 Mill 3D Expert', '');
FILE_SCHEMA (('CONFIG_CONTROL_DESIGN'));
ENDSEC;

DATA;
#1 = CARTESIAN_POINT ('', (0., 0., 0.));
#2 = VERTEX_POINT ('', #1);
#3 = CARTESIAN_POINT ('', (-1.25, 1.25, -3.06161699786838E-16));
#4 = VERTEX_POINT ('', #3);
#5 = CARTESIAN_POINT ('', (0., 0., 0.));
#6 = CARTESIAN_POINT ('', (1.54074395550979E-33, 0.220025174938379, -5.38906252440246E-17));
#7 = CARTESIAN_POINT ('', (-0.0947570219942232, 0.568252542333973, -1.39181731415329E-16));
#8 = CARTESIAN_POINT ('', (-0.42537508670977, 0.974932124747594, -2.38789501191614E-16));
#9 = CARTESIAN_POINT ('', (-0.807822582986097, 1.19933942453039, -2.93753437468474E-16));
#10 = CARTESIAN_POINT ('', (-1.11343077777534, 1.25, -3.06161699786839E-16));
#11 = CARTESIAN_POINT ('', (-1.25, 1.25, -3.06161699786838E-16));
#12 = B_SPLINE_CURVE_WITH_KNOTS ('', 3, (#5, #6, #7, #8, #9, #10, #11), .UNSPECIFIED., .F., .U., (4, 1, 1, 1, 4), (0., 0.33617370428258, 0.532939663384363, 0.791337598803809, 1.), .UNSPECIFIED.);
#13 = EDGE_CURVE ('', #2, #4, #12, .T.);
#14 = ORIENTED_EDGE ('', *, *, #13, .F.);
#15 = ORIENTED_EDGE ('', *, *, #13, .T.);
#16 = CARTESIAN_POINT ('', (-1.25, 1.25, -3.06161699786838E-16));
#17 = CARTESIAN_POINT ('', (-1.25, 1.25, 5.));
#18 = CARTESIAN_POINT ('', (-1.25, -3.75, 2.5));
#19 = CARTESIAN_POINT ('', (-1.25, -3.75, -2.5));
#20 = CARTESIAN_POINT ('', (-1.25, 1.25, -5.));
#21 = CARTESIAN_POINT ('', (-1.25, 1.25, -3.06161699786838E-16));
#22 = (
   BOUNDED_CURVE ()
   B_SPLINE_CURVE (5, (#16, #17, #18, #19, #20, #21), .UNSPECIFIED., .T., .U.)
   B_SPLINE_CURVE_WITH_KNOTS ((6, 6), (0., 1.), .UNSPECIFIED.)
   CURVE ()
   GEOMETRIC_REPRESENTATION_ITEM ()
   RATIONAL_B_SPLINE_CURVE ((5., 1., 1., 1., 1., 5.))
   REPRESENTATION_ITEM ('')
);
#23 = EDGE_CURVE ('', #4, #4, #22, .T.);
#24 = ORIENTED_EDGE ('', *, *, #23, .F.);
#25 = EDGE_LOOP ('', (#14, #15, #24));
#26 = FACE_OUTER_BOUND ('', #25, .F.);
#27 = CARTESIAN_POINT ('', (0., 0., 0.));
#28 = CARTESIAN_POINT ('', (1.54074395550979E-33, 0.220025174938379, -5.38906252440246E-17));
#29 = CARTESIAN_POINT ('', (-0.0947570219942232, 0.568252542333973, -1.39181731415329E-16));
#30 = CARTESIAN_POINT ('', (-0.42537508670977, 0.974932124747594, -2.38789501191614E-16));
#31 = CARTESIAN_POINT ('', (-0.807822582986097, 1.19933942453039, -2.93753437468474E-16));
#32 = CARTESIAN_POINT ('', (-1.11343077777534, 1.25, -3.06161699786839E-16));
#33 = CARTESIAN_POINT ('', (-1.25, 1.25, -3.06161699786838E-16));
#34 = CARTESIAN_POINT ('', (0., 0., 0.));
#35 = CARTESIAN_POINT ('', (-5.38906252440246E-17, 0.22002517493838, 0.880100699753518));
#36 = CARTESIAN_POINT ('', (-0.0947570219942234, 0.568252542333973, 2.27301016933589));
#37 = CARTESIAN_POINT ('', (-0.42537508670977, 0.974932124747594, 3.89972849899037));
#38 = CARTESIAN_POINT ('', (-0.807822582986097, 1.19933942453039, 4.79735769812156));
#39 = CARTESIAN_POINT ('', (-1.11343077777534, 1.25, 5.));
#40 = CARTESIAN_POINT ('', (-1.25, 1.25, 5.));
#41 = CARTESIAN_POINT ('', (0., 0., 0.));
#42 = CARTESIAN_POINT ('', (-8.08359378660369E-17, -0.660075524815138, 0.440050349876759));
#43 = CARTESIAN_POINT ('', (-0.0947570219942234, -1.70475762700192, 1.13650508466795));
#44 = CARTESIAN_POINT ('', (-0.425375086709771, -2.92479637424278, 1.94986424949519));
#45 = CARTESIAN_POINT ('', (-0.807822582986097, -3.59801827359117, 2.39867884906078));
#46 = CARTESIAN_POINT ('', (-1.11343077777534, -3.75, 2.5));
#47 = CARTESIAN_POINT ('', (-1.25, -3.75, 2.5));
#48 = CARTESIAN_POINT ('', (0., 0., 0.));
#49 = CARTESIAN_POINT ('', (-2.69453126220123E-17, -0.660075524815139, -0.440050349876759));
#50 = CARTESIAN_POINT ('', (-0.0947570219942233, -1.70475762700192, -1.13650508466795));
#51 = CARTESIAN_POINT ('', (-0.42537508670977, -2.92479637424278, -1.94986424949519));
#52 = CARTESIAN_POINT ('', (-0.807822582986097, -3.59801827359117, -2.39867884906078));
#53 = CARTESIAN_POINT ('', (-1.11343077777534, -3.75, -2.5));
#54 = CARTESIAN_POINT ('', (-1.25, -3.75, -2.5));
#55 = CARTESIAN_POINT ('', (0., 0., 0.));
#56 = CARTESIAN_POINT ('', (5.38906252440246E-17, 0.220025174938379, -0.880100699753518));
#57 = CARTESIAN_POINT ('', (-0.0947570219942231, 0.568252542333972, -2.27301016933589));
#58 = CARTESIAN_POINT ('', (-0.42537508670977, 0.974932124747593, -3.89972849899037));
#59 = CARTESIAN_POINT ('', (-0.807822582986096, 1.19933942453039, -4.79735769812156));
#60 = CARTESIAN_POINT ('', (-1.11343077777534, 1.25, -5.));
#61 = CARTESIAN_POINT ('', (-1.25, 1.25, -5.));
#62 = CARTESIAN_POINT ('', (0., 0., 0.));
#63 = CARTESIAN_POINT ('', (1.54074395550979E-33, 0.220025174938379, -5.38906252440246E-17));
#64 = CARTESIAN_POINT ('', (-0.0947570219942232, 0.568252542333973, -1.39181731415329E-16));
#65 = CARTESIAN_POINT ('', (-0.42537508670977, 0.974932124747594, -2.38789501191614E-16));
#66 = CARTESIAN_POINT ('', (-0.807822582986097, 1.19933942453039, -2.93753437468474E-16));
#67 = CARTESIAN_POINT ('', (-1.11343077777534, 1.25, -3.06161699786839E-16));
#68 = CARTESIAN_POINT ('', (-1.25, 1.25, -3.06161699786838E-16));
#69 = (
   BOUNDED_SURFACE ()
   B_SPLINE_SURFACE (5, 3, ((#27, #28, #29, #30, #31, #32, #33), (#34, #35, #36, #37, #38, #39, #40), (#41, #42, #43, #44, #45, #46, #47), (#48, #49, #50, #51, #52, #53, #54), (#55, #56, #57, #58, #59, #60, #61), (#62, #63, #64, #65, #66, #67, #68)), .UNSPECIFIED., .T., .F., .U.)
   B_SPLINE_SURFACE_WITH_KNOTS ((6, 6), (4, 1, 1, 1, 4), (0., 1.), (0., 0.33617370428258, 0.532939663384363, 0.791337598803809, 1.), .UNSPECIFIED.)
   SURFACE ()
   GEOMETRIC_REPRESENTATION_ITEM ()
   RATIONAL_B_SPLINE_SURFACE (((5., 5., 5., 5., 5., 5., 5.), (1., 1., 1., 1., 1., 1., 1.), (1., 1., 1., 1., 1., 1., 1.), (1., 1., 1., 1., 1., 1., 1.), (1., 1., 1., 1., 1., 1., 1.), (5., 5., 5., 5., 5., 5., 5.)))
   REPRESENTATION_ITEM ('')
);
#70 = ADVANCED_FACE ('', (#26), #69, .F.);
#71 = CARTESIAN_POINT ('', (-5., 1.25, -3.06161699786838E-16));
#72 = VERTEX_POINT ('', #71);
#73 = CARTESIAN_POINT ('', (-1.25, 1.25, -3.06161699786838E-16));
#74 = CARTESIAN_POINT ('', (-2.5, 1.25, -3.06161699786838E-16));
#75 = CARTESIAN_POINT ('', (-3.75, 1.25, -3.06161699786838E-16));
#76 = CARTESIAN_POINT ('', (-5., 1.25, -3.06161699786838E-16));
#77 = B_SPLINE_CURVE_WITH_KNOTS ('', 3, (#73, #74, #75, #76), .UNSPECIFIED., .F., .U., (4, 4), (0., 1.), .UNSPECIFIED.);
#78 = EDGE_CURVE ('', #4, #72, #77, .T.);
#79 = ORIENTED_EDGE ('', *, *, #78, .F.);
#80 = ORIENTED_EDGE ('', *, *, #23, .T.);
#81 = ORIENTED_EDGE ('', *, *, #78, .T.);
#82 = CARTESIAN_POINT ('', (-5., 1.25, -3.06161699786838E-16));
#83 = CARTESIAN_POINT ('', (-5., 1.25, 5.));
#84 = CARTESIAN_POINT ('', (-5., -3.75, 2.5));
#85 = CARTESIAN_POINT ('', (-5., -3.75, -2.5));
#86 = CARTESIAN_POINT ('', (-5., 1.25, -5.));
#87 = CARTESIAN_POINT ('', (-5., 1.25, -3.06161699786838E-16));
#88 = (
   BOUNDED_CURVE ()
   B_SPLINE_CURVE (5, (#82, #83, #84, #85, #86, #87), .UNSPECIFIED., .T., .U.)
   B_SPLINE_CURVE_WITH_KNOTS ((6, 6), (0., 1.), .UNSPECIFIED.)
   CURVE ()
   GEOMETRIC_REPRESENTATION_ITEM ()
   RATIONAL_B_SPLINE_CURVE ((5., 1., 1., 1., 1., 5.))
   REPRESENTATION_ITEM ('')
);
#89 = EDGE_CURVE ('', #72, #72, #88, .T.);
#90 = ORIENTED_EDGE ('', *, *, #89, .F.);
#91 = EDGE_LOOP ('', (#79, #80, #81, #90));
#92 = FACE_OUTER_BOUND ('', #91, .F.);
#93 = CARTESIAN_POINT ('', (-1.25, 1.25, -3.06161699786838E-16));
#94 = CARTESIAN_POINT ('', (-2.5, 1.25, -3.06161699786838E-16));
#95 = CARTESIAN_POINT ('', (-3.75, 1.25, -3.06161699786838E-16));
#96 = CARTESIAN_POINT ('', (-5., 1.25, -3.06161699786838E-16));
#97 = CARTESIAN_POINT ('', (-1.25, 1.25, 5.));
#98 = CARTESIAN_POINT ('', (-2.5, 1.25, 5.));
#99 = CARTESIAN_POINT ('', (-3.75, 1.25, 5.));
#100 = CARTESIAN_POINT ('', (-5., 1.25, 5.));
#101 = CARTESIAN_POINT ('', (-1.25, -3.75, 2.5));
#102 = CARTESIAN_POINT ('', (-2.5, -3.75, 2.5));
#103 = CARTESIAN_POINT ('', (-3.75, -3.75, 2.5));
#104 = CARTESIAN_POINT ('', (-5., -3.75, 2.5));
#105 = CARTESIAN_POINT ('', (-1.25, -3.75, -2.5));
#106 = CARTESIAN_POINT ('', (-2.5, -3.75, -2.5));
#107 = CARTESIAN_POINT ('', (-3.75, -3.75, -2.5));
#108 = CARTESIAN_POINT ('', (-5., -3.75, -2.5));
#109 = CARTESIAN_POINT ('', (-1.25, 1.25, -5.));
#110 = CARTESIAN_POINT ('', (-2.5, 1.25, -5.));
#111 = CARTESIAN_POINT ('', (-3.75, 1.25, -5.));
#112 = CARTESIAN_POINT ('', (-5., 1.25, -5.));
#113 = CARTESIAN_POINT ('', (-1.25, 1.25, -3.06161699786838E-16));
#114 = CARTESIAN_POINT ('', (-2.5, 1.25, -3.06161699786838E-16));
#115 = CARTESIAN_POINT ('', (-3.75, 1.25, -3.06161699786838E-16));
#116 = CARTESIAN_POINT ('', (-5., 1.25, -3.06161699786838E-16));
#117 = (
   BOUNDED_SURFACE ()
   B_SPLINE_SURFACE (5, 3, ((#93, #94, #95, #96), (#97, #98, #99, #100), (#101, #102, #103, #104), (#105, #106, #107, #108), (#109, #110, #111, #112), (#113, #114, #115, #116)), .UNSPECIFIED., .T., .F., .U.)
   B_SPLINE_SURFACE_WITH_KNOTS ((6, 6), (4, 4), (0., 1.), (0., 1.), .UNSPECIFIED.)
   SURFACE ()
   GEOMETRIC_REPRESENTATION_ITEM ()
   RATIONAL_B_SPLINE_SURFACE (((5., 5., 5., 5.), (1., 1., 1., 1.), (1., 1., 1., 1.), (1., 1., 1., 1.), (1., 1., 1., 1.), (5., 5., 5., 5.)))
   REPRESENTATION_ITEM ('')
);
#118 = ADVANCED_FACE ('', (#92), #117, .F.);
#119 = CARTESIAN_POINT ('', (-5., 3., -7.34788079488412E-16));
#120 = VERTEX_POINT ('', #119);
#121 = CARTESIAN_POINT ('', (-5., 1.25, -3.06161699786838E-16));
#122 = CARTESIAN_POINT ('', (-5., 1.83333333333334, -4.49037159687363E-16));
#123 = CARTESIAN_POINT ('', (-5., 2.41666666666666, -5.91912619587886E-16));
#124 = CARTESIAN_POINT ('', (-5., 3., -7.34788079488412E-16));
#125 = B_SPLINE_CURVE_WITH_KNOTS ('', 3, (#121, #122, #123, #124), .UNSPECIFIED., .F., .U., (4, 4), (0., 1.), .UNSPECIFIED.);
#126 = EDGE_CURVE ('', #72, #120, #125, .T.);
#127 = ORIENTED_EDGE ('', *, *, #126, .F.);
#128 = ORIENTED_EDGE ('', *, *, #89, .T.);
#129 = ORIENTED_EDGE ('', *, *, #126, .T.);
#130 = CARTESIAN_POINT ('', (-5., 3., -7.34788079488412E-16));
#131 = CARTESIAN_POINT ('', (-5., 3., 12.));
#132 = CARTESIAN_POINT ('', (-5., -9., 6.));
#133 = CARTESIAN_POINT ('', (-5., -9., -6.));
#134 = CARTESIAN_POINT ('', (-5., 3., -12.));
#135 = CARTESIAN_POINT ('', (-5., 3., -7.34788079488412E-16));
#136 = (
   BOUNDED_CURVE ()
   B_SPLINE_CURVE (5, (#130, #131, #132, #133, #134, #135), .UNSPECIFIED., .T., .U.)
   B_SPLINE_CURVE_WITH_KNOTS ((6, 6), (0., 1.), .UNSPECIFIED.)
   CURVE ()
   GEOMETRIC_REPRESENTATION_ITEM ()
   RATIONAL_B_SPLINE_CURVE ((5., 1., 1., 1., 1., 5.))
   REPRESENTATION_ITEM ('')
);
#137 = EDGE_CURVE ('', #120, #120, #136, .T.);
#138 = ORIENTED_EDGE ('', *, *, #137, .F.);
#139 = EDGE_LOOP ('', (#127, #128, #129, #138));
#140 = FACE_OUTER_BOUND ('', #139, .F.);
#141 = CARTESIAN_POINT ('', (-5., 1.25, -3.06161699786838E-16));
#142 = CARTESIAN_POINT ('', (-5., 1.83333333333334, -4.49037159687363E-16));
#143 = CARTESIAN_POINT ('', (-5., 2.41666666666666, -5.91912619587886E-16));
#144 = CARTESIAN_POINT ('', (-5., 3., -7.34788079488412E-16));
#145 = CARTESIAN_POINT ('', (-5., 1.25, 5.));
#146 = CARTESIAN_POINT ('', (-5., 1.83333333333334, 7.33333333333334));
#147 = CARTESIAN_POINT ('', (-5., 2.41666666666666, 9.66666666666665));
#148 = CARTESIAN_POINT ('', (-5., 3., 12.));
#149 = CARTESIAN_POINT ('', (-5., -3.75, 2.5));
#150 = CARTESIAN_POINT ('', (-5., -5.50000000000001, 3.66666666666667));
#151 = CARTESIAN_POINT ('', (-5., -7.24999999999999, 4.83333333333333));
#152 = CARTESIAN_POINT ('', (-5., -9., 6.));
#153 = CARTESIAN_POINT ('', (-5., -3.75, -2.5));
#154 = CARTESIAN_POINT ('', (-5., -5.50000000000001, -3.66666666666667));
#155 = CARTESIAN_POINT ('', (-5., -7.24999999999999, -4.83333333333333));
#156 = CARTESIAN_POINT ('', (-5., -9., -6.));
#157 = CARTESIAN_POINT ('', (-5., 1.25, -5.));
#158 = CARTESIAN_POINT ('', (-5., 1.83333333333333, -7.33333333333334));
#159 = CARTESIAN_POINT ('', (-5., 2.41666666666666, -9.66666666666665));
#160 = CARTESIAN_POINT ('', (-5., 3., -12.));
#161 = CARTESIAN_POINT ('', (-5., 1.25, -3.06161699786838E-16));
#162 = CARTESIAN_POINT ('', (-5., 1.83333333333334, -4.49037159687363E-16));
#163 = CARTESIAN_POINT ('', (-5., 2.41666666666666, -5.91912619587886E-16));
#164 = CARTESIAN_POINT ('', (-5., 3., -7.34788079488412E-16));
#165 = (
   BOUNDED_SURFACE ()
   B_SPLINE_SURFACE (5, 3, ((#141, #142, #143, #144), (#145, #146, #147, #148), (#149, #150, #151, #152), (#153, #154, #155, #156), (#157, #158, #159, #160), (#161, #162, #163, #164)), .UNSPECIFIED., .T., .F., .U.)
   B_SPLINE_SURFACE_WITH_KNOTS ((6, 6), (4, 4), (0., 1.), (0., 1.), .UNSPECIFIED.)
   SURFACE ()
   GEOMETRIC_REPRESENTATION_ITEM ()
   RATIONAL_B_SPLINE_SURFACE (((5., 5., 5., 5.), (1., 1., 1., 1.), (1., 1., 1., 1.), (1., 1., 1., 1.), (1., 1., 1., 1.), (5., 5., 5., 5.)))
   REPRESENTATION_ITEM ('')
);
#166 = ADVANCED_FACE ('', (#140), #165, .F.);
#167 = CARTESIAN_POINT ('', (-37.75, 3., -7.34788079488411E-16));
#168 = VERTEX_POINT ('', #167);
#169 = CARTESIAN_POINT ('', (-5., 3., -7.34788079488412E-16));
#170 = CARTESIAN_POINT ('', (-15.9166666666667, 3., -7.34788079488412E-16));
#171 = CARTESIAN_POINT ('', (-26.8333333333332, 3., -7.34788079488411E-16));
#172 = CARTESIAN_POINT ('', (-37.75, 3., -7.34788079488411E-16));
#173 = B_SPLINE_CURVE_WITH_KNOTS ('', 3, (#169, #170, #171, #172), .UNSPECIFIED., .F., .U., (4, 4), (0., 1.), .UNSPECIFIED.);
#174 = EDGE_CURVE ('', #120, #168, #173, .T.);
#175 = ORIENTED_EDGE ('', *, *, #174, .F.);
#176 = ORIENTED_EDGE ('', *, *, #137, .T.);
#177 = ORIENTED_EDGE ('', *, *, #174, .T.);
#178 = CARTESIAN_POINT ('', (-37.75, 3., -7.34788079488411E-16));
#179 = CARTESIAN_POINT ('', (-37.75, 2.99999999999999, 12.));
#180 = CARTESIAN_POINT ('', (-37.75, -8.99999999999999, 5.99999999999999));
#181 = CARTESIAN_POINT ('', (-37.75, -8.99999999999999, -6.));
#182 = CARTESIAN_POINT ('', (-37.75, 3.00000000000001, -12.));
#183 = CARTESIAN_POINT ('', (-37.75, 3., -7.34788079488411E-16));
#184 = (
   BOUNDED_CURVE ()
   B_SPLINE_CURVE (5, (#178, #179, #180, #181, #182, #183), .UNSPECIFIED., .T., .U.)
   B_SPLINE_CURVE_WITH_KNOTS ((6, 6), (0., 1.), .UNSPECIFIED.)
   CURVE ()
   GEOMETRIC_REPRESENTATION_ITEM ()
   RATIONAL_B_SPLINE_CURVE ((5., 1., 1., 1., 1., 5.))
   REPRESENTATION_ITEM ('')
);
#185 = EDGE_CURVE ('', #168, #168, #184, .T.);
#186 = ORIENTED_EDGE ('', *, *, #185, .F.);
#187 = EDGE_LOOP ('', (#175, #176, #177, #186));
#188 = FACE_OUTER_BOUND ('', #187, .F.);
#189 = CARTESIAN_POINT ('', (-5., 3., -7.34788079488412E-16));
#190 = CARTESIAN_POINT ('', (-15.9166666666667, 3., -7.34788079488412E-16));
#191 = CARTESIAN_POINT ('', (-26.8333333333332, 3., -7.34788079488411E-16));
#192 = CARTESIAN_POINT ('', (-37.75, 3., -7.34788079488411E-16));
#193 = CARTESIAN_POINT ('', (-5., 3., 12.));
#194 = CARTESIAN_POINT ('', (-15.9166666666667, 3., 12.));
#195 = CARTESIAN_POINT ('', (-26.8333333333332, 3., 12.));
#196 = CARTESIAN_POINT ('', (-37.75, 2.99999999999999, 12.));
#197 = CARTESIAN_POINT ('', (-5., -9., 6.));
#198 = CARTESIAN_POINT ('', (-15.9166666666667, -8.99999999999999, 6.));
#199 = CARTESIAN_POINT ('', (-26.8333333333332, -8.99999999999999, 5.99999999999999));
#200 = CARTESIAN_POINT ('', (-37.75, -8.99999999999999, 5.99999999999999));
#201 = CARTESIAN_POINT ('', (-5., -9., -6.));
#202 = CARTESIAN_POINT ('', (-15.9166666666667, -8.99999999999999, -6.));
#203 = CARTESIAN_POINT ('', (-26.8333333333332, -8.99999999999999, -6.));
#204 = CARTESIAN_POINT ('', (-37.75, -8.99999999999999, -6.));
#205 = CARTESIAN_POINT ('', (-5., 3., -12.));
#206 = CARTESIAN_POINT ('', (-15.9166666666667, 3., -12.));
#207 = CARTESIAN_POINT ('', (-26.8333333333332, 3., -12.));
#208 = CARTESIAN_POINT ('', (-37.75, 3.00000000000001, -12.));
#209 = CARTESIAN_POINT ('', (-5., 3., -7.34788079488412E-16));
#210 = CARTESIAN_POINT ('', (-15.9166666666667, 3., -7.34788079488412E-16));
#211 = CARTESIAN_POINT ('', (-26.8333333333332, 3., -7.34788079488411E-16));
#212 = CARTESIAN_POINT ('', (-37.75, 3., -7.34788079488411E-16));
#213 = (
   BOUNDED_SURFACE ()
   B_SPLINE_SURFACE (5, 3, ((#189, #190, #191, #192), (#193, #194, #195, #196), (#197, #198, #199, #200), (#201, #202, #203, #204), (#205, #206, #207, #208), (#209, #210, #211, #212)), .UNSPECIFIED., .T., .F., .U.)
   B_SPLINE_SURFACE_WITH_KNOTS ((6, 6), (4, 4), (0., 1.), (0., 1.), .UNSPECIFIED.)
   SURFACE ()
   GEOMETRIC_REPRESENTATION_ITEM ()
   RATIONAL_B_SPLINE_SURFACE (((5., 5., 5., 5.), (1., 1., 1., 1.), (1., 1., 1., 1.), (1., 1., 1., 1.), (1., 1., 1., 1.), (5., 5., 5., 5.)))
   REPRESENTATION_ITEM ('')
);
#214 = ADVANCED_FACE ('', (#188), #213, .F.);
#215 = CARTESIAN_POINT ('', (-38., 2.75, -6.73555739531044E-16));
#216 = VERTEX_POINT ('', #215);
#217 = CARTESIAN_POINT ('', (-38., 2.32682891837997E-15, -2.32682891837997E-15));
#218 = VERTEX_POINT ('', #217);
#219 = CARTESIAN_POINT ('', (-38., 2.75, -6.73555739531044E-16));
#220 = CARTESIAN_POINT ('', (-38., 2.32682891837997E-15, -2.32682891837997E-15));
#221 = B_SPLINE_CURVE_WITH_KNOTS ('', 1, (#219, #220), .UNSPECIFIED., .F., .U., (2, 2), (0., 1.), .UNSPECIFIED.);
#222 = EDGE_CURVE ('', #216, #218, #221, .T.);
#223 = ORIENTED_EDGE ('', *, *, #222, .F.);
#224 = CARTESIAN_POINT ('', (-38., 2.75, -6.73555739531044E-16));
#225 = CARTESIAN_POINT ('', (-38., 2.74999999999999, 11.));
#226 = CARTESIAN_POINT ('', (-38., -8.24999999999999, 5.49999999999999));
#227 = CARTESIAN_POINT ('', (-38., -8.24999999999999, -5.5));
#228 = CARTESIAN_POINT ('', (-38., 2.75000000000001, -11.));
#229 = CARTESIAN_POINT ('', (-38., 2.75, -6.73555739531044E-16));
#230 = (
   BOUNDED_CURVE ()
   B_SPLINE_CURVE (5, (#224, #225, #226, #227, #228, #229), .UNSPECIFIED., .T., .U.)
   B_SPLINE_CURVE_WITH_KNOTS ((6, 6), (0., 1.), .UNSPECIFIED.)
   CURVE ()
   GEOMETRIC_REPRESENTATION_ITEM ()
   RATIONAL_B_SPLINE_CURVE ((5., 1., 1., 1., 1., 5.))
   REPRESENTATION_ITEM ('')
);
#231 = EDGE_CURVE ('', #216, #216, #230, .T.);
#232 = ORIENTED_EDGE ('', *, *, #231, .T.);
#233 = ORIENTED_EDGE ('', *, *, #222, .T.);
#234 = EDGE_LOOP ('', (#223, #232, #233));
#235 = FACE_OUTER_BOUND ('', #234, .F.);
#236 = CARTESIAN_POINT ('', (-38., 2.75, -6.73555739531044E-16));
#237 = CARTESIAN_POINT ('', (-38., 2.32682891837997E-15, -2.32682891837997E-15));
#238 = CARTESIAN_POINT ('', (-38., 2.74999999999999, 11.));
#239 = CARTESIAN_POINT ('', (-38., 2.32682891837997E-15, -2.32682891837997E-15));
#240 = CARTESIAN_POINT ('', (-38., -8.24999999999999, 5.49999999999999));
#241 = CARTESIAN_POINT ('', (-38., 2.32682891837997E-15, -2.32682891837997E-15));
#242 = CARTESIAN_POINT ('', (-38., -8.24999999999999, -5.5));
#243 = CARTESIAN_POINT ('', (-38., 2.32682891837997E-15, -2.32682891837997E-15));
#244 = CARTESIAN_POINT ('', (-38., 2.75000000000001, -11.));
#245 = CARTESIAN_POINT ('', (-38., 2.32682891837997E-15, -2.32682891837997E-15));
#246 = CARTESIAN_POINT ('', (-38., 2.75, -6.73555739531044E-16));
#247 = CARTESIAN_POINT ('', (-38., 2.32682891837997E-15, -2.32682891837997E-15));
#248 = (
   BOUNDED_SURFACE ()
   B_SPLINE_SURFACE (5, 1, ((#236, #237), (#238, #239), (#240, #241), (#242, #243), (#244, #245), (#246, #247)), .UNSPECIFIED., .T., .F., .U.)
   B_SPLINE_SURFACE_WITH_KNOTS ((6, 6), (2, 2), (0., 1.), (0., 1.), .UNSPECIFIED.)
   SURFACE ()
   GEOMETRIC_REPRESENTATION_ITEM ()
   RATIONAL_B_SPLINE_SURFACE (((5., 5.), (1., 1.), (1., 1.), (1., 1.), (1., 1.), (5., 5.)))
   REPRESENTATION_ITEM ('')
);
#249 = ADVANCED_FACE ('', (#235), #248, .F.);
#250 = CARTESIAN_POINT ('', (-37.75, 3., -7.34788079488411E-16));
#251 = CARTESIAN_POINT ('', (-37.8333333333333, 2.91666666666667, -7.14377299502621E-16));
#252 = CARTESIAN_POINT ('', (-37.9166666666667, 2.83333333333334, -6.93966519516834E-16));
#253 = CARTESIAN_POINT ('', (-38., 2.75, -6.73555739531044E-16));
#254 = B_SPLINE_CURVE_WITH_KNOTS ('', 3, (#250, #251, #252, #253), .UNSPECIFIED., .F., .U., (4, 4), (0., 1.), .UNSPECIFIED.);
#255 = EDGE_CURVE ('', #168, #216, #254, .T.);
#256 = ORIENTED_EDGE ('', *, *, #255, .F.);
#257 = ORIENTED_EDGE ('', *, *, #185, .T.);
#258 = ORIENTED_EDGE ('', *, *, #255, .T.);
#259 = ORIENTED_EDGE ('', *, *, #231, .F.);
#260 = EDGE_LOOP ('', (#256, #257, #258, #259));
#261 = FACE_OUTER_BOUND ('', #260, .F.);
#262 = CARTESIAN_POINT ('', (-37.75, 3., -7.34788079488411E-16));
#263 = CARTESIAN_POINT ('', (-37.8333333333333, 2.91666666666667, -7.14377299502621E-16));
#264 = CARTESIAN_POINT ('', (-37.9166666666667, 2.83333333333334, -6.93966519516834E-16));
#265 = CARTESIAN_POINT ('', (-38., 2.75, -6.73555739531044E-16));
#266 = CARTESIAN_POINT ('', (-37.75, 2.99999999999999, 12.));
#267 = CARTESIAN_POINT ('', (-37.8333333333333, 2.91666666666666, 11.6666666666667));
#268 = CARTESIAN_POINT ('', (-37.9166666666667, 2.83333333333333, 11.3333333333333));
#269 = CARTESIAN_POINT ('', (-38., 2.74999999999999, 11.));
#270 = CARTESIAN_POINT ('', (-37.75, -8.99999999999999, 5.99999999999999));
#271 = CARTESIAN_POINT ('', (-37.8333333333333, -8.74999999999999, 5.83333333333332));
#272 = CARTESIAN_POINT ('', (-37.9166666666667, -8.50000000000001, 5.66666666666666));
#273 = CARTESIAN_POINT ('', (-38., -8.24999999999999, 5.49999999999999));
#274 = CARTESIAN_POINT ('', (-37.75, -8.99999999999999, -6.));
#275 = CARTESIAN_POINT ('', (-37.8333333333333, -8.74999999999998, -5.83333333333333));
#276 = CARTESIAN_POINT ('', (-37.9166666666667, -8.5, -5.66666666666668));
#277 = CARTESIAN_POINT ('', (-38., -8.24999999999999, -5.5));
#278 = CARTESIAN_POINT ('', (-37.75, 3.00000000000001, -12.));
#279 = CARTESIAN_POINT ('', (-37.8333333333333, 2.91666666666667, -11.6666666666667));
#280 = CARTESIAN_POINT ('', (-37.9166666666667, 2.83333333333334, -11.3333333333333));
#281 = CARTESIAN_POINT ('', (-38., 2.75000000000001, -11.));
#282 = CARTESIAN_POINT ('', (-37.75, 3., -7.34788079488411E-16));
#283 = CARTESIAN_POINT ('', (-37.8333333333333, 2.91666666666667, -7.14377299502621E-16));
#284 = CARTESIAN_POINT ('', (-37.9166666666667, 2.83333333333334, -6.93966519516834E-16));
#285 = CARTESIAN_POINT ('', (-38., 2.75, -6.73555739531044E-16));
#286 = (
   BOUNDED_SURFACE ()
   B_SPLINE_SURFACE (5, 3, ((#262, #263, #264, #265), (#266, #267, #268, #269), (#270, #271, #272, #273), (#274, #275, #276, #277), (#278, #279, #280, #281), (#282, #283, #284, #285)), .UNSPECIFIED., .T., .F., .U.)
   B_SPLINE_SURFACE_WITH_KNOTS ((6, 6), (4, 4), (0., 1.), (0., 1.), .UNSPECIFIED.)
   SURFACE ()
   GEOMETRIC_REPRESENTATION_ITEM ()
   RATIONAL_B_SPLINE_SURFACE (((5., 5., 5., 5.), (1., 1., 1., 1.), (1., 1., 1., 1.), (1., 1., 1., 1.), (1., 1., 1., 1.), (5., 5., 5., 5.)))
   REPRESENTATION_ITEM ('')
);
#287 = ADVANCED_FACE ('', (#261), #286, .F.);
#288 = CLOSED_SHELL ('', (#70, #118, #166, #214, #249, #287));
#289 = MANIFOLD_SOLID_BREP ('', #288);
#290 = (
   LENGTH_UNIT ()
   NAMED_UNIT (*)
   SI_UNIT (.MILLI., .METRE.)
);
#291 = (
   NAMED_UNIT (*)
   SI_UNIT ($, .STERADIAN.)
   SOLID_ANGLE_UNIT ()
);
#292 = (
   NAMED_UNIT (*)
   SI_UNIT ($, .RADIAN.)
   PLANE_ANGLE_UNIT ()
);
#293 = UNCERTAINTY_MEASURE_WITH_UNIT (LENGTH_MEASURE(0.001), #290, 'DISTANCE_ACCURACY_VALUE', '');
#294 = (
   GEOMETRIC_REPRESENTATION_CONTEXT (3)
   GLOBAL_UNCERTAINTY_ASSIGNED_CONTEXT ((#293))
   GLOBAL_UNIT_ASSIGNED_CONTEXT ((#290, #291, #292))
   REPRESENTATION_CONTEXT ('', '3D')
);
#295 = SHAPE_REPRESENTATION ('', (), #294);
#296 = APPLICATION_CONTEXT ('configuration controlled 3D designs of mechanical parts and assemblies');
#297 = APPLICATION_PROTOCOL_DEFINITION ('International Standard', 'config_control_design', 1997, #296);
#298 = MECHANICAL_CONTEXT ('', #296, 'mechanical');
#299 = PRODUCT ('', '', '', (#298));
#300 = PERSON_AND_ORGANIZATION_ROLE ('design_owner');
#301 = PERSON ('', '', $, $, $, $);
#302 = ORGANIZATION ($, '', '');
#303 = PERSON_AND_ORGANIZATION (#301, #302);
#304 = CC_DESIGN_PERSON_AND_ORGANIZATION_ASSIGNMENT (#303, #300, (#299));
#305 = PRODUCT_RELATED_PRODUCT_CATEGORY ('detail', $, (#299));
#306 = PRODUCT_DEFINITION_FORMATION_WITH_SPECIFIED_SOURCE ('', '', #299, .NOT_KNOWN.);
#307 = APPROVAL_STATUS ('approved');
#308 = APPROVAL (#307, '');
#309 = CALENDAR_DATE (2020, 16, 4);
#310 = COORDINATED_UNIVERSAL_TIME_OFFSET (0, $, .AHEAD.);
#311 = LOCAL_TIME (12, 0, 8., #310);
#312 = DATE_AND_TIME (#309, #311);
#313 = APPROVAL_DATE_TIME (#312, #308);
#314 = APPROVAL_ROLE ('');
#315 = PERSON ('', '', $, $, $, $);
#316 = ORGANIZATION ($, '', '');
#317 = PERSON_AND_ORGANIZATION (#315, #316);
#318 = APPROVAL_PERSON_ORGANIZATION (#317, #308, #314);
#319 = CC_DESIGN_APPROVAL (#308, (#306));
#320 = PERSON_AND_ORGANIZATION_ROLE ('creator');
#321 = PERSON ('', '', $, $, $, $);
#322 = ORGANIZATION ($, '', '');
#323 = PERSON_AND_ORGANIZATION (#321, #322);
#324 = CC_DESIGN_PERSON_AND_ORGANIZATION_ASSIGNMENT (#323, #320, (#306));
#325 = PERSON_AND_ORGANIZATION_ROLE ('part_supplier');
#326 = PERSON ('', '', $, $, $, $);
#327 = ORGANIZATION ($, '', '');
#328 = PERSON_AND_ORGANIZATION (#326, #327);
#329 = CC_DESIGN_PERSON_AND_ORGANIZATION_ASSIGNMENT (#328, #325, (#306));
#330 = SECURITY_CLASSIFICATION_LEVEL ('unclassified');
#331 = SECURITY_CLASSIFICATION ('', '', #330);
#332 = APPROVAL_STATUS ('approved');
#333 = APPROVAL (#332, '');
#334 = CALENDAR_DATE (2020, 16, 4);
#335 = COORDINATED_UNIVERSAL_TIME_OFFSET (0, $, .AHEAD.);
#336 = LOCAL_TIME (12, 0, 8., #335);
#337 = DATE_AND_TIME (#334, #336);
#338 = APPROVAL_DATE_TIME (#337, #333);
#339 = APPROVAL_ROLE ('');
#340 = PERSON ('', '', $, $, $, $);
#341 = ORGANIZATION ($, '', '');
#342 = PERSON_AND_ORGANIZATION (#340, #341);
#343 = APPROVAL_PERSON_ORGANIZATION (#342, #333, #339);
#344 = CC_DESIGN_APPROVAL (#333, (#331));
#345 = DATE_TIME_ROLE ('classification_date');
#346 = CALENDAR_DATE (2020, 16, 4);
#347 = COORDINATED_UNIVERSAL_TIME_OFFSET (0, $, .AHEAD.);
#348 = LOCAL_TIME (12, 0, 8., #347);
#349 = DATE_AND_TIME (#346, #348);
#350 = CC_DESIGN_DATE_AND_TIME_ASSIGNMENT (#349, #345, (#331));
#351 = PERSON_AND_ORGANIZATION_ROLE ('classification_officer');
#352 = PERSON ('', '', $, $, $, $);
#353 = ORGANIZATION ($, '', '');
#354 = PERSON_AND_ORGANIZATION (#352, #353);
#355 = CC_DESIGN_PERSON_AND_ORGANIZATION_ASSIGNMENT (#354, #351, (#331));
#356 = CC_DESIGN_SECURITY_CLASSIFICATION (#331, (#306));
#357 = DESIGN_CONTEXT ('', #296, 'design');
#358 = PRODUCT_DEFINITION ('', '', #306, #357);
#359 = APPROVAL_STATUS ('approved');
#360 = APPROVAL (#359, '');
#361 = CALENDAR_DATE (2020, 16, 4);
#362 = COORDINATED_UNIVERSAL_TIME_OFFSET (0, $, .AHEAD.);
#363 = LOCAL_TIME (12, 0, 8., #362);
#364 = DATE_AND_TIME (#361, #363);
#365 = APPROVAL_DATE_TIME (#364, #360);
#366 = APPROVAL_ROLE ('');
#367 = PERSON ('', '', $, $, $, $);
#368 = ORGANIZATION ($, '', '');
#369 = PERSON_AND_ORGANIZATION (#367, #368);
#370 = APPROVAL_PERSON_ORGANIZATION (#369, #360, #366);
#371 = CC_DESIGN_APPROVAL (#360, (#358));
#372 = DATE_TIME_ROLE ('creation_date');
#373 = CALENDAR_DATE (2020, 16, 4);
#374 = COORDINATED_UNIVERSAL_TIME_OFFSET (0, $, .AHEAD.);
#375 = LOCAL_TIME (12, 0, 8., #374);
#376 = DATE_AND_TIME (#373, #375);
#377 = CC_DESIGN_DATE_AND_TIME_ASSIGNMENT (#376, #372, (#358));
#378 = PERSON_AND_ORGANIZATION_ROLE ('creator');
#379 = PERSON ('', '', $, $, $, $);
#380 = ORGANIZATION ($, '', '');
#381 = PERSON_AND_ORGANIZATION (#379, #380);
#382 = CC_DESIGN_PERSON_AND_ORGANIZATION_ASSIGNMENT (#381, #378, (#358));
#383 = PRODUCT_DEFINITION_SHAPE ('', '', #358);
#384 = SHAPE_DEFINITION_REPRESENTATION (#383, #295);
#385 = SHAPE_REPRESENTATION_RELATIONSHIP ('', '', #295, #386);
#386 = ADVANCED_BREP_SHAPE_REPRESENTATION ('', (#289), #294);
ENDSEC;
END-ISO-10303-21;
