ISO-10303-21;
HEADER;
FILE_DESCRIPTION ((), '1');
FILE_NAME ('C:\\Users\\kevin\\179 Range\\179 0303A.STP', '2020-04-16T11:45:47', ('Unknown'), ('mafordeurope'), 'OneCNC-XR7 Mill 3D Expert', 'OneCNC-XR7 Mill 3D Expert', '');
FILE_SCHEMA (('CONFIG_CONTROL_DESIGN'));
ENDSEC;

DATA;
#1 = CARTESIAN_POINT ('', (0., 0., 0.));
#2 = VERTEX_POINT ('', #1);
#3 = CARTESIAN_POINT ('', (-1.5, 1.5, -3.67394039744206E-16));
#4 = VERTEX_POINT ('', #3);
#5 = CARTESIAN_POINT ('', (0., 0., 0.));
#6 = CARTESIAN_POINT ('', (3.08148791101958E-33, 0.264030209926055, -6.46687502928295E-17));
#7 = CARTESIAN_POINT ('', (-0.113708426393069, 0.681903050800771, -1.67018077698396E-16));
#8 = CARTESIAN_POINT ('', (-0.510450104051723, 1.16991854969711, -2.86547401429936E-16));
#9 = CARTESIAN_POINT ('', (-0.969387099583316, 1.43920730943647, -3.52504124962169E-16));
#10 = CARTESIAN_POINT ('', (-1.33611693333041, 1.5, -3.67394039744206E-16));
#11 = CARTESIAN_POINT ('', (-1.5, 1.5, -3.67394039744206E-16));
#12 = B_SPLINE_CURVE_WITH_KNOTS ('', 3, (#5, #6, #7, #8, #9, #10, #11), .UNSPECIFIED., .F., .U., (4, 1, 1, 1, 4), (0., 0.33617370428258, 0.532939663384363, 0.791337598803809, 1.), .UNSPECIFIED.);
#13 = EDGE_CURVE ('', #2, #4, #12, .T.);
#14 = ORIENTED_EDGE ('', *, *, #13, .F.);
#15 = ORIENTED_EDGE ('', *, *, #13, .T.);
#16 = CARTESIAN_POINT ('', (-1.5, 1.5, -3.67394039744206E-16));
#17 = CARTESIAN_POINT ('', (-1.5, 1.5, 6.));
#18 = CARTESIAN_POINT ('', (-1.5, -4.5, 3.));
#19 = CARTESIAN_POINT ('', (-1.5, -4.5, -3.));
#20 = CARTESIAN_POINT ('', (-1.5, 1.5, -6.));
#21 = CARTESIAN_POINT ('', (-1.5, 1.5, -3.67394039744206E-16));
#22 = (
   BOUNDED_CURVE ()
   B_SPLINE_CURVE (5, (#16, #17, #18, #19, #20, #21), .UNSPECIFIED., .T., .U.)
   B_SPLINE_CURVE_WITH_KNOTS ((6, 6), (0., 1.), .UNSPECIFIED.)
   CURVE ()
   GEOMETRIC_REPRESENTATION_ITEM ()
   RATIONAL_B_SPLINE_CURVE ((5., 1., 1., 1., 1., 5.))
   REPRESENTATION_ITEM ('')
);
#23 = EDGE_CURVE ('', #4, #4, #22, .T.);
#24 = ORIENTED_EDGE ('', *, *, #23, .F.);
#25 = EDGE_LOOP ('', (#14, #15, #24));
#26 = FACE_OUTER_BOUND ('', #25, .F.);
#27 = CARTESIAN_POINT ('', (0., 0., 0.));
#28 = CARTESIAN_POINT ('', (3.08148791101958E-33, 0.264030209926055, -6.46687502928295E-17));
#29 = CARTESIAN_POINT ('', (-0.113708426393069, 0.681903050800771, -1.67018077698396E-16));
#30 = CARTESIAN_POINT ('', (-0.510450104051723, 1.16991854969711, -2.86547401429936E-16));
#31 = CARTESIAN_POINT ('', (-0.969387099583316, 1.43920730943647, -3.52504124962169E-16));
#32 = CARTESIAN_POINT ('', (-1.33611693333041, 1.5, -3.67394039744206E-16));
#33 = CARTESIAN_POINT ('', (-1.5, 1.5, -3.67394039744206E-16));
#34 = CARTESIAN_POINT ('', (0., 0., 0.));
#35 = CARTESIAN_POINT ('', (-6.46687502928295E-17, 0.264030209926056, 1.05612083970422));
#36 = CARTESIAN_POINT ('', (-0.113708426393069, 0.681903050800772, 2.72761220320308));
#37 = CARTESIAN_POINT ('', (-0.510450104051723, 1.16991854969711, 4.67967419878844));
#38 = CARTESIAN_POINT ('', (-0.969387099583317, 1.43920730943647, 5.75682923774587));
#39 = CARTESIAN_POINT ('', (-1.33611693333041, 1.5, 6.));
#40 = CARTESIAN_POINT ('', (-1.5, 1.5, 6.));
#41 = CARTESIAN_POINT ('', (0., 0., 0.));
#42 = CARTESIAN_POINT ('', (-9.70031254392443E-17, -0.792090629778166, 0.528060419852111));
#43 = CARTESIAN_POINT ('', (-0.113708426393069, -2.04570915240231, 1.36380610160154));
#44 = CARTESIAN_POINT ('', (-0.510450104051723, -3.50975564909133, 2.33983709939422));
#45 = CARTESIAN_POINT ('', (-0.969387099583317, -4.3176219283094, 2.87841461887293));
#46 = CARTESIAN_POINT ('', (-1.33611693333041, -4.5, 3.));
#47 = CARTESIAN_POINT ('', (-1.5, -4.5, 3.));
#48 = CARTESIAN_POINT ('', (0., 0., 0.));
#49 = CARTESIAN_POINT ('', (-3.23343751464148E-17, -0.792090629778167, -0.528060419852111));
#50 = CARTESIAN_POINT ('', (-0.113708426393069, -2.04570915240231, -1.36380610160154));
#51 = CARTESIAN_POINT ('', (-0.510450104051723, -3.50975564909133, -2.33983709939422));
#52 = CARTESIAN_POINT ('', (-0.969387099583316, -4.3176219283094, -2.87841461887293));
#53 = CARTESIAN_POINT ('', (-1.33611693333041, -4.5, -3.));
#54 = CARTESIAN_POINT ('', (-1.5, -4.5, -3.));
#55 = CARTESIAN_POINT ('', (0., 0., 0.));
#56 = CARTESIAN_POINT ('', (6.46687502928295E-17, 0.264030209926055, -1.05612083970422));
#57 = CARTESIAN_POINT ('', (-0.113708426393069, 0.68190305080077, -2.72761220320308));
#58 = CARTESIAN_POINT ('', (-0.510450104051723, 1.16991854969711, -4.67967419878844));
#59 = CARTESIAN_POINT ('', (-0.969387099583316, 1.43920730943647, -5.75682923774587));
#60 = CARTESIAN_POINT ('', (-1.33611693333041, 1.5, -6.));
#61 = CARTESIAN_POINT ('', (-1.5, 1.5, -6.));
#62 = CARTESIAN_POINT ('', (0., 0., 0.));
#63 = CARTESIAN_POINT ('', (3.08148791101958E-33, 0.264030209926055, -6.46687502928295E-17));
#64 = CARTESIAN_POINT ('', (-0.113708426393069, 0.681903050800771, -1.67018077698396E-16));
#65 = CARTESIAN_POINT ('', (-0.510450104051723, 1.16991854969711, -2.86547401429936E-16));
#66 = CARTESIAN_POINT ('', (-0.969387099583316, 1.43920730943647, -3.52504124962169E-16));
#67 = CARTESIAN_POINT ('', (-1.33611693333041, 1.5, -3.67394039744206E-16));
#68 = CARTESIAN_POINT ('', (-1.5, 1.5, -3.67394039744206E-16));
#69 = (
   BOUNDED_SURFACE ()
   B_SPLINE_SURFACE (5, 3, ((#27, #28, #29, #30, #31, #32, #33), (#34, #35, #36, #37, #38, #39, #40), (#41, #42, #43, #44, #45, #46, #47), (#48, #49, #50, #51, #52, #53, #54), (#55, #56, #57, #58, #59, #60, #61), (#62, #63, #64, #65, #66, #67, #68)), .UNSPECIFIED., .T., .F., .U.)
   B_SPLINE_SURFACE_WITH_KNOTS ((6, 6), (4, 1, 1, 1, 4), (0., 1.), (0., 0.33617370428258, 0.532939663384363, 0.791337598803809, 1.), .UNSPECIFIED.)
   SURFACE ()
   GEOMETRIC_REPRESENTATION_ITEM ()
   RATIONAL_B_SPLINE_SURFACE (((5., 5., 5., 5., 5., 5., 5.), (1., 1., 1., 1., 1., 1., 1.), (1., 1., 1., 1., 1., 1., 1.), (1., 1., 1., 1., 1., 1., 1.), (1., 1., 1., 1., 1., 1., 1.), (5., 5., 5., 5., 5., 5., 5.)))
   REPRESENTATION_ITEM ('')
);
#70 = ADVANCED_FACE ('', (#26), #69, .F.);
#71 = CARTESIAN_POINT ('', (-37.75, 1.5, -3.67394039744205E-16));
#72 = VERTEX_POINT ('', #71);
#73 = CARTESIAN_POINT ('', (-1.5, 1.5, -3.67394039744206E-16));
#74 = CARTESIAN_POINT ('', (-13.5833333333333, 1.5, -3.67394039744206E-16));
#75 = CARTESIAN_POINT ('', (-25.6666666666667, 1.5, -3.67394039744206E-16));
#76 = CARTESIAN_POINT ('', (-37.75, 1.5, -3.67394039744205E-16));
#77 = B_SPLINE_CURVE_WITH_KNOTS ('', 3, (#73, #74, #75, #76), .UNSPECIFIED., .F., .U., (4, 4), (0., 1.), .UNSPECIFIED.);
#78 = EDGE_CURVE ('', #4, #72, #77, .T.);
#79 = ORIENTED_EDGE ('', *, *, #78, .F.);
#80 = ORIENTED_EDGE ('', *, *, #23, .T.);
#81 = ORIENTED_EDGE ('', *, *, #78, .T.);
#82 = CARTESIAN_POINT ('', (-37.75, 1.5, -3.67394039744205E-16));
#83 = CARTESIAN_POINT ('', (-37.75, 1.49999999999999, 5.99999999999999));
#84 = CARTESIAN_POINT ('', (-37.75, -4.49999999999999, 2.99999999999999));
#85 = CARTESIAN_POINT ('', (-37.75, -4.49999999999999, -3.));
#86 = CARTESIAN_POINT ('', (-37.75, 1.50000000000001, -5.99999999999999));
#87 = CARTESIAN_POINT ('', (-37.75, 1.5, -3.67394039744205E-16));
#88 = (
   BOUNDED_CURVE ()
   B_SPLINE_CURVE (5, (#82, #83, #84, #85, #86, #87), .UNSPECIFIED., .T., .U.)
   B_SPLINE_CURVE_WITH_KNOTS ((6, 6), (0., 1.), .UNSPECIFIED.)
   CURVE ()
   GEOMETRIC_REPRESENTATION_ITEM ()
   RATIONAL_B_SPLINE_CURVE ((5., 1., 1., 1., 1., 5.))
   REPRESENTATION_ITEM ('')
);
#89 = EDGE_CURVE ('', #72, #72, #88, .T.);
#90 = ORIENTED_EDGE ('', *, *, #89, .F.);
#91 = EDGE_LOOP ('', (#79, #80, #81, #90));
#92 = FACE_OUTER_BOUND ('', #91, .F.);
#93 = CARTESIAN_POINT ('', (-1.5, 1.5, -3.67394039744206E-16));
#94 = CARTESIAN_POINT ('', (-13.5833333333333, 1.5, -3.67394039744206E-16));
#95 = CARTESIAN_POINT ('', (-25.6666666666667, 1.5, -3.67394039744206E-16));
#96 = CARTESIAN_POINT ('', (-37.75, 1.5, -3.67394039744205E-16));
#97 = CARTESIAN_POINT ('', (-1.5, 1.5, 6.));
#98 = CARTESIAN_POINT ('', (-13.5833333333333, 1.5, 5.99999999999999));
#99 = CARTESIAN_POINT ('', (-25.6666666666667, 1.49999999999999, 5.99999999999999));
#100 = CARTESIAN_POINT ('', (-37.75, 1.49999999999999, 5.99999999999999));
#101 = CARTESIAN_POINT ('', (-1.5, -4.5, 3.));
#102 = CARTESIAN_POINT ('', (-13.5833333333333, -4.5, 3.));
#103 = CARTESIAN_POINT ('', (-25.6666666666667, -4.49999999999999, 2.99999999999999));
#104 = CARTESIAN_POINT ('', (-37.75, -4.49999999999999, 2.99999999999999));
#105 = CARTESIAN_POINT ('', (-1.5, -4.5, -3.));
#106 = CARTESIAN_POINT ('', (-13.5833333333333, -4.49999999999999, -3.));
#107 = CARTESIAN_POINT ('', (-25.6666666666667, -4.49999999999999, -3.));
#108 = CARTESIAN_POINT ('', (-37.75, -4.49999999999999, -3.));
#109 = CARTESIAN_POINT ('', (-1.5, 1.5, -6.));
#110 = CARTESIAN_POINT ('', (-13.5833333333333, 1.5, -5.99999999999999));
#111 = CARTESIAN_POINT ('', (-25.6666666666667, 1.5, -5.99999999999999));
#112 = CARTESIAN_POINT ('', (-37.75, 1.50000000000001, -5.99999999999999));
#113 = CARTESIAN_POINT ('', (-1.5, 1.5, -3.67394039744206E-16));
#114 = CARTESIAN_POINT ('', (-13.5833333333333, 1.5, -3.67394039744206E-16));
#115 = CARTESIAN_POINT ('', (-25.6666666666667, 1.5, -3.67394039744206E-16));
#116 = CARTESIAN_POINT ('', (-37.75, 1.5, -3.67394039744205E-16));
#117 = (
   BOUNDED_SURFACE ()
   B_SPLINE_SURFACE (5, 3, ((#93, #94, #95, #96), (#97, #98, #99, #100), (#101, #102, #103, #104), (#105, #106, #107, #108), (#109, #110, #111, #112), (#113, #114, #115, #116)), .UNSPECIFIED., .T., .F., .U.)
   B_SPLINE_SURFACE_WITH_KNOTS ((6, 6), (4, 4), (0., 1.), (0., 1.), .UNSPECIFIED.)
   SURFACE ()
   GEOMETRIC_REPRESENTATION_ITEM ()
   RATIONAL_B_SPLINE_SURFACE (((5., 5., 5., 5.), (1., 1., 1., 1.), (1., 1., 1., 1.), (1., 1., 1., 1.), (1., 1., 1., 1.), (5., 5., 5., 5.)))
   REPRESENTATION_ITEM ('')
);
#118 = ADVANCED_FACE ('', (#92), #117, .F.);
#119 = CARTESIAN_POINT ('', (-38., 1.25, -3.06161699786838E-16));
#120 = VERTEX_POINT ('', #119);
#121 = CARTESIAN_POINT ('', (-38., 2.32682891837997E-15, -2.32682891837997E-15));
#122 = VERTEX_POINT ('', #121);
#123 = CARTESIAN_POINT ('', (-38., 1.25, -3.06161699786838E-16));
#124 = CARTESIAN_POINT ('', (-38., 2.32682891837997E-15, -2.32682891837997E-15));
#125 = B_SPLINE_CURVE_WITH_KNOTS ('', 1, (#123, #124), .UNSPECIFIED., .F., .U., (2, 2), (0., 1.), .UNSPECIFIED.);
#126 = EDGE_CURVE ('', #120, #122, #125, .T.);
#127 = ORIENTED_EDGE ('', *, *, #126, .F.);
#128 = CARTESIAN_POINT ('', (-38., 1.25, -3.06161699786838E-16));
#129 = CARTESIAN_POINT ('', (-38., 1.24999999999999, 4.99999999999999));
#130 = CARTESIAN_POINT ('', (-38., -3.75, 2.49999999999999));
#131 = CARTESIAN_POINT ('', (-38., -3.74999999999999, -2.5));
#132 = CARTESIAN_POINT ('', (-38., 1.25000000000001, -4.99999999999999));
#133 = CARTESIAN_POINT ('', (-38., 1.25, -3.06161699786838E-16));
#134 = (
   BOUNDED_CURVE ()
   B_SPLINE_CURVE (5, (#128, #129, #130, #131, #132, #133), .UNSPECIFIED., .T., .U.)
   B_SPLINE_CURVE_WITH_KNOTS ((6, 6), (0., 1.), .UNSPECIFIED.)
   CURVE ()
   GEOMETRIC_REPRESENTATION_ITEM ()
   RATIONAL_B_SPLINE_CURVE ((5., 1., 1., 1., 1., 5.))
   REPRESENTATION_ITEM ('')
);
#135 = EDGE_CURVE ('', #120, #120, #134, .T.);
#136 = ORIENTED_EDGE ('', *, *, #135, .T.);
#137 = ORIENTED_EDGE ('', *, *, #126, .T.);
#138 = EDGE_LOOP ('', (#127, #136, #137));
#139 = FACE_OUTER_BOUND ('', #138, .F.);
#140 = CARTESIAN_POINT ('', (-38., 1.25, -3.06161699786838E-16));
#141 = CARTESIAN_POINT ('', (-38., 2.32682891837997E-15, -2.32682891837997E-15));
#142 = CARTESIAN_POINT ('', (-38., 1.24999999999999, 4.99999999999999));
#143 = CARTESIAN_POINT ('', (-38., 2.32682891837997E-15, -2.32682891837997E-15));
#144 = CARTESIAN_POINT ('', (-38., -3.75, 2.49999999999999));
#145 = CARTESIAN_POINT ('', (-38., 2.32682891837997E-15, -2.32682891837997E-15));
#146 = CARTESIAN_POINT ('', (-38., -3.74999999999999, -2.5));
#147 = CARTESIAN_POINT ('', (-38., 2.32682891837997E-15, -2.32682891837997E-15));
#148 = CARTESIAN_POINT ('', (-38., 1.25000000000001, -4.99999999999999));
#149 = CARTESIAN_POINT ('', (-38., 2.32682891837997E-15, -2.32682891837997E-15));
#150 = CARTESIAN_POINT ('', (-38., 1.25, -3.06161699786838E-16));
#151 = CARTESIAN_POINT ('', (-38., 2.32682891837997E-15, -2.32682891837997E-15));
#152 = (
   BOUNDED_SURFACE ()
   B_SPLINE_SURFACE (5, 1, ((#140, #141), (#142, #143), (#144, #145), (#146, #147), (#148, #149), (#150, #151)), .UNSPECIFIED., .T., .F., .U.)
   B_SPLINE_SURFACE_WITH_KNOTS ((6, 6), (2, 2), (0., 1.), (0., 1.), .UNSPECIFIED.)
   SURFACE ()
   GEOMETRIC_REPRESENTATION_ITEM ()
   RATIONAL_B_SPLINE_SURFACE (((5., 5.), (1., 1.), (1., 1.), (1., 1.), (1., 1.), (5., 5.)))
   REPRESENTATION_ITEM ('')
);
#153 = ADVANCED_FACE ('', (#139), #152, .F.);
#154 = CARTESIAN_POINT ('', (-37.75, 1.5, -3.67394039744205E-16));
#155 = CARTESIAN_POINT ('', (-37.8333333333333, 1.41666666666666, -3.46983259758415E-16));
#156 = CARTESIAN_POINT ('', (-37.9166666666667, 1.33333333333333, -3.26572479772626E-16));
#157 = CARTESIAN_POINT ('', (-38., 1.25, -3.06161699786838E-16));
#158 = B_SPLINE_CURVE_WITH_KNOTS ('', 3, (#154, #155, #156, #157), .UNSPECIFIED., .F., .U., (4, 4), (0., 1.), .UNSPECIFIED.);
#159 = EDGE_CURVE ('', #72, #120, #158, .T.);
#160 = ORIENTED_EDGE ('', *, *, #159, .F.);
#161 = ORIENTED_EDGE ('', *, *, #89, .T.);
#162 = ORIENTED_EDGE ('', *, *, #159, .T.);
#163 = ORIENTED_EDGE ('', *, *, #135, .F.);
#164 = EDGE_LOOP ('', (#160, #161, #162, #163));
#165 = FACE_OUTER_BOUND ('', #164, .F.);
#166 = CARTESIAN_POINT ('', (-37.75, 1.5, -3.67394039744205E-16));
#167 = CARTESIAN_POINT ('', (-37.8333333333333, 1.41666666666666, -3.46983259758415E-16));
#168 = CARTESIAN_POINT ('', (-37.9166666666667, 1.33333333333333, -3.26572479772626E-16));
#169 = CARTESIAN_POINT ('', (-38., 1.25, -3.06161699786838E-16));
#170 = CARTESIAN_POINT ('', (-37.75, 1.49999999999999, 5.99999999999999));
#171 = CARTESIAN_POINT ('', (-37.8333333333333, 1.41666666666665, 5.66666666666664));
#172 = CARTESIAN_POINT ('', (-37.9166666666667, 1.33333333333332, 5.3333333333333));
#173 = CARTESIAN_POINT ('', (-38., 1.24999999999999, 4.99999999999999));
#174 = CARTESIAN_POINT ('', (-37.75, -4.49999999999999, 2.99999999999999));
#175 = CARTESIAN_POINT ('', (-37.8333333333333, -4.24999999999998, 2.83333333333331));
#176 = CARTESIAN_POINT ('', (-37.9166666666667, -3.99999999999998, 2.66666666666664));
#177 = CARTESIAN_POINT ('', (-38., -3.75, 2.49999999999999));
#178 = CARTESIAN_POINT ('', (-37.75, -4.49999999999999, -3.));
#179 = CARTESIAN_POINT ('', (-37.8333333333333, -4.24999999999997, -2.83333333333333));
#180 = CARTESIAN_POINT ('', (-37.9166666666667, -3.99999999999997, -2.66666666666666));
#181 = CARTESIAN_POINT ('', (-38., -3.74999999999999, -2.5));
#182 = CARTESIAN_POINT ('', (-37.75, 1.50000000000001, -5.99999999999999));
#183 = CARTESIAN_POINT ('', (-37.8333333333333, 1.41666666666667, -5.66666666666664));
#184 = CARTESIAN_POINT ('', (-37.9166666666667, 1.33333333333334, -5.33333333333331));
#185 = CARTESIAN_POINT ('', (-38., 1.25000000000001, -4.99999999999999));
#186 = CARTESIAN_POINT ('', (-37.75, 1.5, -3.67394039744205E-16));
#187 = CARTESIAN_POINT ('', (-37.8333333333333, 1.41666666666666, -3.46983259758415E-16));
#188 = CARTESIAN_POINT ('', (-37.9166666666667, 1.33333333333333, -3.26572479772626E-16));
#189 = CARTESIAN_POINT ('', (-38., 1.25, -3.06161699786838E-16));
#190 = (
   BOUNDED_SURFACE ()
   B_SPLINE_SURFACE (5, 3, ((#166, #167, #168, #169), (#170, #171, #172, #173), (#174, #175, #176, #177), (#178, #179, #180, #181), (#182, #183, #184, #185), (#186, #187, #188, #189)), .UNSPECIFIED., .T., .F., .U.)
   B_SPLINE_SURFACE_WITH_KNOTS ((6, 6), (4, 4), (0., 1.), (0., 1.), .UNSPECIFIED.)
   SURFACE ()
   GEOMETRIC_REPRESENTATION_ITEM ()
   RATIONAL_B_SPLINE_SURFACE (((5., 5., 5., 5.), (1., 1., 1., 1.), (1., 1., 1., 1.), (1., 1., 1., 1.), (1., 1., 1., 1.), (5., 5., 5., 5.)))
   REPRESENTATION_ITEM ('')
);
#191 = ADVANCED_FACE ('', (#165), #190, .F.);
#192 = CLOSED_SHELL ('', (#70, #118, #153, #191));
#193 = MANIFOLD_SOLID_BREP ('', #192);
#194 = (
   LENGTH_UNIT ()
   NAMED_UNIT (*)
   SI_UNIT (.MILLI., .METRE.)
);
#195 = (
   NAMED_UNIT (*)
   SI_UNIT ($, .STERADIAN.)
   SOLID_ANGLE_UNIT ()
);
#196 = (
   NAMED_UNIT (*)
   SI_UNIT ($, .RADIAN.)
   PLANE_ANGLE_UNIT ()
);
#197 = UNCERTAINTY_MEASURE_WITH_UNIT (LENGTH_MEASURE(0.001), #194, 'DISTANCE_ACCURACY_VALUE', '');
#198 = (
   GEOMETRIC_REPRESENTATION_CONTEXT (3)
   GLOBAL_UNCERTAINTY_ASSIGNED_CONTEXT ((#197))
   GLOBAL_UNIT_ASSIGNED_CONTEXT ((#194, #195, #196))
   REPRESENTATION_CONTEXT ('', '3D')
);
#199 = SHAPE_REPRESENTATION ('', (), #198);
#200 = APPLICATION_CONTEXT ('configuration controlled 3D designs of mechanical parts and assemblies');
#201 = APPLICATION_PROTOCOL_DEFINITION ('International Standard', 'config_control_design', 1997, #200);
#202 = MECHANICAL_CONTEXT ('', #200, 'mechanical');
#203 = PRODUCT ('', '', '', (#202));
#204 = PERSON_AND_ORGANIZATION_ROLE ('design_owner');
#205 = PERSON ('', '', $, $, $, $);
#206 = ORGANIZATION ($, '', '');
#207 = PERSON_AND_ORGANIZATION (#205, #206);
#208 = CC_DESIGN_PERSON_AND_ORGANIZATION_ASSIGNMENT (#207, #204, (#203));
#209 = PRODUCT_RELATED_PRODUCT_CATEGORY ('detail', $, (#203));
#210 = PRODUCT_DEFINITION_FORMATION_WITH_SPECIFIED_SOURCE ('', '', #203, .NOT_KNOWN.);
#211 = APPROVAL_STATUS ('approved');
#212 = APPROVAL (#211, '');
#213 = CALENDAR_DATE (2020, 16, 4);
#214 = COORDINATED_UNIVERSAL_TIME_OFFSET (0, $, .AHEAD.);
#215 = LOCAL_TIME (11, 45, 47., #214);
#216 = DATE_AND_TIME (#213, #215);
#217 = APPROVAL_DATE_TIME (#216, #212);
#218 = APPROVAL_ROLE ('');
#219 = PERSON ('', '', $, $, $, $);
#220 = ORGANIZATION ($, '', '');
#221 = PERSON_AND_ORGANIZATION (#219, #220);
#222 = APPROVAL_PERSON_ORGANIZATION (#221, #212, #218);
#223 = CC_DESIGN_APPROVAL (#212, (#210));
#224 = PERSON_AND_ORGANIZATION_ROLE ('creator');
#225 = PERSON ('', '', $, $, $, $);
#226 = ORGANIZATION ($, '', '');
#227 = PERSON_AND_ORGANIZATION (#225, #226);
#228 = CC_DESIGN_PERSON_AND_ORGANIZATION_ASSIGNMENT (#227, #224, (#210));
#229 = PERSON_AND_ORGANIZATION_ROLE ('part_supplier');
#230 = PERSON ('', '', $, $, $, $);
#231 = ORGANIZATION ($, '', '');
#232 = PERSON_AND_ORGANIZATION (#230, #231);
#233 = CC_DESIGN_PERSON_AND_ORGANIZATION_ASSIGNMENT (#232, #229, (#210));
#234 = SECURITY_CLASSIFICATION_LEVEL ('unclassified');
#235 = SECURITY_CLASSIFICATION ('', '', #234);
#236 = APPROVAL_STATUS ('approved');
#237 = APPROVAL (#236, '');
#238 = CALENDAR_DATE (2020, 16, 4);
#239 = COORDINATED_UNIVERSAL_TIME_OFFSET (0, $, .AHEAD.);
#240 = LOCAL_TIME (11, 45, 47., #239);
#241 = DATE_AND_TIME (#238, #240);
#242 = APPROVAL_DATE_TIME (#241, #237);
#243 = APPROVAL_ROLE ('');
#244 = PERSON ('', '', $, $, $, $);
#245 = ORGANIZATION ($, '', '');
#246 = PERSON_AND_ORGANIZATION (#244, #245);
#247 = APPROVAL_PERSON_ORGANIZATION (#246, #237, #243);
#248 = CC_DESIGN_APPROVAL (#237, (#235));
#249 = DATE_TIME_ROLE ('classification_date');
#250 = CALENDAR_DATE (2020, 16, 4);
#251 = COORDINATED_UNIVERSAL_TIME_OFFSET (0, $, .AHEAD.);
#252 = LOCAL_TIME (11, 45, 47., #251);
#253 = DATE_AND_TIME (#250, #252);
#254 = CC_DESIGN_DATE_AND_TIME_ASSIGNMENT (#253, #249, (#235));
#255 = PERSON_AND_ORGANIZATION_ROLE ('classification_officer');
#256 = PERSON ('', '', $, $, $, $);
#257 = ORGANIZATION ($, '', '');
#258 = PERSON_AND_ORGANIZATION (#256, #257);
#259 = CC_DESIGN_PERSON_AND_ORGANIZATION_ASSIGNMENT (#258, #255, (#235));
#260 = CC_DESIGN_SECURITY_CLASSIFICATION (#235, (#210));
#261 = DESIGN_CONTEXT ('', #200, 'design');
#262 = PRODUCT_DEFINITION ('', '', #210, #261);
#263 = APPROVAL_STATUS ('approved');
#264 = APPROVAL (#263, '');
#265 = CALENDAR_DATE (2020, 16, 4);
#266 = COORDINATED_UNIVERSAL_TIME_OFFSET (0, $, .AHEAD.);
#267 = LOCAL_TIME (11, 45, 47., #266);
#268 = DATE_AND_TIME (#265, #267);
#269 = APPROVAL_DATE_TIME (#268, #264);
#270 = APPROVAL_ROLE ('');
#271 = PERSON ('', '', $, $, $, $);
#272 = ORGANIZATION ($, '', '');
#273 = PERSON_AND_ORGANIZATION (#271, #272);
#274 = APPROVAL_PERSON_ORGANIZATION (#273, #264, #270);
#275 = CC_DESIGN_APPROVAL (#264, (#262));
#276 = DATE_TIME_ROLE ('creation_date');
#277 = CALENDAR_DATE (2020, 16, 4);
#278 = COORDINATED_UNIVERSAL_TIME_OFFSET (0, $, .AHEAD.);
#279 = LOCAL_TIME (11, 45, 47., #278);
#280 = DATE_AND_TIME (#277, #279);
#281 = CC_DESIGN_DATE_AND_TIME_ASSIGNMENT (#280, #276, (#262));
#282 = PERSON_AND_ORGANIZATION_ROLE ('creator');
#283 = PERSON ('', '', $, $, $, $);
#284 = ORGANIZATION ($, '', '');
#285 = PERSON_AND_ORGANIZATION (#283, #284);
#286 = CC_DESIGN_PERSON_AND_ORGANIZATION_ASSIGNMENT (#285, #282, (#262));
#287 = PRODUCT_DEFINITION_SHAPE ('', '', #262);
#288 = SHAPE_DEFINITION_REPRESENTATION (#287, #199);
#289 = SHAPE_REPRESENTATION_RELATIONSHIP ('', '', #199, #290);
#290 = ADVANCED_BREP_SHAPE_REPRESENTATION ('', (#193), #198);
ENDSEC;
END-ISO-10303-21;
