ISO-10303-21;
HEADER;
FILE_DESCRIPTION ((), '1');
FILE_NAME ('C:\\Users\\kevin\\179 Range\\179 0400A.STP', '2020-04-16T11:39:14', ('Unknown'), ('mafordeurope'), 'OneCNC-XR7 Mill 3D Expert', 'OneCNC-XR7 Mill 3D Expert', '');
FILE_SCHEMA (('CONFIG_CONTROL_DESIGN'));
ENDSEC;

DATA;
#1 = CARTESIAN_POINT ('', (0., 0., 0.));
#2 = VERTEX_POINT ('', #1);
#3 = CARTESIAN_POINT ('', (-2., 2., -4.89858719658941E-16));
#4 = VERTEX_POINT ('', #3);
#5 = CARTESIAN_POINT ('', (0., 0., 0.));
#6 = CARTESIAN_POINT ('', (6.16297582203915E-33, 0.352040279901407, -8.62250003904393E-17));
#7 = CARTESIAN_POINT ('', (-0.151611235190757, 0.909204067734356, -2.22690770264527E-16));
#8 = CARTESIAN_POINT ('', (-0.68060013873563, 1.55989139959615, -3.82063201906582E-16));
#9 = CARTESIAN_POINT ('', (-1.29251613277775, 1.91894307924862, -4.70005499949558E-16));
#10 = CARTESIAN_POINT ('', (-1.78148924444055, 2., -4.89858719658941E-16));
#11 = CARTESIAN_POINT ('', (-2., 2., -4.89858719658941E-16));
#12 = B_SPLINE_CURVE_WITH_KNOTS ('', 3, (#5, #6, #7, #8, #9, #10, #11), .UNSPECIFIED., .F., .U., (4, 1, 1, 1, 4), (0., 0.33617370428258, 0.532939663384363, 0.791337598803809, 1.), .UNSPECIFIED.);
#13 = EDGE_CURVE ('', #2, #4, #12, .T.);
#14 = ORIENTED_EDGE ('', *, *, #13, .F.);
#15 = ORIENTED_EDGE ('', *, *, #13, .T.);
#16 = CARTESIAN_POINT ('', (-2., 2., -4.89858719658941E-16));
#17 = CARTESIAN_POINT ('', (-2., 2., 8.));
#18 = CARTESIAN_POINT ('', (-2., -6., 4.));
#19 = CARTESIAN_POINT ('', (-2., -6., -4.));
#20 = CARTESIAN_POINT ('', (-2., 2., -8.));
#21 = CARTESIAN_POINT ('', (-2., 2., -4.89858719658941E-16));
#22 = (
   BOUNDED_CURVE ()
   B_SPLINE_CURVE (5, (#16, #17, #18, #19, #20, #21), .UNSPECIFIED., .T., .U.)
   B_SPLINE_CURVE_WITH_KNOTS ((6, 6), (0., 1.), .UNSPECIFIED.)
   CURVE ()
   GEOMETRIC_REPRESENTATION_ITEM ()
   RATIONAL_B_SPLINE_CURVE ((5., 1., 1., 1., 1., 5.))
   REPRESENTATION_ITEM ('')
);
#23 = EDGE_CURVE ('', #4, #4, #22, .T.);
#24 = ORIENTED_EDGE ('', *, *, #23, .F.);
#25 = EDGE_LOOP ('', (#14, #15, #24));
#26 = FACE_OUTER_BOUND ('', #25, .F.);
#27 = CARTESIAN_POINT ('', (0., 0., 0.));
#28 = CARTESIAN_POINT ('', (6.16297582203915E-33, 0.352040279901407, -8.62250003904393E-17));
#29 = CARTESIAN_POINT ('', (-0.151611235190757, 0.909204067734356, -2.22690770264527E-16));
#30 = CARTESIAN_POINT ('', (-0.68060013873563, 1.55989139959615, -3.82063201906582E-16));
#31 = CARTESIAN_POINT ('', (-1.29251613277775, 1.91894307924862, -4.70005499949558E-16));
#32 = CARTESIAN_POINT ('', (-1.78148924444055, 2., -4.89858719658941E-16));
#33 = CARTESIAN_POINT ('', (-2., 2., -4.89858719658941E-16));
#34 = CARTESIAN_POINT ('', (0., 0., 0.));
#35 = CARTESIAN_POINT ('', (-8.62250003904393E-17, 0.352040279901408, 1.40816111960563));
#36 = CARTESIAN_POINT ('', (-0.151611235190758, 0.909204067734357, 3.63681627093743));
#37 = CARTESIAN_POINT ('', (-0.68060013873563, 1.55989139959615, 6.23956559838459));
#38 = CARTESIAN_POINT ('', (-1.29251613277775, 1.91894307924862, 7.67577231699449));
#39 = CARTESIAN_POINT ('', (-1.78148924444055, 2., 8.));
#40 = CARTESIAN_POINT ('', (-2., 2., 8.));
#41 = CARTESIAN_POINT ('', (0., 0., 0.));
#42 = CARTESIAN_POINT ('', (-1.29337500585659E-16, -1.05612083970422, 0.704080559802815));
#43 = CARTESIAN_POINT ('', (-0.151611235190758, -2.72761220320307, 1.81840813546871));
#44 = CARTESIAN_POINT ('', (-0.680600138735631, -4.67967419878844, 3.1197827991923));
#45 = CARTESIAN_POINT ('', (-1.29251613277775, -5.75682923774586, 3.83788615849724));
#46 = CARTESIAN_POINT ('', (-1.78148924444055, -6., 4.));
#47 = CARTESIAN_POINT ('', (-2., -6., 4.));
#48 = CARTESIAN_POINT ('', (0., 0., 0.));
#49 = CARTESIAN_POINT ('', (-4.31125001952197E-17, -1.05612083970422, -0.704080559802814));
#50 = CARTESIAN_POINT ('', (-0.151611235190758, -2.72761220320307, -1.81840813546871));
#51 = CARTESIAN_POINT ('', (-0.68060013873563, -4.67967419878845, -3.1197827991923));
#52 = CARTESIAN_POINT ('', (-1.29251613277775, -5.75682923774587, -3.83788615849724));
#53 = CARTESIAN_POINT ('', (-1.78148924444055, -6., -4.));
#54 = CARTESIAN_POINT ('', (-2., -6., -4.));
#55 = CARTESIAN_POINT ('', (0., 0., 0.));
#56 = CARTESIAN_POINT ('', (8.62250003904393E-17, 0.352040279901407, -1.40816111960563));
#57 = CARTESIAN_POINT ('', (-0.151611235190757, 0.909204067734356, -3.63681627093743));
#58 = CARTESIAN_POINT ('', (-0.68060013873563, 1.55989139959615, -6.23956559838459));
#59 = CARTESIAN_POINT ('', (-1.29251613277775, 1.91894307924862, -7.67577231699449));
#60 = CARTESIAN_POINT ('', (-1.78148924444055, 2., -8.));
#61 = CARTESIAN_POINT ('', (-2., 2., -8.));
#62 = CARTESIAN_POINT ('', (0., 0., 0.));
#63 = CARTESIAN_POINT ('', (6.16297582203915E-33, 0.352040279901407, -8.62250003904393E-17));
#64 = CARTESIAN_POINT ('', (-0.151611235190757, 0.909204067734356, -2.22690770264527E-16));
#65 = CARTESIAN_POINT ('', (-0.68060013873563, 1.55989139959615, -3.82063201906582E-16));
#66 = CARTESIAN_POINT ('', (-1.29251613277775, 1.91894307924862, -4.70005499949558E-16));
#67 = CARTESIAN_POINT ('', (-1.78148924444055, 2., -4.89858719658941E-16));
#68 = CARTESIAN_POINT ('', (-2., 2., -4.89858719658941E-16));
#69 = (
   BOUNDED_SURFACE ()
   B_SPLINE_SURFACE (5, 3, ((#27, #28, #29, #30, #31, #32, #33), (#34, #35, #36, #37, #38, #39, #40), (#41, #42, #43, #44, #45, #46, #47), (#48, #49, #50, #51, #52, #53, #54), (#55, #56, #57, #58, #59, #60, #61), (#62, #63, #64, #65, #66, #67, #68)), .UNSPECIFIED., .T., .F., .U.)
   B_SPLINE_SURFACE_WITH_KNOTS ((6, 6), (4, 1, 1, 1, 4), (0., 1.), (0., 0.33617370428258, 0.532939663384363, 0.791337598803809, 1.), .UNSPECIFIED.)
   SURFACE ()
   GEOMETRIC_REPRESENTATION_ITEM ()
   RATIONAL_B_SPLINE_SURFACE (((5., 5., 5., 5., 5., 5., 5.), (1., 1., 1., 1., 1., 1., 1.), (1., 1., 1., 1., 1., 1., 1.), (1., 1., 1., 1., 1., 1., 1.), (1., 1., 1., 1., 1., 1., 1.), (5., 5., 5., 5., 5., 5., 5.)))
   REPRESENTATION_ITEM ('')
);
#70 = ADVANCED_FACE ('', (#26), #69, .F.);
#71 = CARTESIAN_POINT ('', (-11., 2., -4.89858719658941E-16));
#72 = VERTEX_POINT ('', #71);
#73 = CARTESIAN_POINT ('', (-2., 2., -4.89858719658941E-16));
#74 = CARTESIAN_POINT ('', (-5., 2., -4.89858719658941E-16));
#75 = CARTESIAN_POINT ('', (-7.99999999999999, 2., -4.89858719658941E-16));
#76 = CARTESIAN_POINT ('', (-11., 2., -4.89858719658941E-16));
#77 = B_SPLINE_CURVE_WITH_KNOTS ('', 3, (#73, #74, #75, #76), .UNSPECIFIED., .F., .U., (4, 4), (0., 1.), .UNSPECIFIED.);
#78 = EDGE_CURVE ('', #4, #72, #77, .T.);
#79 = ORIENTED_EDGE ('', *, *, #78, .F.);
#80 = ORIENTED_EDGE ('', *, *, #23, .T.);
#81 = ORIENTED_EDGE ('', *, *, #78, .T.);
#82 = CARTESIAN_POINT ('', (-11., 2., -4.89858719658941E-16));
#83 = CARTESIAN_POINT ('', (-11., 2., 8.));
#84 = CARTESIAN_POINT ('', (-11., -6., 4.));
#85 = CARTESIAN_POINT ('', (-11., -6., -4.));
#86 = CARTESIAN_POINT ('', (-11., 2., -8.));
#87 = CARTESIAN_POINT ('', (-11., 2., -4.89858719658941E-16));
#88 = (
   BOUNDED_CURVE ()
   B_SPLINE_CURVE (5, (#82, #83, #84, #85, #86, #87), .UNSPECIFIED., .T., .U.)
   B_SPLINE_CURVE_WITH_KNOTS ((6, 6), (0., 1.), .UNSPECIFIED.)
   CURVE ()
   GEOMETRIC_REPRESENTATION_ITEM ()
   RATIONAL_B_SPLINE_CURVE ((5., 1., 1., 1., 1., 5.))
   REPRESENTATION_ITEM ('')
);
#89 = EDGE_CURVE ('', #72, #72, #88, .T.);
#90 = ORIENTED_EDGE ('', *, *, #89, .F.);
#91 = EDGE_LOOP ('', (#79, #80, #81, #90));
#92 = FACE_OUTER_BOUND ('', #91, .F.);
#93 = CARTESIAN_POINT ('', (-2., 2., -4.89858719658941E-16));
#94 = CARTESIAN_POINT ('', (-5., 2., -4.89858719658941E-16));
#95 = CARTESIAN_POINT ('', (-7.99999999999999, 2., -4.89858719658941E-16));
#96 = CARTESIAN_POINT ('', (-11., 2., -4.89858719658941E-16));
#97 = CARTESIAN_POINT ('', (-2., 2., 8.));
#98 = CARTESIAN_POINT ('', (-5., 2., 8.));
#99 = CARTESIAN_POINT ('', (-7.99999999999999, 2., 8.));
#100 = CARTESIAN_POINT ('', (-11., 2., 8.));
#101 = CARTESIAN_POINT ('', (-2., -6., 4.));
#102 = CARTESIAN_POINT ('', (-5., -6., 4.));
#103 = CARTESIAN_POINT ('', (-7.99999999999999, -6., 4.));
#104 = CARTESIAN_POINT ('', (-11., -6., 4.));
#105 = CARTESIAN_POINT ('', (-2., -6., -4.));
#106 = CARTESIAN_POINT ('', (-5., -6., -4.));
#107 = CARTESIAN_POINT ('', (-7.99999999999999, -6., -4.));
#108 = CARTESIAN_POINT ('', (-11., -6., -4.));
#109 = CARTESIAN_POINT ('', (-2., 2., -8.));
#110 = CARTESIAN_POINT ('', (-5., 2., -8.));
#111 = CARTESIAN_POINT ('', (-7.99999999999999, 2., -8.));
#112 = CARTESIAN_POINT ('', (-11., 2., -8.));
#113 = CARTESIAN_POINT ('', (-2., 2., -4.89858719658941E-16));
#114 = CARTESIAN_POINT ('', (-5., 2., -4.89858719658941E-16));
#115 = CARTESIAN_POINT ('', (-7.99999999999999, 2., -4.89858719658941E-16));
#116 = CARTESIAN_POINT ('', (-11., 2., -4.89858719658941E-16));
#117 = (
   BOUNDED_SURFACE ()
   B_SPLINE_SURFACE (5, 3, ((#93, #94, #95, #96), (#97, #98, #99, #100), (#101, #102, #103, #104), (#105, #106, #107, #108), (#109, #110, #111, #112), (#113, #114, #115, #116)), .UNSPECIFIED., .T., .F., .U.)
   B_SPLINE_SURFACE_WITH_KNOTS ((6, 6), (4, 4), (0., 1.), (0., 1.), .UNSPECIFIED.)
   SURFACE ()
   GEOMETRIC_REPRESENTATION_ITEM ()
   RATIONAL_B_SPLINE_SURFACE (((5., 5., 5., 5.), (1., 1., 1., 1.), (1., 1., 1., 1.), (1., 1., 1., 1.), (1., 1., 1., 1.), (5., 5., 5., 5.)))
   REPRESENTATION_ITEM ('')
);
#118 = ADVANCED_FACE ('', (#92), #117, .F.);
#119 = CARTESIAN_POINT ('', (-11., 3., -7.34788079488412E-16));
#120 = VERTEX_POINT ('', #119);
#121 = CARTESIAN_POINT ('', (-11., 2., -4.89858719658941E-16));
#122 = CARTESIAN_POINT ('', (-11., 2.33333333333333, -5.71501839602097E-16));
#123 = CARTESIAN_POINT ('', (-11., 2.66666666666667, -6.53144959545255E-16));
#124 = CARTESIAN_POINT ('', (-11., 3., -7.34788079488412E-16));
#125 = B_SPLINE_CURVE_WITH_KNOTS ('', 3, (#121, #122, #123, #124), .UNSPECIFIED., .F., .U., (4, 4), (0., 1.), .UNSPECIFIED.);
#126 = EDGE_CURVE ('', #72, #120, #125, .T.);
#127 = ORIENTED_EDGE ('', *, *, #126, .F.);
#128 = ORIENTED_EDGE ('', *, *, #89, .T.);
#129 = ORIENTED_EDGE ('', *, *, #126, .T.);
#130 = CARTESIAN_POINT ('', (-11., 3., -7.34788079488412E-16));
#131 = CARTESIAN_POINT ('', (-11., 3., 12.));
#132 = CARTESIAN_POINT ('', (-11., -9., 6.));
#133 = CARTESIAN_POINT ('', (-11., -9., -6.));
#134 = CARTESIAN_POINT ('', (-11., 3., -12.));
#135 = CARTESIAN_POINT ('', (-11., 3., -7.34788079488412E-16));
#136 = (
   BOUNDED_CURVE ()
   B_SPLINE_CURVE (5, (#130, #131, #132, #133, #134, #135), .UNSPECIFIED., .T., .U.)
   B_SPLINE_CURVE_WITH_KNOTS ((6, 6), (0., 1.), .UNSPECIFIED.)
   CURVE ()
   GEOMETRIC_REPRESENTATION_ITEM ()
   RATIONAL_B_SPLINE_CURVE ((5., 1., 1., 1., 1., 5.))
   REPRESENTATION_ITEM ('')
);
#137 = EDGE_CURVE ('', #120, #120, #136, .T.);
#138 = ORIENTED_EDGE ('', *, *, #137, .F.);
#139 = EDGE_LOOP ('', (#127, #128, #129, #138));
#140 = FACE_OUTER_BOUND ('', #139, .F.);
#141 = CARTESIAN_POINT ('', (-11., 2., -4.89858719658941E-16));
#142 = CARTESIAN_POINT ('', (-11., 2.33333333333333, -5.71501839602097E-16));
#143 = CARTESIAN_POINT ('', (-11., 2.66666666666667, -6.53144959545255E-16));
#144 = CARTESIAN_POINT ('', (-11., 3., -7.34788079488412E-16));
#145 = CARTESIAN_POINT ('', (-11., 2., 8.));
#146 = CARTESIAN_POINT ('', (-11., 2.33333333333333, 9.33333333333332));
#147 = CARTESIAN_POINT ('', (-11., 2.66666666666667, 10.6666666666667));
#148 = CARTESIAN_POINT ('', (-11., 3., 12.));
#149 = CARTESIAN_POINT ('', (-11., -6., 4.));
#150 = CARTESIAN_POINT ('', (-11., -6.99999999999999, 4.66666666666666));
#151 = CARTESIAN_POINT ('', (-11., -8.00000000000001, 5.33333333333334));
#152 = CARTESIAN_POINT ('', (-11., -9., 6.));
#153 = CARTESIAN_POINT ('', (-11., -6., -4.));
#154 = CARTESIAN_POINT ('', (-11., -6.99999999999999, -4.66666666666666));
#155 = CARTESIAN_POINT ('', (-11., -8.00000000000001, -5.33333333333334));
#156 = CARTESIAN_POINT ('', (-11., -9., -6.));
#157 = CARTESIAN_POINT ('', (-11., 2., -8.));
#158 = CARTESIAN_POINT ('', (-11., 2.33333333333333, -9.33333333333332));
#159 = CARTESIAN_POINT ('', (-11., 2.66666666666667, -10.6666666666667));
#160 = CARTESIAN_POINT ('', (-11., 3., -12.));
#161 = CARTESIAN_POINT ('', (-11., 2., -4.89858719658941E-16));
#162 = CARTESIAN_POINT ('', (-11., 2.33333333333333, -5.71501839602097E-16));
#163 = CARTESIAN_POINT ('', (-11., 2.66666666666667, -6.53144959545255E-16));
#164 = CARTESIAN_POINT ('', (-11., 3., -7.34788079488412E-16));
#165 = (
   BOUNDED_SURFACE ()
   B_SPLINE_SURFACE (5, 3, ((#141, #142, #143, #144), (#145, #146, #147, #148), (#149, #150, #151, #152), (#153, #154, #155, #156), (#157, #158, #159, #160), (#161, #162, #163, #164)), .UNSPECIFIED., .T., .F., .U.)
   B_SPLINE_SURFACE_WITH_KNOTS ((6, 6), (4, 4), (0., 1.), (0., 1.), .UNSPECIFIED.)
   SURFACE ()
   GEOMETRIC_REPRESENTATION_ITEM ()
   RATIONAL_B_SPLINE_SURFACE (((5., 5., 5., 5.), (1., 1., 1., 1.), (1., 1., 1., 1.), (1., 1., 1., 1.), (1., 1., 1., 1.), (5., 5., 5., 5.)))
   REPRESENTATION_ITEM ('')
);
#166 = ADVANCED_FACE ('', (#140), #165, .F.);
#167 = CARTESIAN_POINT ('', (-56.75, 3., -7.34788079488411E-16));
#168 = VERTEX_POINT ('', #167);
#169 = CARTESIAN_POINT ('', (-11., 3., -7.34788079488412E-16));
#170 = CARTESIAN_POINT ('', (-26.25, 3., -7.34788079488412E-16));
#171 = CARTESIAN_POINT ('', (-41.5, 3., -7.34788079488411E-16));
#172 = CARTESIAN_POINT ('', (-56.75, 3., -7.34788079488411E-16));
#173 = B_SPLINE_CURVE_WITH_KNOTS ('', 3, (#169, #170, #171, #172), .UNSPECIFIED., .F., .U., (4, 4), (0., 1.), .UNSPECIFIED.);
#174 = EDGE_CURVE ('', #120, #168, #173, .T.);
#175 = ORIENTED_EDGE ('', *, *, #174, .F.);
#176 = ORIENTED_EDGE ('', *, *, #137, .T.);
#177 = ORIENTED_EDGE ('', *, *, #174, .T.);
#178 = CARTESIAN_POINT ('', (-56.75, 3., -7.34788079488411E-16));
#179 = CARTESIAN_POINT ('', (-56.75, 2.99999999999999, 12.));
#180 = CARTESIAN_POINT ('', (-56.75, -8.99999999999999, 5.99999999999998));
#181 = CARTESIAN_POINT ('', (-56.75, -8.99999999999998, -6.));
#182 = CARTESIAN_POINT ('', (-56.75, 3.00000000000001, -12.));
#183 = CARTESIAN_POINT ('', (-56.75, 3., -7.34788079488411E-16));
#184 = (
   BOUNDED_CURVE ()
   B_SPLINE_CURVE (5, (#178, #179, #180, #181, #182, #183), .UNSPECIFIED., .T., .U.)
   B_SPLINE_CURVE_WITH_KNOTS ((6, 6), (0., 1.), .UNSPECIFIED.)
   CURVE ()
   GEOMETRIC_REPRESENTATION_ITEM ()
   RATIONAL_B_SPLINE_CURVE ((5., 1., 1., 1., 1., 5.))
   REPRESENTATION_ITEM ('')
);
#185 = EDGE_CURVE ('', #168, #168, #184, .T.);
#186 = ORIENTED_EDGE ('', *, *, #185, .F.);
#187 = EDGE_LOOP ('', (#175, #176, #177, #186));
#188 = FACE_OUTER_BOUND ('', #187, .F.);
#189 = CARTESIAN_POINT ('', (-11., 3., -7.34788079488412E-16));
#190 = CARTESIAN_POINT ('', (-26.25, 3., -7.34788079488412E-16));
#191 = CARTESIAN_POINT ('', (-41.5, 3., -7.34788079488411E-16));
#192 = CARTESIAN_POINT ('', (-56.75, 3., -7.34788079488411E-16));
#193 = CARTESIAN_POINT ('', (-11., 3., 12.));
#194 = CARTESIAN_POINT ('', (-26.25, 3., 12.));
#195 = CARTESIAN_POINT ('', (-41.5, 2.99999999999999, 12.));
#196 = CARTESIAN_POINT ('', (-56.75, 2.99999999999999, 12.));
#197 = CARTESIAN_POINT ('', (-11., -9., 6.));
#198 = CARTESIAN_POINT ('', (-26.25, -9., 5.99999999999999));
#199 = CARTESIAN_POINT ('', (-41.5, -8.99999999999999, 5.99999999999998));
#200 = CARTESIAN_POINT ('', (-56.75, -8.99999999999999, 5.99999999999998));
#201 = CARTESIAN_POINT ('', (-11., -9., -6.));
#202 = CARTESIAN_POINT ('', (-26.25, -8.99999999999999, -6.));
#203 = CARTESIAN_POINT ('', (-41.5, -8.99999999999998, -6.));
#204 = CARTESIAN_POINT ('', (-56.75, -8.99999999999998, -6.));
#205 = CARTESIAN_POINT ('', (-11., 3., -12.));
#206 = CARTESIAN_POINT ('', (-26.25, 3., -12.));
#207 = CARTESIAN_POINT ('', (-41.5, 3.00000000000001, -12.));
#208 = CARTESIAN_POINT ('', (-56.75, 3.00000000000001, -12.));
#209 = CARTESIAN_POINT ('', (-11., 3., -7.34788079488412E-16));
#210 = CARTESIAN_POINT ('', (-26.25, 3., -7.34788079488412E-16));
#211 = CARTESIAN_POINT ('', (-41.5, 3., -7.34788079488411E-16));
#212 = CARTESIAN_POINT ('', (-56.75, 3., -7.34788079488411E-16));
#213 = (
   BOUNDED_SURFACE ()
   B_SPLINE_SURFACE (5, 3, ((#189, #190, #191, #192), (#193, #194, #195, #196), (#197, #198, #199, #200), (#201, #202, #203, #204), (#205, #206, #207, #208), (#209, #210, #211, #212)), .UNSPECIFIED., .T., .F., .U.)
   B_SPLINE_SURFACE_WITH_KNOTS ((6, 6), (4, 4), (0., 1.), (0., 1.), .UNSPECIFIED.)
   SURFACE ()
   GEOMETRIC_REPRESENTATION_ITEM ()
   RATIONAL_B_SPLINE_SURFACE (((5., 5., 5., 5.), (1., 1., 1., 1.), (1., 1., 1., 1.), (1., 1., 1., 1.), (1., 1., 1., 1.), (5., 5., 5., 5.)))
   REPRESENTATION_ITEM ('')
);
#214 = ADVANCED_FACE ('', (#188), #213, .F.);
#215 = CARTESIAN_POINT ('', (-57., 2.75, -6.73555739531043E-16));
#216 = VERTEX_POINT ('', #215);
#217 = CARTESIAN_POINT ('', (-57., 3.49024337756996E-15, -3.49024337756996E-15));
#218 = VERTEX_POINT ('', #217);
#219 = CARTESIAN_POINT ('', (-57., 2.75, -6.73555739531043E-16));
#220 = CARTESIAN_POINT ('', (-57., 3.49024337756996E-15, -3.49024337756996E-15));
#221 = B_SPLINE_CURVE_WITH_KNOTS ('', 1, (#219, #220), .UNSPECIFIED., .F., .U., (2, 2), (0., 1.), .UNSPECIFIED.);
#222 = EDGE_CURVE ('', #216, #218, #221, .T.);
#223 = ORIENTED_EDGE ('', *, *, #222, .F.);
#224 = CARTESIAN_POINT ('', (-57., 2.75, -6.73555739531043E-16));
#225 = CARTESIAN_POINT ('', (-57., 2.74999999999999, 11.));
#226 = CARTESIAN_POINT ('', (-57., -8.24999999999999, 5.49999999999998));
#227 = CARTESIAN_POINT ('', (-57., -8.24999999999998, -5.50000000000001));
#228 = CARTESIAN_POINT ('', (-57., 2.75000000000001, -11.));
#229 = CARTESIAN_POINT ('', (-57., 2.75, -6.73555739531043E-16));
#230 = (
   BOUNDED_CURVE ()
   B_SPLINE_CURVE (5, (#224, #225, #226, #227, #228, #229), .UNSPECIFIED., .T., .U.)
   B_SPLINE_CURVE_WITH_KNOTS ((6, 6), (0., 1.), .UNSPECIFIED.)
   CURVE ()
   GEOMETRIC_REPRESENTATION_ITEM ()
   RATIONAL_B_SPLINE_CURVE ((5., 1., 1., 1., 1., 5.))
   REPRESENTATION_ITEM ('')
);
#231 = EDGE_CURVE ('', #216, #216, #230, .T.);
#232 = ORIENTED_EDGE ('', *, *, #231, .T.);
#233 = ORIENTED_EDGE ('', *, *, #222, .T.);
#234 = EDGE_LOOP ('', (#223, #232, #233));
#235 = FACE_OUTER_BOUND ('', #234, .F.);
#236 = CARTESIAN_POINT ('', (-57., 2.75, -6.73555739531043E-16));
#237 = CARTESIAN_POINT ('', (-57., 3.49024337756996E-15, -3.49024337756996E-15));
#238 = CARTESIAN_POINT ('', (-57., 2.74999999999999, 11.));
#239 = CARTESIAN_POINT ('', (-57., 3.49024337756996E-15, -3.49024337756996E-15));
#240 = CARTESIAN_POINT ('', (-57., -8.24999999999999, 5.49999999999998));
#241 = CARTESIAN_POINT ('', (-57., 3.49024337756996E-15, -3.49024337756996E-15));
#242 = CARTESIAN_POINT ('', (-57., -8.24999999999998, -5.50000000000001));
#243 = CARTESIAN_POINT ('', (-57., 3.49024337756996E-15, -3.49024337756996E-15));
#244 = CARTESIAN_POINT ('', (-57., 2.75000000000001, -11.));
#245 = CARTESIAN_POINT ('', (-57., 3.49024337756996E-15, -3.49024337756996E-15));
#246 = CARTESIAN_POINT ('', (-57., 2.75, -6.73555739531043E-16));
#247 = CARTESIAN_POINT ('', (-57., 3.49024337756996E-15, -3.49024337756996E-15));
#248 = (
   BOUNDED_SURFACE ()
   B_SPLINE_SURFACE (5, 1, ((#236, #237), (#238, #239), (#240, #241), (#242, #243), (#244, #245), (#246, #247)), .UNSPECIFIED., .T., .F., .U.)
   B_SPLINE_SURFACE_WITH_KNOTS ((6, 6), (2, 2), (0., 1.), (0., 1.), .UNSPECIFIED.)
   SURFACE ()
   GEOMETRIC_REPRESENTATION_ITEM ()
   RATIONAL_B_SPLINE_SURFACE (((5., 5.), (1., 1.), (1., 1.), (1., 1.), (1., 1.), (5., 5.)))
   REPRESENTATION_ITEM ('')
);
#249 = ADVANCED_FACE ('', (#235), #248, .F.);
#250 = CARTESIAN_POINT ('', (-56.75, 3., -7.34788079488411E-16));
#251 = CARTESIAN_POINT ('', (-56.8333333333332, 2.91666666666668, -7.14377299502624E-16));
#252 = CARTESIAN_POINT ('', (-56.9166666666667, 2.83333333333332, -6.9396651951683E-16));
#253 = CARTESIAN_POINT ('', (-57., 2.75, -6.73555739531043E-16));
#254 = B_SPLINE_CURVE_WITH_KNOTS ('', 3, (#250, #251, #252, #253), .UNSPECIFIED., .F., .U., (4, 4), (0., 1.), .UNSPECIFIED.);
#255 = EDGE_CURVE ('', #168, #216, #254, .T.);
#256 = ORIENTED_EDGE ('', *, *, #255, .F.);
#257 = ORIENTED_EDGE ('', *, *, #185, .T.);
#258 = ORIENTED_EDGE ('', *, *, #255, .T.);
#259 = ORIENTED_EDGE ('', *, *, #231, .F.);
#260 = EDGE_LOOP ('', (#256, #257, #258, #259));
#261 = FACE_OUTER_BOUND ('', #260, .F.);
#262 = CARTESIAN_POINT ('', (-56.75, 3., -7.34788079488411E-16));
#263 = CARTESIAN_POINT ('', (-56.8333333333332, 2.91666666666668, -7.14377299502624E-16));
#264 = CARTESIAN_POINT ('', (-56.9166666666667, 2.83333333333332, -6.9396651951683E-16));
#265 = CARTESIAN_POINT ('', (-57., 2.75, -6.73555739531043E-16));
#266 = CARTESIAN_POINT ('', (-56.75, 2.99999999999999, 12.));
#267 = CARTESIAN_POINT ('', (-56.8333333333332, 2.91666666666666, 11.6666666666667));
#268 = CARTESIAN_POINT ('', (-56.9166666666667, 2.83333333333331, 11.3333333333333));
#269 = CARTESIAN_POINT ('', (-57., 2.74999999999999, 11.));
#270 = CARTESIAN_POINT ('', (-56.75, -8.99999999999999, 5.99999999999998));
#271 = CARTESIAN_POINT ('', (-56.8333333333332, -8.75000000000002, 5.83333333333333));
#272 = CARTESIAN_POINT ('', (-56.9166666666667, -8.49999999999996, 5.66666666666662));
#273 = CARTESIAN_POINT ('', (-57., -8.24999999999999, 5.49999999999998));
#274 = CARTESIAN_POINT ('', (-56.75, -8.99999999999998, -6.));
#275 = CARTESIAN_POINT ('', (-56.8333333333332, -8.75000000000001, -5.83333333333336));
#276 = CARTESIAN_POINT ('', (-56.9166666666667, -8.49999999999994, -5.66666666666665));
#277 = CARTESIAN_POINT ('', (-57., -8.24999999999998, -5.50000000000001));
#278 = CARTESIAN_POINT ('', (-56.75, 3.00000000000001, -12.));
#279 = CARTESIAN_POINT ('', (-56.8333333333332, 2.91666666666669, -11.6666666666667));
#280 = CARTESIAN_POINT ('', (-56.9166666666667, 2.83333333333333, -11.3333333333333));
#281 = CARTESIAN_POINT ('', (-57., 2.75000000000001, -11.));
#282 = CARTESIAN_POINT ('', (-56.75, 3., -7.34788079488411E-16));
#283 = CARTESIAN_POINT ('', (-56.8333333333332, 2.91666666666668, -7.14377299502624E-16));
#284 = CARTESIAN_POINT ('', (-56.9166666666667, 2.83333333333332, -6.9396651951683E-16));
#285 = CARTESIAN_POINT ('', (-57., 2.75, -6.73555739531043E-16));
#286 = (
   BOUNDED_SURFACE ()
   B_SPLINE_SURFACE (5, 3, ((#262, #263, #264, #265), (#266, #267, #268, #269), (#270, #271, #272, #273), (#274, #275, #276, #277), (#278, #279, #280, #281), (#282, #283, #284, #285)), .UNSPECIFIED., .T., .F., .U.)
   B_SPLINE_SURFACE_WITH_KNOTS ((6, 6), (4, 4), (0., 1.), (0., 1.), .UNSPECIFIED.)
   SURFACE ()
   GEOMETRIC_REPRESENTATION_ITEM ()
   RATIONAL_B_SPLINE_SURFACE (((5., 5., 5., 5.), (1., 1., 1., 1.), (1., 1., 1., 1.), (1., 1., 1., 1.), (1., 1., 1., 1.), (5., 5., 5., 5.)))
   REPRESENTATION_ITEM ('')
);
#287 = ADVANCED_FACE ('', (#261), #286, .F.);
#288 = CLOSED_SHELL ('', (#70, #118, #166, #214, #249, #287));
#289 = MANIFOLD_SOLID_BREP ('', #288);
#290 = CARTESIAN_POINT ('', (-11., 2., 0.));
#291 = CARTESIAN_POINT ('', (-11., 3., 0.));
#292 = B_SPLINE_CURVE_WITH_KNOTS ('', 1, (#290, #291), .UNSPECIFIED., .F., .U., (2, 2), (0., 1.), .UNSPECIFIED.);
#293 = GEOMETRIC_SET ('', (#292, #296, #299, #302, #306));
#294 = CARTESIAN_POINT ('', (-11., 3., 0.));
#295 = CARTESIAN_POINT ('', (-56.75, 3., 0.));
#296 = B_SPLINE_CURVE_WITH_KNOTS ('', 1, (#294, #295), .UNSPECIFIED., .F., .U., (2, 2), (0., 1.), .UNSPECIFIED.);
#297 = CARTESIAN_POINT ('', (-56.75, 3., 0.));
#298 = CARTESIAN_POINT ('', (-57., 2.75, 0.));
#299 = B_SPLINE_CURVE_WITH_KNOTS ('', 1, (#297, #298), .UNSPECIFIED., .F., .U., (2, 2), (0., 1.), .UNSPECIFIED.);
#300 = CARTESIAN_POINT ('', (-2., 2., 0.));
#301 = CARTESIAN_POINT ('', (-11., 2., 0.));
#302 = B_SPLINE_CURVE_WITH_KNOTS ('', 1, (#300, #301), .UNSPECIFIED., .F., .U., (2, 2), (0., 1.), .UNSPECIFIED.);
#303 = CARTESIAN_POINT ('', (0., 0., 0.));
#304 = CARTESIAN_POINT ('', (0., 2., 0.));
#305 = CARTESIAN_POINT ('', (-2., 2., 0.));
#306 = (
   BOUNDED_CURVE ()
   B_SPLINE_CURVE (2, (#303, #304, #305), .UNSPECIFIED., .F., .U.)
   B_SPLINE_CURVE_WITH_KNOTS ((3, 3), (0., 1.), .UNSPECIFIED.)
   CURVE ()
   GEOMETRIC_REPRESENTATION_ITEM ()
   RATIONAL_B_SPLINE_CURVE ((1., 0.707106781186548, 1.))
   REPRESENTATION_ITEM ('')
);
#307 = (
   LENGTH_UNIT ()
   NAMED_UNIT (*)
   SI_UNIT (.MILLI., .METRE.)
);
#308 = (
   NAMED_UNIT (*)
   SI_UNIT ($, .STERADIAN.)
   SOLID_ANGLE_UNIT ()
);
#309 = (
   NAMED_UNIT (*)
   SI_UNIT ($, .RADIAN.)
   PLANE_ANGLE_UNIT ()
);
#310 = UNCERTAINTY_MEASURE_WITH_UNIT (LENGTH_MEASURE(0.001), #307, 'DISTANCE_ACCURACY_VALUE', '');
#311 = (
   GEOMETRIC_REPRESENTATION_CONTEXT (3)
   GLOBAL_UNCERTAINTY_ASSIGNED_CONTEXT ((#310))
   GLOBAL_UNIT_ASSIGNED_CONTEXT ((#307, #308, #309))
   REPRESENTATION_CONTEXT ('', '3D')
);
#312 = SHAPE_REPRESENTATION ('', (), #311);
#313 = APPLICATION_CONTEXT ('configuration controlled 3D designs of mechanical parts and assemblies');
#314 = APPLICATION_PROTOCOL_DEFINITION ('International Standard', 'config_control_design', 1997, #313);
#315 = MECHANICAL_CONTEXT ('', #313, 'mechanical');
#316 = PRODUCT ('', '', '', (#315));
#317 = PERSON_AND_ORGANIZATION_ROLE ('design_owner');
#318 = PERSON ('', '', $, $, $, $);
#319 = ORGANIZATION ($, '', '');
#320 = PERSON_AND_ORGANIZATION (#318, #319);
#321 = CC_DESIGN_PERSON_AND_ORGANIZATION_ASSIGNMENT (#320, #317, (#316));
#322 = PRODUCT_RELATED_PRODUCT_CATEGORY ('detail', $, (#316));
#323 = PRODUCT_DEFINITION_FORMATION_WITH_SPECIFIED_SOURCE ('', '', #316, .NOT_KNOWN.);
#324 = APPROVAL_STATUS ('approved');
#325 = APPROVAL (#324, '');
#326 = CALENDAR_DATE (2020, 16, 4);
#327 = COORDINATED_UNIVERSAL_TIME_OFFSET (0, $, .AHEAD.);
#328 = LOCAL_TIME (11, 39, 14., #327);
#329 = DATE_AND_TIME (#326, #328);
#330 = APPROVAL_DATE_TIME (#329, #325);
#331 = APPROVAL_ROLE ('');
#332 = PERSON ('', '', $, $, $, $);
#333 = ORGANIZATION ($, '', '');
#334 = PERSON_AND_ORGANIZATION (#332, #333);
#335 = APPROVAL_PERSON_ORGANIZATION (#334, #325, #331);
#336 = CC_DESIGN_APPROVAL (#325, (#323));
#337 = PERSON_AND_ORGANIZATION_ROLE ('creator');
#338 = PERSON ('', '', $, $, $, $);
#339 = ORGANIZATION ($, '', '');
#340 = PERSON_AND_ORGANIZATION (#338, #339);
#341 = CC_DESIGN_PERSON_AND_ORGANIZATION_ASSIGNMENT (#340, #337, (#323));
#342 = PERSON_AND_ORGANIZATION_ROLE ('part_supplier');
#343 = PERSON ('', '', $, $, $, $);
#344 = ORGANIZATION ($, '', '');
#345 = PERSON_AND_ORGANIZATION (#343, #344);
#346 = CC_DESIGN_PERSON_AND_ORGANIZATION_ASSIGNMENT (#345, #342, (#323));
#347 = SECURITY_CLASSIFICATION_LEVEL ('unclassified');
#348 = SECURITY_CLASSIFICATION ('', '', #347);
#349 = APPROVAL_STATUS ('approved');
#350 = APPROVAL (#349, '');
#351 = CALENDAR_DATE (2020, 16, 4);
#352 = COORDINATED_UNIVERSAL_TIME_OFFSET (0, $, .AHEAD.);
#353 = LOCAL_TIME (11, 39, 14., #352);
#354 = DATE_AND_TIME (#351, #353);
#355 = APPROVAL_DATE_TIME (#354, #350);
#356 = APPROVAL_ROLE ('');
#357 = PERSON ('', '', $, $, $, $);
#358 = ORGANIZATION ($, '', '');
#359 = PERSON_AND_ORGANIZATION (#357, #358);
#360 = APPROVAL_PERSON_ORGANIZATION (#359, #350, #356);
#361 = CC_DESIGN_APPROVAL (#350, (#348));
#362 = DATE_TIME_ROLE ('classification_date');
#363 = CALENDAR_DATE (2020, 16, 4);
#364 = COORDINATED_UNIVERSAL_TIME_OFFSET (0, $, .AHEAD.);
#365 = LOCAL_TIME (11, 39, 14., #364);
#366 = DATE_AND_TIME (#363, #365);
#367 = CC_DESIGN_DATE_AND_TIME_ASSIGNMENT (#366, #362, (#348));
#368 = PERSON_AND_ORGANIZATION_ROLE ('classification_officer');
#369 = PERSON ('', '', $, $, $, $);
#370 = ORGANIZATION ($, '', '');
#371 = PERSON_AND_ORGANIZATION (#369, #370);
#372 = CC_DESIGN_PERSON_AND_ORGANIZATION_ASSIGNMENT (#371, #368, (#348));
#373 = CC_DESIGN_SECURITY_CLASSIFICATION (#348, (#323));
#374 = DESIGN_CONTEXT ('', #313, 'design');
#375 = PRODUCT_DEFINITION ('', '', #323, #374);
#376 = APPROVAL_STATUS ('approved');
#377 = APPROVAL (#376, '');
#378 = CALENDAR_DATE (2020, 16, 4);
#379 = COORDINATED_UNIVERSAL_TIME_OFFSET (0, $, .AHEAD.);
#380 = LOCAL_TIME (11, 39, 14., #379);
#381 = DATE_AND_TIME (#378, #380);
#382 = APPROVAL_DATE_TIME (#381, #377);
#383 = APPROVAL_ROLE ('');
#384 = PERSON ('', '', $, $, $, $);
#385 = ORGANIZATION ($, '', '');
#386 = PERSON_AND_ORGANIZATION (#384, #385);
#387 = APPROVAL_PERSON_ORGANIZATION (#386, #377, #383);
#388 = CC_DESIGN_APPROVAL (#377, (#375));
#389 = DATE_TIME_ROLE ('creation_date');
#390 = CALENDAR_DATE (2020, 16, 4);
#391 = COORDINATED_UNIVERSAL_TIME_OFFSET (0, $, .AHEAD.);
#392 = LOCAL_TIME (11, 39, 14., #391);
#393 = DATE_AND_TIME (#390, #392);
#394 = CC_DESIGN_DATE_AND_TIME_ASSIGNMENT (#393, #389, (#375));
#395 = PERSON_AND_ORGANIZATION_ROLE ('creator');
#396 = PERSON ('', '', $, $, $, $);
#397 = ORGANIZATION ($, '', '');
#398 = PERSON_AND_ORGANIZATION (#396, #397);
#399 = CC_DESIGN_PERSON_AND_ORGANIZATION_ASSIGNMENT (#398, #395, (#375));
#400 = PRODUCT_DEFINITION_SHAPE ('', '', #375);
#401 = SHAPE_DEFINITION_REPRESENTATION (#400, #312);
#402 = SHAPE_REPRESENTATION_RELATIONSHIP ('', '', #312, #403);
#403 = SHAPE_REPRESENTATION ('', (#293), #311);
#404 = SHAPE_REPRESENTATION_RELATIONSHIP ('', '', #312, #405);
#405 = ADVANCED_BREP_SHAPE_REPRESENTATION ('', (#289), #311);
ENDSEC;
END-ISO-10303-21;
