ISO-10303-21;
HEADER;
FILE_DESCRIPTION ((), '1');
FILE_NAME ('C:\\OneCNC-XR7\\Mill 3D Expert\\Drawings\\180R\\180 0800-0_5RB.STP', '2020-04-20T08:59:30', ('Unknown'), ('Ma Ford Europe Ltd.'), 'OneCNC-XR7 Mill 3D Expert', 'OneCNC-XR7 Mill 3D Expert', '');
FILE_SCHEMA (('CONFIG_CONTROL_DESIGN'));
ENDSEC;

DATA;
#1 = CARTESIAN_POINT ('', (-2.14313189850787E-16, 1.31228980982913E-32, -1.31228980982913E-32));
#2 = VERTEX_POINT ('', #1);
#3 = CARTESIAN_POINT ('', (2.46519032881566E-32, 3.5, -8.57252759403147E-16));
#4 = VERTEX_POINT ('', #3);
#5 = CARTESIAN_POINT ('', (-2.14313189850787E-16, 1.31228980982913E-32, -1.31228980982913E-32));
#6 = CARTESIAN_POINT ('', (2.46519032881566E-32, 3.5, -8.57252759403147E-16));
#7 = B_SPLINE_CURVE_WITH_KNOTS ('', 1, (#5, #6), .UNSPECIFIED., .F., .U., (2, 2), (0., 1.), .UNSPECIFIED.);
#8 = EDGE_CURVE ('', #2, #4, #7, .T.);
#9 = ORIENTED_EDGE ('', *, *, #8, .F.);
#10 = ORIENTED_EDGE ('', *, *, #8, .T.);
#11 = CARTESIAN_POINT ('', (2.46519032881566E-32, 3.5, -8.57252759403147E-16));
#12 = CARTESIAN_POINT ('', (-8.57252759403147E-16, 3.5, 14.));
#13 = CARTESIAN_POINT ('', (-1.28587913910472E-15, -10.5, 7.));
#14 = CARTESIAN_POINT ('', (-4.28626379701574E-16, -10.5, -7.));
#15 = CARTESIAN_POINT ('', (8.57252759403147E-16, 3.5, -14.));
#16 = CARTESIAN_POINT ('', (2.46519032881566E-32, 3.5, -8.57252759403147E-16));
#17 = (
   BOUNDED_CURVE ()
   B_SPLINE_CURVE (5, (#11, #12, #13, #14, #15, #16), .UNSPECIFIED., .T., .U.)
   B_SPLINE_CURVE_WITH_KNOTS ((6, 6), (0., 1.), .UNSPECIFIED.)
   CURVE ()
   GEOMETRIC_REPRESENTATION_ITEM ()
   RATIONAL_B_SPLINE_CURVE ((5., 1., 1., 1., 1., 5.))
   REPRESENTATION_ITEM ('')
);
#18 = EDGE_CURVE ('', #4, #4, #17, .T.);
#19 = ORIENTED_EDGE ('', *, *, #18, .F.);
#20 = EDGE_LOOP ('', (#9, #10, #19));
#21 = FACE_OUTER_BOUND ('', #20, .F.);
#22 = CARTESIAN_POINT ('', (-2.14313189850787E-16, 1.31228980982913E-32, -1.31228980982913E-32));
#23 = CARTESIAN_POINT ('', (2.46519032881566E-32, 3.5, -8.57252759403147E-16));
#24 = CARTESIAN_POINT ('', (-2.14313189850787E-16, 1.31228980982913E-32, -1.31228980982913E-32));
#25 = CARTESIAN_POINT ('', (-8.57252759403147E-16, 3.5, 14.));
#26 = CARTESIAN_POINT ('', (-2.14313189850787E-16, 1.31228980982913E-32, -1.31228980982913E-32));
#27 = CARTESIAN_POINT ('', (-1.28587913910472E-15, -10.5, 7.));
#28 = CARTESIAN_POINT ('', (-2.14313189850787E-16, 1.31228980982913E-32, -1.31228980982913E-32));
#29 = CARTESIAN_POINT ('', (-4.28626379701574E-16, -10.5, -7.));
#30 = CARTESIAN_POINT ('', (-2.14313189850787E-16, 1.31228980982913E-32, -1.31228980982913E-32));
#31 = CARTESIAN_POINT ('', (8.57252759403147E-16, 3.5, -14.));
#32 = CARTESIAN_POINT ('', (-2.14313189850787E-16, 1.31228980982913E-32, -1.31228980982913E-32));
#33 = CARTESIAN_POINT ('', (2.46519032881566E-32, 3.5, -8.57252759403147E-16));
#34 = (
   BOUNDED_SURFACE ()
   B_SPLINE_SURFACE (5, 1, ((#22, #23), (#24, #25), (#26, #27), (#28, #29), (#30, #31), (#32, #33)), .UNSPECIFIED., .T., .F., .U.)
   B_SPLINE_SURFACE_WITH_KNOTS ((6, 6), (2, 2), (0., 1.), (0., 1.), .UNSPECIFIED.)
   SURFACE ()
   GEOMETRIC_REPRESENTATION_ITEM ()
   RATIONAL_B_SPLINE_SURFACE (((5., 5.), (1., 1.), (1., 1.), (1., 1.), (1., 1.), (5., 5.)))
   REPRESENTATION_ITEM ('')
);
#35 = ADVANCED_FACE ('', (#21), #34, .F.);
#36 = CARTESIAN_POINT ('', (-0.5, 4., -9.79717439317883E-16));
#37 = VERTEX_POINT ('', #36);
#38 = CARTESIAN_POINT ('', (2.46519032881566E-32, 3.5, -8.57252759403147E-16));
#39 = CARTESIAN_POINT ('', (4.93038065763132E-32, 3.62227611019123, -8.87201768794724E-16));
#40 = CARTESIAN_POINT ('', (-0.067133326624276, 3.79497859847258, -9.29501678690432E-16));
#41 = CARTESIAN_POINT ('', (-0.272698983066411, 3.96209719120231, -9.70433928623325E-16));
#42 = CARTESIAN_POINT ('', (-0.411989930024649, 4., -9.79717439317882E-16));
#43 = CARTESIAN_POINT ('', (-0.5, 4., -9.79717439317883E-16));
#44 = B_SPLINE_CURVE_WITH_KNOTS ('', 3, (#38, #39, #40, #41, #42, #43), .UNSPECIFIED., .F., .U., (4, 1, 1, 4), (0., 0.467060336615637, 0.66382629571742, 1.), .UNSPECIFIED.);
#45 = EDGE_CURVE ('', #4, #37, #44, .T.);
#46 = ORIENTED_EDGE ('', *, *, #45, .F.);
#47 = ORIENTED_EDGE ('', *, *, #18, .T.);
#48 = ORIENTED_EDGE ('', *, *, #45, .T.);
#49 = CARTESIAN_POINT ('', (-0.5, 4., -9.79717439317883E-16));
#50 = CARTESIAN_POINT ('', (-0.500000000000001, 4., 16.));
#51 = CARTESIAN_POINT ('', (-0.500000000000001, -12., 8.));
#52 = CARTESIAN_POINT ('', (-0.5, -12., -8.));
#53 = CARTESIAN_POINT ('', (-0.499999999999999, 4., -16.));
#54 = CARTESIAN_POINT ('', (-0.5, 4., -9.79717439317883E-16));
#55 = (
   BOUNDED_CURVE ()
   B_SPLINE_CURVE (5, (#49, #50, #51, #52, #53, #54), .UNSPECIFIED., .T., .U.)
   B_SPLINE_CURVE_WITH_KNOTS ((6, 6), (0., 1.), .UNSPECIFIED.)
   CURVE ()
   GEOMETRIC_REPRESENTATION_ITEM ()
   RATIONAL_B_SPLINE_CURVE ((5., 1., 1., 1., 1., 5.))
   REPRESENTATION_ITEM ('')
);
#56 = EDGE_CURVE ('', #37, #37, #55, .T.);
#57 = ORIENTED_EDGE ('', *, *, #56, .F.);
#58 = EDGE_LOOP ('', (#46, #47, #48, #57));
#59 = FACE_OUTER_BOUND ('', #58, .F.);
#60 = CARTESIAN_POINT ('', (2.46519032881566E-32, 3.5, -8.57252759403147E-16));
#61 = CARTESIAN_POINT ('', (4.93038065763132E-32, 3.62227611019123, -8.87201768794724E-16));
#62 = CARTESIAN_POINT ('', (-0.067133326624276, 3.79497859847258, -9.29501678690432E-16));
#63 = CARTESIAN_POINT ('', (-0.272698983066411, 3.96209719120231, -9.70433928623325E-16));
#64 = CARTESIAN_POINT ('', (-0.411989930024649, 4., -9.79717439317882E-16));
#65 = CARTESIAN_POINT ('', (-0.5, 4., -9.79717439317883E-16));
#66 = CARTESIAN_POINT ('', (-8.57252759403147E-16, 3.5, 14.));
#67 = CARTESIAN_POINT ('', (-8.87201768794723E-16, 3.62227611019124, 14.4891044407649));
#68 = CARTESIAN_POINT ('', (-0.0671333266242769, 3.79497859847259, 15.1799143938903));
#69 = CARTESIAN_POINT ('', (-0.272698983066412, 3.96209719120231, 15.8483887648092));
#70 = CARTESIAN_POINT ('', (-0.41198993002465, 4., 16.));
#71 = CARTESIAN_POINT ('', (-0.500000000000001, 4., 16.));
#72 = CARTESIAN_POINT ('', (-1.28587913910472E-15, -10.5, 7.));
#73 = CARTESIAN_POINT ('', (-1.33080265319209E-15, -10.8668283305737, 7.24455222038247));
#74 = CARTESIAN_POINT ('', (-0.0671333266242774, -11.3849357954178, 7.58995719694517));
#75 = CARTESIAN_POINT ('', (-0.272698983066412, -11.8862915736069, 7.92419438240462));
#76 = CARTESIAN_POINT ('', (-0.41198993002465, -12., 8.));
#77 = CARTESIAN_POINT ('', (-0.500000000000001, -12., 8.));
#78 = CARTESIAN_POINT ('', (-4.28626379701574E-16, -10.5, -7.));
#79 = CARTESIAN_POINT ('', (-4.43600884397362E-16, -10.8668283305737, -7.24455222038246));
#80 = CARTESIAN_POINT ('', (-0.0671333266242764, -11.3849357954178, -7.58995719694517));
#81 = CARTESIAN_POINT ('', (-0.272698983066411, -11.8862915736069, -7.92419438240462));
#82 = CARTESIAN_POINT ('', (-0.411989930024649, -12., -8.));
#83 = CARTESIAN_POINT ('', (-0.5, -12., -8.));
#84 = CARTESIAN_POINT ('', (8.57252759403147E-16, 3.5, -14.));
#85 = CARTESIAN_POINT ('', (8.87201768794723E-16, 3.62227611019123, -14.4891044407649));
#86 = CARTESIAN_POINT ('', (-0.067133326624275, 3.79497859847258, -15.1799143938903));
#87 = CARTESIAN_POINT ('', (-0.27269898306641, 3.96209719120231, -15.8483887648092));
#88 = CARTESIAN_POINT ('', (-0.411989930024648, 4., -16.));
#89 = CARTESIAN_POINT ('', (-0.499999999999999, 4., -16.));
#90 = CARTESIAN_POINT ('', (2.46519032881566E-32, 3.5, -8.57252759403147E-16));
#91 = CARTESIAN_POINT ('', (4.93038065763132E-32, 3.62227611019123, -8.87201768794724E-16));
#92 = CARTESIAN_POINT ('', (-0.067133326624276, 3.79497859847258, -9.29501678690432E-16));
#93 = CARTESIAN_POINT ('', (-0.272698983066411, 3.96209719120231, -9.70433928623325E-16));
#94 = CARTESIAN_POINT ('', (-0.411989930024649, 4., -9.79717439317882E-16));
#95 = CARTESIAN_POINT ('', (-0.5, 4., -9.79717439317883E-16));
#96 = (
   BOUNDED_SURFACE ()
   B_SPLINE_SURFACE (5, 3, ((#60, #61, #62, #63, #64, #65), (#66, #67, #68, #69, #70, #71), (#72, #73, #74, #75, #76, #77), (#78, #79, #80, #81, #82, #83), (#84, #85, #86, #87, #88, #89), (#90, #91, #92, #93, #94, #95)), .UNSPECIFIED., .T., .F., .U.)
   B_SPLINE_SURFACE_WITH_KNOTS ((6, 6), (4, 1, 1, 4), (0., 1.), (0., 0.467060336615637, 0.66382629571742, 1.), .UNSPECIFIED.)
   SURFACE ()
   GEOMETRIC_REPRESENTATION_ITEM ()
   RATIONAL_B_SPLINE_SURFACE (((5., 5., 5., 5., 5., 5.), (1., 1., 1., 1., 1., 1.), (1., 1., 1., 1., 1., 1.), (1., 1., 1., 1., 1., 1.), (1., 1., 1., 1., 1., 1.), (5., 5., 5., 5., 5., 5.)))
   REPRESENTATION_ITEM ('')
);
#97 = ADVANCED_FACE ('', (#59), #96, .F.);
#98 = CARTESIAN_POINT ('', (-62.75, 4., -9.79717439317882E-16));
#99 = VERTEX_POINT ('', #98);
#100 = CARTESIAN_POINT ('', (-0.5, 4., -9.79717439317883E-16));
#101 = CARTESIAN_POINT ('', (-21.25, 4., -9.79717439317882E-16));
#102 = CARTESIAN_POINT ('', (-42., 4., -9.79717439317883E-16));
#103 = CARTESIAN_POINT ('', (-62.75, 4., -9.79717439317882E-16));
#104 = B_SPLINE_CURVE_WITH_KNOTS ('', 3, (#100, #101, #102, #103), .UNSPECIFIED., .F., .U., (4, 4), (0., 1.), .UNSPECIFIED.);
#105 = EDGE_CURVE ('', #37, #99, #104, .T.);
#106 = ORIENTED_EDGE ('', *, *, #105, .F.);
#107 = ORIENTED_EDGE ('', *, *, #56, .T.);
#108 = ORIENTED_EDGE ('', *, *, #105, .T.);
#109 = CARTESIAN_POINT ('', (-62.75, 4., -9.79717439317882E-16));
#110 = CARTESIAN_POINT ('', (-62.75, 3.99999999999999, 16.));
#111 = CARTESIAN_POINT ('', (-62.75, -12., 7.99999999999999));
#112 = CARTESIAN_POINT ('', (-62.75, -12., -8.00000000000001));
#113 = CARTESIAN_POINT ('', (-62.75, 4.00000000000001, -16.));
#114 = CARTESIAN_POINT ('', (-62.75, 4., -9.79717439317882E-16));
#115 = (
   BOUNDED_CURVE ()
   B_SPLINE_CURVE (5, (#109, #110, #111, #112, #113, #114), .UNSPECIFIED., .T., .U.)
   B_SPLINE_CURVE_WITH_KNOTS ((6, 6), (0., 1.), .UNSPECIFIED.)
   CURVE ()
   GEOMETRIC_REPRESENTATION_ITEM ()
   RATIONAL_B_SPLINE_CURVE ((5., 1., 1., 1., 1., 5.))
   REPRESENTATION_ITEM ('')
);
#116 = EDGE_CURVE ('', #99, #99, #115, .T.);
#117 = ORIENTED_EDGE ('', *, *, #116, .F.);
#118 = EDGE_LOOP ('', (#106, #107, #108, #117));
#119 = FACE_OUTER_BOUND ('', #118, .F.);
#120 = CARTESIAN_POINT ('', (-0.5, 4., -9.79717439317883E-16));
#121 = CARTESIAN_POINT ('', (-21.25, 4., -9.79717439317882E-16));
#122 = CARTESIAN_POINT ('', (-42., 4., -9.79717439317883E-16));
#123 = CARTESIAN_POINT ('', (-62.75, 4., -9.79717439317882E-16));
#124 = CARTESIAN_POINT ('', (-0.500000000000001, 4., 16.));
#125 = CARTESIAN_POINT ('', (-21.25, 4., 16.));
#126 = CARTESIAN_POINT ('', (-42., 4., 16.));
#127 = CARTESIAN_POINT ('', (-62.75, 3.99999999999999, 16.));
#128 = CARTESIAN_POINT ('', (-0.500000000000001, -12., 8.));
#129 = CARTESIAN_POINT ('', (-21.25, -12., 8.));
#130 = CARTESIAN_POINT ('', (-42., -12., 7.99999999999999));
#131 = CARTESIAN_POINT ('', (-62.75, -12., 7.99999999999999));
#132 = CARTESIAN_POINT ('', (-0.5, -12., -8.));
#133 = CARTESIAN_POINT ('', (-21.25, -12., -8.));
#134 = CARTESIAN_POINT ('', (-42., -12., -8.00000000000001));
#135 = CARTESIAN_POINT ('', (-62.75, -12., -8.00000000000001));
#136 = CARTESIAN_POINT ('', (-0.499999999999999, 4., -16.));
#137 = CARTESIAN_POINT ('', (-21.25, 4., -16.));
#138 = CARTESIAN_POINT ('', (-42., 4.00000000000001, -16.));
#139 = CARTESIAN_POINT ('', (-62.75, 4.00000000000001, -16.));
#140 = CARTESIAN_POINT ('', (-0.5, 4., -9.79717439317883E-16));
#141 = CARTESIAN_POINT ('', (-21.25, 4., -9.79717439317882E-16));
#142 = CARTESIAN_POINT ('', (-42., 4., -9.79717439317883E-16));
#143 = CARTESIAN_POINT ('', (-62.75, 4., -9.79717439317882E-16));
#144 = (
   BOUNDED_SURFACE ()
   B_SPLINE_SURFACE (5, 3, ((#120, #121, #122, #123), (#124, #125, #126, #127), (#128, #129, #130, #131), (#132, #133, #134, #135), (#136, #137, #138, #139), (#140, #141, #142, #143)), .UNSPECIFIED., .T., .F., .U.)
   B_SPLINE_SURFACE_WITH_KNOTS ((6, 6), (4, 4), (0., 1.), (0., 1.), .UNSPECIFIED.)
   SURFACE ()
   GEOMETRIC_REPRESENTATION_ITEM ()
   RATIONAL_B_SPLINE_SURFACE (((5., 5., 5., 5.), (1., 1., 1., 1.), (1., 1., 1., 1.), (1., 1., 1., 1.), (1., 1., 1., 1.), (5., 5., 5., 5.)))
   REPRESENTATION_ITEM ('')
);
#145 = ADVANCED_FACE ('', (#119), #144, .F.);
#146 = CARTESIAN_POINT ('', (-63., 3.75, -9.18485099360514E-16));
#147 = VERTEX_POINT ('', #146);
#148 = CARTESIAN_POINT ('', (-63., 3.85763741731416E-15, -3.85763741731416E-15));
#149 = VERTEX_POINT ('', #148);
#150 = CARTESIAN_POINT ('', (-63., 3.75, -9.18485099360514E-16));
#151 = CARTESIAN_POINT ('', (-63., 3.99680288865056E-15, -3.85763741731416E-15));
#152 = B_SPLINE_CURVE_WITH_KNOTS ('', 1, (#150, #151), .UNSPECIFIED., .F., .U., (2, 2), (0., 1.), .UNSPECIFIED.);
#153 = EDGE_CURVE ('', #147, #149, #152, .T.);
#154 = ORIENTED_EDGE ('', *, *, #153, .F.);
#155 = CARTESIAN_POINT ('', (-63., 3.75, -9.18485099360514E-16));
#156 = CARTESIAN_POINT ('', (-63., 3.74999999999999, 15.));
#157 = CARTESIAN_POINT ('', (-63., -11.25, 7.49999999999999));
#158 = CARTESIAN_POINT ('', (-63., -11.25, -7.50000000000001));
#159 = CARTESIAN_POINT ('', (-63., 3.75000000000002, -15.));
#160 = CARTESIAN_POINT ('', (-63., 3.75, -9.18485099360514E-16));
#161 = (
   BOUNDED_CURVE ()
   B_SPLINE_CURVE (5, (#155, #156, #157, #158, #159, #160), .UNSPECIFIED., .T., .U.)
   B_SPLINE_CURVE_WITH_KNOTS ((6, 6), (0., 1.), .UNSPECIFIED.)
   CURVE ()
   GEOMETRIC_REPRESENTATION_ITEM ()
   RATIONAL_B_SPLINE_CURVE ((5., 1., 1., 1., 1., 5.))
   REPRESENTATION_ITEM ('')
);
#162 = EDGE_CURVE ('', #147, #147, #161, .T.);
#163 = ORIENTED_EDGE ('', *, *, #162, .T.);
#164 = ORIENTED_EDGE ('', *, *, #153, .T.);
#165 = EDGE_LOOP ('', (#154, #163, #164));
#166 = FACE_OUTER_BOUND ('', #165, .F.);
#167 = CARTESIAN_POINT ('', (-63., 3.75, -9.18485099360514E-16));
#168 = CARTESIAN_POINT ('', (-63., 3.85763741731416E-15, -3.85763741731416E-15));
#169 = CARTESIAN_POINT ('', (-63., 3.74999999999999, 15.));
#170 = CARTESIAN_POINT ('', (-63., 3.85763741731416E-15, -3.85763741731416E-15));
#171 = CARTESIAN_POINT ('', (-63., -11.25, 7.49999999999999));
#172 = CARTESIAN_POINT ('', (-63., 3.85763741731416E-15, -3.85763741731416E-15));
#173 = CARTESIAN_POINT ('', (-63., -11.25, -7.50000000000001));
#174 = CARTESIAN_POINT ('', (-63., 3.85763741731416E-15, -3.85763741731416E-15));
#175 = CARTESIAN_POINT ('', (-63., 3.75000000000002, -15.));
#176 = CARTESIAN_POINT ('', (-63., 3.85763741731416E-15, -3.85763741731416E-15));
#177 = CARTESIAN_POINT ('', (-63., 3.75, -9.18485099360514E-16));
#178 = CARTESIAN_POINT ('', (-63., 3.85763741731416E-15, -3.85763741731416E-15));
#179 = (
   BOUNDED_SURFACE ()
   B_SPLINE_SURFACE (5, 1, ((#167, #168), (#169, #170), (#171, #172), (#173, #174), (#175, #176), (#177, #178)), .UNSPECIFIED., .T., .F., .U.)
   B_SPLINE_SURFACE_WITH_KNOTS ((6, 6), (2, 2), (0., 1.), (0., 1.), .UNSPECIFIED.)
   SURFACE ()
   GEOMETRIC_REPRESENTATION_ITEM ()
   RATIONAL_B_SPLINE_SURFACE (((5., 5.), (1., 1.), (1., 1.), (1., 1.), (1., 1.), (5., 5.)))
   REPRESENTATION_ITEM ('')
);
#180 = ADVANCED_FACE ('', (#166), #179, .F.);
#181 = CARTESIAN_POINT ('', (-62.75, 4., -9.79717439317882E-16));
#182 = CARTESIAN_POINT ('', (-62.8333333333332, 3.91666666666667, -9.59306659332094E-16));
#183 = CARTESIAN_POINT ('', (-62.9166666666666, 3.83333333333332, -9.38895879346301E-16));
#184 = CARTESIAN_POINT ('', (-63., 3.75, -9.18485099360514E-16));
#185 = B_SPLINE_CURVE_WITH_KNOTS ('', 3, (#181, #182, #183, #184), .UNSPECIFIED., .F., .U., (4, 4), (0., 1.), .UNSPECIFIED.);
#186 = EDGE_CURVE ('', #99, #147, #185, .T.);
#187 = ORIENTED_EDGE ('', *, *, #186, .F.);
#188 = ORIENTED_EDGE ('', *, *, #116, .T.);
#189 = ORIENTED_EDGE ('', *, *, #186, .T.);
#190 = ORIENTED_EDGE ('', *, *, #162, .F.);
#191 = EDGE_LOOP ('', (#187, #188, #189, #190));
#192 = FACE_OUTER_BOUND ('', #191, .F.);
#193 = CARTESIAN_POINT ('', (-62.75, 4., -9.79717439317882E-16));
#194 = CARTESIAN_POINT ('', (-62.8333333333332, 3.91666666666667, -9.59306659332094E-16));
#195 = CARTESIAN_POINT ('', (-62.9166666666666, 3.83333333333332, -9.38895879346301E-16));
#196 = CARTESIAN_POINT ('', (-63., 3.75, -9.18485099360514E-16));
#197 = CARTESIAN_POINT ('', (-62.75, 3.99999999999999, 16.));
#198 = CARTESIAN_POINT ('', (-62.8333333333332, 3.91666666666666, 15.6666666666667));
#199 = CARTESIAN_POINT ('', (-62.9166666666666, 3.83333333333331, 15.3333333333333));
#200 = CARTESIAN_POINT ('', (-63., 3.74999999999999, 15.));
#201 = CARTESIAN_POINT ('', (-62.75, -12., 7.99999999999999));
#202 = CARTESIAN_POINT ('', (-62.8333333333332, -11.75, 7.83333333333332));
#203 = CARTESIAN_POINT ('', (-62.9166666666666, -11.5, 7.66666666666663));
#204 = CARTESIAN_POINT ('', (-63., -11.25, 7.49999999999999));
#205 = CARTESIAN_POINT ('', (-62.75, -12., -8.00000000000001));
#206 = CARTESIAN_POINT ('', (-62.8333333333332, -11.75, -7.83333333333335));
#207 = CARTESIAN_POINT ('', (-62.9166666666666, -11.4999999999999, -7.66666666666665));
#208 = CARTESIAN_POINT ('', (-63., -11.25, -7.50000000000001));
#209 = CARTESIAN_POINT ('', (-62.75, 4.00000000000001, -16.));
#210 = CARTESIAN_POINT ('', (-62.8333333333332, 3.91666666666668, -15.6666666666667));
#211 = CARTESIAN_POINT ('', (-62.9166666666666, 3.83333333333333, -15.3333333333333));
#212 = CARTESIAN_POINT ('', (-63., 3.75000000000002, -15.));
#213 = CARTESIAN_POINT ('', (-62.75, 4., -9.79717439317882E-16));
#214 = CARTESIAN_POINT ('', (-62.8333333333332, 3.91666666666667, -9.59306659332094E-16));
#215 = CARTESIAN_POINT ('', (-62.9166666666666, 3.83333333333332, -9.38895879346301E-16));
#216 = CARTESIAN_POINT ('', (-63., 3.75, -9.18485099360514E-16));
#217 = (
   BOUNDED_SURFACE ()
   B_SPLINE_SURFACE (5, 3, ((#193, #194, #195, #196), (#197, #198, #199, #200), (#201, #202, #203, #204), (#205, #206, #207, #208), (#209, #210, #211, #212), (#213, #214, #215, #216)), .UNSPECIFIED., .T., .F., .U.)
   B_SPLINE_SURFACE_WITH_KNOTS ((6, 6), (4, 4), (0., 1.), (0., 1.), .UNSPECIFIED.)
   SURFACE ()
   GEOMETRIC_REPRESENTATION_ITEM ()
   RATIONAL_B_SPLINE_SURFACE (((5., 5., 5., 5.), (1., 1., 1., 1.), (1., 1., 1., 1.), (1., 1., 1., 1.), (1., 1., 1., 1.), (5., 5., 5., 5.)))
   REPRESENTATION_ITEM ('')
);
#218 = ADVANCED_FACE ('', (#192), #217, .F.);
#219 = CLOSED_SHELL ('', (#35, #97, #145, #180, #218));
#220 = MANIFOLD_SOLID_BREP ('', #219);
#221 = (
   LENGTH_UNIT ()
   NAMED_UNIT (*)
   SI_UNIT (.MILLI., .METRE.)
);
#222 = (
   NAMED_UNIT (*)
   SI_UNIT ($, .STERADIAN.)
   SOLID_ANGLE_UNIT ()
);
#223 = (
   NAMED_UNIT (*)
   SI_UNIT ($, .RADIAN.)
   PLANE_ANGLE_UNIT ()
);
#224 = UNCERTAINTY_MEASURE_WITH_UNIT (LENGTH_MEASURE(0.001), #221, 'DISTANCE_ACCURACY_VALUE', '');
#225 = (
   GEOMETRIC_REPRESENTATION_CONTEXT (3)
   GLOBAL_UNCERTAINTY_ASSIGNED_CONTEXT ((#224))
   GLOBAL_UNIT_ASSIGNED_CONTEXT ((#221, #222, #223))
   REPRESENTATION_CONTEXT ('', '3D')
);
#226 = SHAPE_REPRESENTATION ('', (), #225);
#227 = APPLICATION_CONTEXT ('configuration controlled 3D designs of mechanical parts and assemblies');
#228 = APPLICATION_PROTOCOL_DEFINITION ('International Standard', 'config_control_design', 1997, #227);
#229 = MECHANICAL_CONTEXT ('', #227, 'mechanical');
#230 = PRODUCT ('', '', '', (#229));
#231 = PERSON_AND_ORGANIZATION_ROLE ('design_owner');
#232 = PERSON ('', '', $, $, $, $);
#233 = ORGANIZATION ($, '', '');
#234 = PERSON_AND_ORGANIZATION (#232, #233);
#235 = CC_DESIGN_PERSON_AND_ORGANIZATION_ASSIGNMENT (#234, #231, (#230));
#236 = PRODUCT_RELATED_PRODUCT_CATEGORY ('detail', $, (#230));
#237 = PRODUCT_DEFINITION_FORMATION_WITH_SPECIFIED_SOURCE ('', '', #230, .NOT_KNOWN.);
#238 = APPROVAL_STATUS ('approved');
#239 = APPROVAL (#238, '');
#240 = CALENDAR_DATE (2020, 20, 4);
#241 = COORDINATED_UNIVERSAL_TIME_OFFSET (0, $, .AHEAD.);
#242 = LOCAL_TIME (8, 59, 30., #241);
#243 = DATE_AND_TIME (#240, #242);
#244 = APPROVAL_DATE_TIME (#243, #239);
#245 = APPROVAL_ROLE ('');
#246 = PERSON ('', '', $, $, $, $);
#247 = ORGANIZATION ($, '', '');
#248 = PERSON_AND_ORGANIZATION (#246, #247);
#249 = APPROVAL_PERSON_ORGANIZATION (#248, #239, #245);
#250 = CC_DESIGN_APPROVAL (#239, (#237));
#251 = PERSON_AND_ORGANIZATION_ROLE ('creator');
#252 = PERSON ('', '', $, $, $, $);
#253 = ORGANIZATION ($, '', '');
#254 = PERSON_AND_ORGANIZATION (#252, #253);
#255 = CC_DESIGN_PERSON_AND_ORGANIZATION_ASSIGNMENT (#254, #251, (#237));
#256 = PERSON_AND_ORGANIZATION_ROLE ('part_supplier');
#257 = PERSON ('', '', $, $, $, $);
#258 = ORGANIZATION ($, '', '');
#259 = PERSON_AND_ORGANIZATION (#257, #258);
#260 = CC_DESIGN_PERSON_AND_ORGANIZATION_ASSIGNMENT (#259, #256, (#237));
#261 = SECURITY_CLASSIFICATION_LEVEL ('unclassified');
#262 = SECURITY_CLASSIFICATION ('', '', #261);
#263 = APPROVAL_STATUS ('approved');
#264 = APPROVAL (#263, '');
#265 = CALENDAR_DATE (2020, 20, 4);
#266 = COORDINATED_UNIVERSAL_TIME_OFFSET (0, $, .AHEAD.);
#267 = LOCAL_TIME (8, 59, 30., #266);
#268 = DATE_AND_TIME (#265, #267);
#269 = APPROVAL_DATE_TIME (#268, #264);
#270 = APPROVAL_ROLE ('');
#271 = PERSON ('', '', $, $, $, $);
#272 = ORGANIZATION ($, '', '');
#273 = PERSON_AND_ORGANIZATION (#271, #272);
#274 = APPROVAL_PERSON_ORGANIZATION (#273, #264, #270);
#275 = CC_DESIGN_APPROVAL (#264, (#262));
#276 = DATE_TIME_ROLE ('classification_date');
#277 = CALENDAR_DATE (2020, 20, 4);
#278 = COORDINATED_UNIVERSAL_TIME_OFFSET (0, $, .AHEAD.);
#279 = LOCAL_TIME (8, 59, 30., #278);
#280 = DATE_AND_TIME (#277, #279);
#281 = CC_DESIGN_DATE_AND_TIME_ASSIGNMENT (#280, #276, (#262));
#282 = PERSON_AND_ORGANIZATION_ROLE ('classification_officer');
#283 = PERSON ('', '', $, $, $, $);
#284 = ORGANIZATION ($, '', '');
#285 = PERSON_AND_ORGANIZATION (#283, #284);
#286 = CC_DESIGN_PERSON_AND_ORGANIZATION_ASSIGNMENT (#285, #282, (#262));
#287 = CC_DESIGN_SECURITY_CLASSIFICATION (#262, (#237));
#288 = DESIGN_CONTEXT ('', #227, 'design');
#289 = PRODUCT_DEFINITION ('', '', #237, #288);
#290 = APPROVAL_STATUS ('approved');
#291 = APPROVAL (#290, '');
#292 = CALENDAR_DATE (2020, 20, 4);
#293 = COORDINATED_UNIVERSAL_TIME_OFFSET (0, $, .AHEAD.);
#294 = LOCAL_TIME (8, 59, 30., #293);
#295 = DATE_AND_TIME (#292, #294);
#296 = APPROVAL_DATE_TIME (#295, #291);
#297 = APPROVAL_ROLE ('');
#298 = PERSON ('', '', $, $, $, $);
#299 = ORGANIZATION ($, '', '');
#300 = PERSON_AND_ORGANIZATION (#298, #299);
#301 = APPROVAL_PERSON_ORGANIZATION (#300, #291, #297);
#302 = CC_DESIGN_APPROVAL (#291, (#289));
#303 = DATE_TIME_ROLE ('creation_date');
#304 = CALENDAR_DATE (2020, 20, 4);
#305 = COORDINATED_UNIVERSAL_TIME_OFFSET (0, $, .AHEAD.);
#306 = LOCAL_TIME (8, 59, 30., #305);
#307 = DATE_AND_TIME (#304, #306);
#308 = CC_DESIGN_DATE_AND_TIME_ASSIGNMENT (#307, #303, (#289));
#309 = PERSON_AND_ORGANIZATION_ROLE ('creator');
#310 = PERSON ('', '', $, $, $, $);
#311 = ORGANIZATION ($, '', '');
#312 = PERSON_AND_ORGANIZATION (#310, #311);
#313 = CC_DESIGN_PERSON_AND_ORGANIZATION_ASSIGNMENT (#312, #309, (#289));
#314 = PRODUCT_DEFINITION_SHAPE ('', '', #289);
#315 = SHAPE_DEFINITION_REPRESENTATION (#314, #226);
#316 = SHAPE_REPRESENTATION_RELATIONSHIP ('', '', #226, #317);
#317 = ADVANCED_BREP_SHAPE_REPRESENTATION ('', (#220), #225);
ENDSEC;
END-ISO-10303-21;
