ISO-10303-21;
HEADER;
FILE_DESCRIPTION ((), '1');
FILE_NAME ('C:\\Users\\Nick\\Desktop\\TEAMS STP FILES\\180 1000B.STP', '2020-04-22T15:01:20', ('Unknown'), ('M.A.FORD Europe Ltd'), 'OneCNC-XR7 Mill 3D Expert', 'OneCNC-XR7 Mill 3D Expert', '');
FILE_SCHEMA (('CONFIG_CONTROL_DESIGN'));
ENDSEC;

DATA;
#1 = CARTESIAN_POINT ('', (-22., 5., -1.22464679914735E-15));
#2 = VERTEX_POINT ('', #1);
#3 = CARTESIAN_POINT ('', (9.86076131526265E-32, 5., -1.22464679914735E-15));
#4 = VERTEX_POINT ('', #3);
#5 = CARTESIAN_POINT ('', (-22., 5., -1.22464679914735E-15));
#6 = CARTESIAN_POINT ('', (-14.6666666666666, 5., -1.22464679914735E-15));
#7 = CARTESIAN_POINT ('', (-7.33333333333333, 5., -1.22464679914735E-15));
#8 = CARTESIAN_POINT ('', (9.86076131526265E-32, 5., -1.22464679914735E-15));
#9 = B_SPLINE_CURVE_WITH_KNOTS ('', 3, (#5, #6, #7, #8), .UNSPECIFIED., .F., .U., (4, 4), (0., 1.), .UNSPECIFIED.);
#10 = EDGE_CURVE ('', #2, #4, #9, .T.);
#11 = ORIENTED_EDGE ('', *, *, #10, .F.);
#12 = CARTESIAN_POINT ('', (-22., 5., -1.22464679914735E-15));
#13 = CARTESIAN_POINT ('', (-22., 5., 20.));
#14 = CARTESIAN_POINT ('', (-22., -15., 10.));
#15 = CARTESIAN_POINT ('', (-22., -15., -10.));
#16 = CARTESIAN_POINT ('', (-22., 5., -20.));
#17 = CARTESIAN_POINT ('', (-22., 5., -1.22464679914735E-15));
#18 = (
   BOUNDED_CURVE ()
   B_SPLINE_CURVE (5, (#12, #13, #14, #15, #16, #17), .UNSPECIFIED., .T., .U.)
   B_SPLINE_CURVE_WITH_KNOTS ((6, 6), (0., 1.), .UNSPECIFIED.)
   CURVE ()
   GEOMETRIC_REPRESENTATION_ITEM ()
   RATIONAL_B_SPLINE_CURVE ((5., 1., 1., 1., 1., 5.))
   REPRESENTATION_ITEM ('')
);
#19 = EDGE_CURVE ('', #2, #2, #18, .T.);
#20 = ORIENTED_EDGE ('', *, *, #19, .T.);
#21 = ORIENTED_EDGE ('', *, *, #10, .T.);
#22 = CARTESIAN_POINT ('', (9.86076131526265E-32, 5., -1.22464679914735E-15));
#23 = CARTESIAN_POINT ('', (-1.22464679914735E-15, 5.00000000000001, 20.));
#24 = CARTESIAN_POINT ('', (-1.83697019872103E-15, -15., 10.));
#25 = CARTESIAN_POINT ('', (-6.12323399573677E-16, -15., -10.));
#26 = CARTESIAN_POINT ('', (1.22464679914735E-15, 4.99999999999999, -20.));
#27 = CARTESIAN_POINT ('', (9.86076131526265E-32, 5., -1.22464679914735E-15));
#28 = (
   BOUNDED_CURVE ()
   B_SPLINE_CURVE (5, (#22, #23, #24, #25, #26, #27), .UNSPECIFIED., .T., .U.)
   B_SPLINE_CURVE_WITH_KNOTS ((6, 6), (0., 1.), .UNSPECIFIED.)
   CURVE ()
   GEOMETRIC_REPRESENTATION_ITEM ()
   RATIONAL_B_SPLINE_CURVE ((5., 1., 1., 1., 1., 5.))
   REPRESENTATION_ITEM ('')
);
#29 = EDGE_CURVE ('', #4, #4, #28, .T.);
#30 = ORIENTED_EDGE ('', *, *, #29, .F.);
#31 = EDGE_LOOP ('', (#11, #20, #21, #30));
#32 = FACE_OUTER_BOUND ('', #31, .T.);
#33 = CARTESIAN_POINT ('', (-22., 5., -1.22464679914735E-15));
#34 = CARTESIAN_POINT ('', (-14.6666666666666, 5., -1.22464679914735E-15));
#35 = CARTESIAN_POINT ('', (-7.33333333333333, 5., -1.22464679914735E-15));
#36 = CARTESIAN_POINT ('', (9.86076131526265E-32, 5., -1.22464679914735E-15));
#37 = CARTESIAN_POINT ('', (-22., 5., 20.));
#38 = CARTESIAN_POINT ('', (-14.6666666666666, 5., 20.));
#39 = CARTESIAN_POINT ('', (-7.33333333333333, 5., 20.));
#40 = CARTESIAN_POINT ('', (-1.22464679914735E-15, 5.00000000000001, 20.));
#41 = CARTESIAN_POINT ('', (-22., -15., 10.));
#42 = CARTESIAN_POINT ('', (-14.6666666666666, -15., 10.));
#43 = CARTESIAN_POINT ('', (-7.33333333333333, -15., 10.));
#44 = CARTESIAN_POINT ('', (-1.83697019872103E-15, -15., 10.));
#45 = CARTESIAN_POINT ('', (-22., -15., -10.));
#46 = CARTESIAN_POINT ('', (-14.6666666666666, -15., -10.));
#47 = CARTESIAN_POINT ('', (-7.33333333333333, -15., -10.));
#48 = CARTESIAN_POINT ('', (-6.12323399573677E-16, -15., -10.));
#49 = CARTESIAN_POINT ('', (-22., 5., -20.));
#50 = CARTESIAN_POINT ('', (-14.6666666666666, 5., -20.));
#51 = CARTESIAN_POINT ('', (-7.33333333333333, 5., -20.));
#52 = CARTESIAN_POINT ('', (1.22464679914735E-15, 4.99999999999999, -20.));
#53 = CARTESIAN_POINT ('', (-22., 5., -1.22464679914735E-15));
#54 = CARTESIAN_POINT ('', (-14.6666666666666, 5., -1.22464679914735E-15));
#55 = CARTESIAN_POINT ('', (-7.33333333333333, 5., -1.22464679914735E-15));
#56 = CARTESIAN_POINT ('', (9.86076131526265E-32, 5., -1.22464679914735E-15));
#57 = (
   BOUNDED_SURFACE ()
   B_SPLINE_SURFACE (5, 3, ((#33, #34, #35, #36), (#37, #38, #39, #40), (#41, #42, #43, #44), (#45, #46, #47, #48), (#49, #50, #51, #52), (#53, #54, #55, #56)), .UNSPECIFIED., .T., .F., .U.)
   B_SPLINE_SURFACE_WITH_KNOTS ((6, 6), (4, 4), (0., 1.), (0., 1.), .UNSPECIFIED.)
   SURFACE ()
   GEOMETRIC_REPRESENTATION_ITEM ()
   RATIONAL_B_SPLINE_SURFACE (((5., 5., 5., 5.), (1., 1., 1., 1.), (1., 1., 1., 1.), (1., 1., 1., 1.), (1., 1., 1., 1.), (5., 5., 5., 5.)))
   REPRESENTATION_ITEM ('')
);
#58 = ADVANCED_FACE ('', (#32), #57, .T.);
#59 = CARTESIAN_POINT ('', (-71.75, 5., -1.22464679914735E-15));
#60 = VERTEX_POINT ('', #59);
#61 = CARTESIAN_POINT ('', (-71.75, 5., -1.22464679914735E-15));
#62 = CARTESIAN_POINT ('', (-55.1666666666664, 5.00000000000001, -1.22464679914736E-15));
#63 = CARTESIAN_POINT ('', (-38.5833333333334, 5., -1.22464679914735E-15));
#64 = CARTESIAN_POINT ('', (-22., 5., -1.22464679914735E-15));
#65 = B_SPLINE_CURVE_WITH_KNOTS ('', 3, (#61, #62, #63, #64), .UNSPECIFIED., .F., .U., (4, 4), (0., 1.), .UNSPECIFIED.);
#66 = EDGE_CURVE ('', #60, #2, #65, .T.);
#67 = ORIENTED_EDGE ('', *, *, #66, .F.);
#68 = CARTESIAN_POINT ('', (-71.75, 5., -1.22464679914735E-15));
#69 = CARTESIAN_POINT ('', (-71.75, 4.99999999999999, 20.));
#70 = CARTESIAN_POINT ('', (-71.75, -15., 9.99999999999999));
#71 = CARTESIAN_POINT ('', (-71.75, -15., -10.));
#72 = CARTESIAN_POINT ('', (-71.75, 5.00000000000002, -20.));
#73 = CARTESIAN_POINT ('', (-71.75, 5., -1.22464679914735E-15));
#74 = (
   BOUNDED_CURVE ()
   B_SPLINE_CURVE (5, (#68, #69, #70, #71, #72, #73), .UNSPECIFIED., .T., .U.)
   B_SPLINE_CURVE_WITH_KNOTS ((6, 6), (0., 1.), .UNSPECIFIED.)
   CURVE ()
   GEOMETRIC_REPRESENTATION_ITEM ()
   RATIONAL_B_SPLINE_CURVE ((5., 1., 1., 1., 1., 5.))
   REPRESENTATION_ITEM ('')
);
#75 = EDGE_CURVE ('', #60, #60, #74, .T.);
#76 = ORIENTED_EDGE ('', *, *, #75, .T.);
#77 = ORIENTED_EDGE ('', *, *, #66, .T.);
#78 = ORIENTED_EDGE ('', *, *, #19, .F.);
#79 = EDGE_LOOP ('', (#67, #76, #77, #78));
#80 = FACE_OUTER_BOUND ('', #79, .T.);
#81 = CARTESIAN_POINT ('', (-71.75, 5., -1.22464679914735E-15));
#82 = CARTESIAN_POINT ('', (-55.1666666666664, 5.00000000000001, -1.22464679914736E-15));
#83 = CARTESIAN_POINT ('', (-38.5833333333334, 5., -1.22464679914735E-15));
#84 = CARTESIAN_POINT ('', (-22., 5., -1.22464679914735E-15));
#85 = CARTESIAN_POINT ('', (-71.75, 4.99999999999999, 20.));
#86 = CARTESIAN_POINT ('', (-55.1666666666664, 5., 20.));
#87 = CARTESIAN_POINT ('', (-38.5833333333334, 5., 20.));
#88 = CARTESIAN_POINT ('', (-22., 5., 20.));
#89 = CARTESIAN_POINT ('', (-71.75, -15., 9.99999999999999));
#90 = CARTESIAN_POINT ('', (-55.1666666666664, -15., 10.));
#91 = CARTESIAN_POINT ('', (-38.5833333333334, -15., 9.99999999999999));
#92 = CARTESIAN_POINT ('', (-22., -15., 10.));
#93 = CARTESIAN_POINT ('', (-71.75, -15., -10.));
#94 = CARTESIAN_POINT ('', (-55.1666666666664, -15., -10.));
#95 = CARTESIAN_POINT ('', (-38.5833333333334, -15., -10.));
#96 = CARTESIAN_POINT ('', (-22., -15., -10.));
#97 = CARTESIAN_POINT ('', (-71.75, 5.00000000000002, -20.));
#98 = CARTESIAN_POINT ('', (-55.1666666666664, 5.00000000000002, -20.));
#99 = CARTESIAN_POINT ('', (-38.5833333333334, 5.00000000000001, -20.));
#100 = CARTESIAN_POINT ('', (-22., 5., -20.));
#101 = CARTESIAN_POINT ('', (-71.75, 5., -1.22464679914735E-15));
#102 = CARTESIAN_POINT ('', (-55.1666666666664, 5.00000000000001, -1.22464679914736E-15));
#103 = CARTESIAN_POINT ('', (-38.5833333333334, 5., -1.22464679914735E-15));
#104 = CARTESIAN_POINT ('', (-22., 5., -1.22464679914735E-15));
#105 = (
   BOUNDED_SURFACE ()
   B_SPLINE_SURFACE (5, 3, ((#81, #82, #83, #84), (#85, #86, #87, #88), (#89, #90, #91, #92), (#93, #94, #95, #96), (#97, #98, #99, #100), (#101, #102, #103, #104)), .UNSPECIFIED., .T., .F., .U.)
   B_SPLINE_SURFACE_WITH_KNOTS ((6, 6), (4, 4), (0., 1.), (0., 1.), .UNSPECIFIED.)
   SURFACE ()
   GEOMETRIC_REPRESENTATION_ITEM ()
   RATIONAL_B_SPLINE_SURFACE (((5., 5., 5., 5.), (1., 1., 1., 1.), (1., 1., 1., 1.), (1., 1., 1., 1.), (1., 1., 1., 1.), (5., 5., 5., 5.)))
   REPRESENTATION_ITEM ('')
);
#106 = ADVANCED_FACE ('', (#80), #105, .T.);
#107 = CARTESIAN_POINT ('', (-72., 4.75, -1.16341445918999E-15));
#108 = VERTEX_POINT ('', #107);
#109 = CARTESIAN_POINT ('', (-72., 4.75, -1.16341445918999E-15));
#110 = CARTESIAN_POINT ('', (-71.9166666666662, 4.83333333333335, -1.18382523917578E-15));
#111 = CARTESIAN_POINT ('', (-71.8333333333333, 4.91666666666666, -1.20423601916156E-15));
#112 = CARTESIAN_POINT ('', (-71.75, 5., -1.22464679914735E-15));
#113 = B_SPLINE_CURVE_WITH_KNOTS ('', 3, (#109, #110, #111, #112), .UNSPECIFIED., .F., .U., (4, 4), (0., 1.), .UNSPECIFIED.);
#114 = EDGE_CURVE ('', #108, #60, #113, .T.);
#115 = ORIENTED_EDGE ('', *, *, #114, .F.);
#116 = CARTESIAN_POINT ('', (-72., 4.75, -1.16341445918999E-15));
#117 = CARTESIAN_POINT ('', (-72., 4.74999999999999, 19.));
#118 = CARTESIAN_POINT ('', (-72., -14.25, 9.49999999999999));
#119 = CARTESIAN_POINT ('', (-72., -14.25, -9.50000000000001));
#120 = CARTESIAN_POINT ('', (-72., 4.75000000000002, -19.));
#121 = CARTESIAN_POINT ('', (-72., 4.75, -1.16341445918999E-15));
#122 = (
   BOUNDED_CURVE ()
   B_SPLINE_CURVE (5, (#116, #117, #118, #119, #120, #121), .UNSPECIFIED., .T., .U.)
   B_SPLINE_CURVE_WITH_KNOTS ((6, 6), (0., 1.), .UNSPECIFIED.)
   CURVE ()
   GEOMETRIC_REPRESENTATION_ITEM ()
   RATIONAL_B_SPLINE_CURVE ((5., 1., 1., 1., 1., 5.))
   REPRESENTATION_ITEM ('')
);
#123 = EDGE_CURVE ('', #108, #108, #122, .T.);
#124 = ORIENTED_EDGE ('', *, *, #123, .T.);
#125 = ORIENTED_EDGE ('', *, *, #114, .T.);
#126 = ORIENTED_EDGE ('', *, *, #75, .F.);
#127 = EDGE_LOOP ('', (#115, #124, #125, #126));
#128 = FACE_OUTER_BOUND ('', #127, .T.);
#129 = CARTESIAN_POINT ('', (-72., 4.75, -1.16341445918999E-15));
#130 = CARTESIAN_POINT ('', (-71.9166666666662, 4.83333333333335, -1.18382523917578E-15));
#131 = CARTESIAN_POINT ('', (-71.8333333333333, 4.91666666666666, -1.20423601916156E-15));
#132 = CARTESIAN_POINT ('', (-71.75, 5., -1.22464679914735E-15));
#133 = CARTESIAN_POINT ('', (-72., 4.74999999999999, 19.));
#134 = CARTESIAN_POINT ('', (-71.9166666666662, 4.83333333333333, 19.3333333333334));
#135 = CARTESIAN_POINT ('', (-71.8333333333333, 4.91666666666665, 19.6666666666666));
#136 = CARTESIAN_POINT ('', (-71.75, 4.99999999999999, 20.));
#137 = CARTESIAN_POINT ('', (-72., -14.25, 9.49999999999999));
#138 = CARTESIAN_POINT ('', (-71.9166666666662, -14.5, 9.66666666666667));
#139 = CARTESIAN_POINT ('', (-71.8333333333333, -14.75, 9.83333333333331));
#140 = CARTESIAN_POINT ('', (-71.75, -15., 9.99999999999999));
#141 = CARTESIAN_POINT ('', (-72., -14.25, -9.50000000000001));
#142 = CARTESIAN_POINT ('', (-71.9166666666662, -14.5, -9.6666666666667));
#143 = CARTESIAN_POINT ('', (-71.8333333333333, -14.75, -9.83333333333333));
#144 = CARTESIAN_POINT ('', (-71.75, -15., -10.));
#145 = CARTESIAN_POINT ('', (-72., 4.75000000000002, -19.));
#146 = CARTESIAN_POINT ('', (-71.9166666666662, 4.83333333333336, -19.3333333333334));
#147 = CARTESIAN_POINT ('', (-71.8333333333333, 4.91666666666668, -19.6666666666666));
#148 = CARTESIAN_POINT ('', (-71.75, 5.00000000000002, -20.));
#149 = CARTESIAN_POINT ('', (-72., 4.75, -1.16341445918999E-15));
#150 = CARTESIAN_POINT ('', (-71.9166666666662, 4.83333333333335, -1.18382523917578E-15));
#151 = CARTESIAN_POINT ('', (-71.8333333333333, 4.91666666666666, -1.20423601916156E-15));
#152 = CARTESIAN_POINT ('', (-71.75, 5., -1.22464679914735E-15));
#153 = (
   BOUNDED_SURFACE ()
   B_SPLINE_SURFACE (5, 3, ((#129, #130, #131, #132), (#133, #134, #135, #136), (#137, #138, #139, #140), (#141, #142, #143, #144), (#145, #146, #147, #148), (#149, #150, #151, #152)), .UNSPECIFIED., .T., .F., .U.)
   B_SPLINE_SURFACE_WITH_KNOTS ((6, 6), (4, 4), (0., 1.), (0., 1.), .UNSPECIFIED.)
   SURFACE ()
   GEOMETRIC_REPRESENTATION_ITEM ()
   RATIONAL_B_SPLINE_SURFACE (((5., 5., 5., 5.), (1., 1., 1., 1.), (1., 1., 1., 1.), (1., 1., 1., 1.), (1., 1., 1., 1.), (5., 5., 5., 5.)))
   REPRESENTATION_ITEM ('')
);
#154 = ADVANCED_FACE ('', (#128), #153, .T.);
#155 = CARTESIAN_POINT ('', (-72., 4.40872847693047E-15, -4.40872847693047E-15));
#156 = VERTEX_POINT ('', #155);
#157 = CARTESIAN_POINT ('', (-72., 4.40872847693047E-15, -4.40872847693047E-15));
#158 = CARTESIAN_POINT ('', (-72., 4.75, -1.16341445918999E-15));
#159 = B_SPLINE_CURVE_WITH_KNOTS ('', 1, (#157, #158), .UNSPECIFIED., .F., .U., (2, 2), (0., 1.), .UNSPECIFIED.);
#160 = EDGE_CURVE ('', #156, #108, #159, .T.);
#161 = ORIENTED_EDGE ('', *, *, #160, .F.);
#162 = ORIENTED_EDGE ('', *, *, #160, .T.);
#163 = ORIENTED_EDGE ('', *, *, #123, .F.);
#164 = EDGE_LOOP ('', (#161, #162, #163));
#165 = FACE_OUTER_BOUND ('', #164, .T.);
#166 = CARTESIAN_POINT ('', (-72., 4.40872847693047E-15, -4.40872847693047E-15));
#167 = CARTESIAN_POINT ('', (-72., 4.75, -1.16341445918999E-15));
#168 = CARTESIAN_POINT ('', (-72., 4.40872847693047E-15, -4.40872847693047E-15));
#169 = CARTESIAN_POINT ('', (-72., 4.74999999999999, 19.));
#170 = CARTESIAN_POINT ('', (-72., 4.40872847693047E-15, -4.40872847693047E-15));
#171 = CARTESIAN_POINT ('', (-72., -14.25, 9.49999999999999));
#172 = CARTESIAN_POINT ('', (-72., 4.40872847693047E-15, -4.40872847693047E-15));
#173 = CARTESIAN_POINT ('', (-72., -14.25, -9.50000000000001));
#174 = CARTESIAN_POINT ('', (-72., 4.40872847693047E-15, -4.40872847693047E-15));
#175 = CARTESIAN_POINT ('', (-72., 4.75000000000002, -19.));
#176 = CARTESIAN_POINT ('', (-72., 4.40872847693047E-15, -4.40872847693047E-15));
#177 = CARTESIAN_POINT ('', (-72., 4.75, -1.16341445918999E-15));
#178 = (
   BOUNDED_SURFACE ()
   B_SPLINE_SURFACE (5, 1, ((#166, #167), (#168, #169), (#170, #171), (#172, #173), (#174, #175), (#176, #177)), .UNSPECIFIED., .T., .F., .U.)
   B_SPLINE_SURFACE_WITH_KNOTS ((6, 6), (2, 2), (0., 1.), (0., 1.), .UNSPECIFIED.)
   SURFACE ()
   GEOMETRIC_REPRESENTATION_ITEM ()
   RATIONAL_B_SPLINE_SURFACE (((5., 5.), (1., 1.), (1., 1.), (1., 1.), (1., 1.), (5., 5.)))
   REPRESENTATION_ITEM ('')
);
#179 = ADVANCED_FACE ('', (#165), #178, .T.);
#180 = CARTESIAN_POINT ('', (-3.06161699786838E-16, 1.87469972832732E-32, -1.87469972832732E-32));
#181 = VERTEX_POINT ('', #180);
#182 = CARTESIAN_POINT ('', (9.86076131526265E-32, 5., -1.22464679914735E-15));
#183 = CARTESIAN_POINT ('', (-3.06161699786838E-16, 1.87469972832732E-32, -1.87469972832732E-32));
#184 = B_SPLINE_CURVE_WITH_KNOTS ('', 1, (#182, #183), .UNSPECIFIED., .F., .U., (2, 2), (0., 1.), .UNSPECIFIED.);
#185 = EDGE_CURVE ('', #4, #181, #184, .T.);
#186 = ORIENTED_EDGE ('', *, *, #185, .F.);
#187 = ORIENTED_EDGE ('', *, *, #29, .T.);
#188 = ORIENTED_EDGE ('', *, *, #185, .T.);
#189 = EDGE_LOOP ('', (#186, #187, #188));
#190 = FACE_OUTER_BOUND ('', #189, .T.);
#191 = CARTESIAN_POINT ('', (9.86076131526265E-32, 5., -1.22464679914735E-15));
#192 = CARTESIAN_POINT ('', (-3.06161699786838E-16, 1.87469972832732E-32, -1.87469972832732E-32));
#193 = CARTESIAN_POINT ('', (-1.22464679914735E-15, 5.00000000000001, 20.));
#194 = CARTESIAN_POINT ('', (-3.06161699786838E-16, 1.87469972832732E-32, -1.87469972832732E-32));
#195 = CARTESIAN_POINT ('', (-1.83697019872103E-15, -15., 10.));
#196 = CARTESIAN_POINT ('', (-3.06161699786838E-16, 1.87469972832732E-32, -1.87469972832732E-32));
#197 = CARTESIAN_POINT ('', (-6.12323399573677E-16, -15., -10.));
#198 = CARTESIAN_POINT ('', (-3.06161699786838E-16, 1.87469972832732E-32, -1.87469972832732E-32));
#199 = CARTESIAN_POINT ('', (1.22464679914735E-15, 4.99999999999999, -20.));
#200 = CARTESIAN_POINT ('', (-3.06161699786838E-16, 1.87469972832732E-32, -1.87469972832732E-32));
#201 = CARTESIAN_POINT ('', (9.86076131526265E-32, 5., -1.22464679914735E-15));
#202 = CARTESIAN_POINT ('', (-3.06161699786838E-16, 1.87469972832732E-32, -1.87469972832732E-32));
#203 = (
   BOUNDED_SURFACE ()
   B_SPLINE_SURFACE (5, 1, ((#191, #192), (#193, #194), (#195, #196), (#197, #198), (#199, #200), (#201, #202)), .UNSPECIFIED., .T., .F., .U.)
   B_SPLINE_SURFACE_WITH_KNOTS ((6, 6), (2, 2), (0., 1.), (0., 1.), .UNSPECIFIED.)
   SURFACE ()
   GEOMETRIC_REPRESENTATION_ITEM ()
   RATIONAL_B_SPLINE_SURFACE (((5., 5.), (1., 1.), (1., 1.), (1., 1.), (1., 1.), (5., 5.)))
   REPRESENTATION_ITEM ('')
);
#204 = ADVANCED_FACE ('', (#190), #203, .T.);
#205 = CLOSED_SHELL ('', (#58, #106, #154, #179, #204));
#206 = MANIFOLD_SOLID_BREP ('', #205);
#207 = (
   LENGTH_UNIT ()
   NAMED_UNIT (*)
   SI_UNIT (.MILLI., .METRE.)
);
#208 = (
   NAMED_UNIT (*)
   SI_UNIT ($, .STERADIAN.)
   SOLID_ANGLE_UNIT ()
);
#209 = (
   NAMED_UNIT (*)
   SI_UNIT ($, .RADIAN.)
   PLANE_ANGLE_UNIT ()
);
#210 = UNCERTAINTY_MEASURE_WITH_UNIT (LENGTH_MEASURE(0.001), #207, 'DISTANCE_ACCURACY_VALUE', '');
#211 = (
   GEOMETRIC_REPRESENTATION_CONTEXT (3)
   GLOBAL_UNCERTAINTY_ASSIGNED_CONTEXT ((#210))
   GLOBAL_UNIT_ASSIGNED_CONTEXT ((#207, #208, #209))
   REPRESENTATION_CONTEXT ('', '3D')
);
#212 = SHAPE_REPRESENTATION ('', (), #211);
#213 = APPLICATION_CONTEXT ('configuration controlled 3D designs of mechanical parts and assemblies');
#214 = APPLICATION_PROTOCOL_DEFINITION ('International Standard', 'config_control_design', 1997, #213);
#215 = MECHANICAL_CONTEXT ('', #213, 'mechanical');
#216 = PRODUCT ('', '', '', (#215));
#217 = PERSON_AND_ORGANIZATION_ROLE ('design_owner');
#218 = PERSON ('', '', $, $, $, $);
#219 = ORGANIZATION ($, '', '');
#220 = PERSON_AND_ORGANIZATION (#218, #219);
#221 = CC_DESIGN_PERSON_AND_ORGANIZATION_ASSIGNMENT (#220, #217, (#216));
#222 = PRODUCT_RELATED_PRODUCT_CATEGORY ('detail', $, (#216));
#223 = PRODUCT_DEFINITION_FORMATION_WITH_SPECIFIED_SOURCE ('', '', #216, .NOT_KNOWN.);
#224 = APPROVAL_STATUS ('approved');
#225 = APPROVAL (#224, '');
#226 = CALENDAR_DATE (2020, 22, 4);
#227 = COORDINATED_UNIVERSAL_TIME_OFFSET (0, $, .AHEAD.);
#228 = LOCAL_TIME (15, 1, 20., #227);
#229 = DATE_AND_TIME (#226, #228);
#230 = APPROVAL_DATE_TIME (#229, #225);
#231 = APPROVAL_ROLE ('');
#232 = PERSON ('', '', $, $, $, $);
#233 = ORGANIZATION ($, '', '');
#234 = PERSON_AND_ORGANIZATION (#232, #233);
#235 = APPROVAL_PERSON_ORGANIZATION (#234, #225, #231);
#236 = CC_DESIGN_APPROVAL (#225, (#223));
#237 = PERSON_AND_ORGANIZATION_ROLE ('creator');
#238 = PERSON ('', '', $, $, $, $);
#239 = ORGANIZATION ($, '', '');
#240 = PERSON_AND_ORGANIZATION (#238, #239);
#241 = CC_DESIGN_PERSON_AND_ORGANIZATION_ASSIGNMENT (#240, #237, (#223));
#242 = PERSON_AND_ORGANIZATION_ROLE ('part_supplier');
#243 = PERSON ('', '', $, $, $, $);
#244 = ORGANIZATION ($, '', '');
#245 = PERSON_AND_ORGANIZATION (#243, #244);
#246 = CC_DESIGN_PERSON_AND_ORGANIZATION_ASSIGNMENT (#245, #242, (#223));
#247 = SECURITY_CLASSIFICATION_LEVEL ('unclassified');
#248 = SECURITY_CLASSIFICATION ('', '', #247);
#249 = APPROVAL_STATUS ('approved');
#250 = APPROVAL (#249, '');
#251 = CALENDAR_DATE (2020, 22, 4);
#252 = COORDINATED_UNIVERSAL_TIME_OFFSET (0, $, .AHEAD.);
#253 = LOCAL_TIME (15, 1, 20., #252);
#254 = DATE_AND_TIME (#251, #253);
#255 = APPROVAL_DATE_TIME (#254, #250);
#256 = APPROVAL_ROLE ('');
#257 = PERSON ('', '', $, $, $, $);
#258 = ORGANIZATION ($, '', '');
#259 = PERSON_AND_ORGANIZATION (#257, #258);
#260 = APPROVAL_PERSON_ORGANIZATION (#259, #250, #256);
#261 = CC_DESIGN_APPROVAL (#250, (#248));
#262 = DATE_TIME_ROLE ('classification_date');
#263 = CALENDAR_DATE (2020, 22, 4);
#264 = COORDINATED_UNIVERSAL_TIME_OFFSET (0, $, .AHEAD.);
#265 = LOCAL_TIME (15, 1, 20., #264);
#266 = DATE_AND_TIME (#263, #265);
#267 = CC_DESIGN_DATE_AND_TIME_ASSIGNMENT (#266, #262, (#248));
#268 = PERSON_AND_ORGANIZATION_ROLE ('classification_officer');
#269 = PERSON ('', '', $, $, $, $);
#270 = ORGANIZATION ($, '', '');
#271 = PERSON_AND_ORGANIZATION (#269, #270);
#272 = CC_DESIGN_PERSON_AND_ORGANIZATION_ASSIGNMENT (#271, #268, (#248));
#273 = CC_DESIGN_SECURITY_CLASSIFICATION (#248, (#223));
#274 = DESIGN_CONTEXT ('', #213, 'design');
#275 = PRODUCT_DEFINITION ('', '', #223, #274);
#276 = APPROVAL_STATUS ('approved');
#277 = APPROVAL (#276, '');
#278 = CALENDAR_DATE (2020, 22, 4);
#279 = COORDINATED_UNIVERSAL_TIME_OFFSET (0, $, .AHEAD.);
#280 = LOCAL_TIME (15, 1, 20., #279);
#281 = DATE_AND_TIME (#278, #280);
#282 = APPROVAL_DATE_TIME (#281, #277);
#283 = APPROVAL_ROLE ('');
#284 = PERSON ('', '', $, $, $, $);
#285 = ORGANIZATION ($, '', '');
#286 = PERSON_AND_ORGANIZATION (#284, #285);
#287 = APPROVAL_PERSON_ORGANIZATION (#286, #277, #283);
#288 = CC_DESIGN_APPROVAL (#277, (#275));
#289 = DATE_TIME_ROLE ('creation_date');
#290 = CALENDAR_DATE (2020, 22, 4);
#291 = COORDINATED_UNIVERSAL_TIME_OFFSET (0, $, .AHEAD.);
#292 = LOCAL_TIME (15, 1, 20., #291);
#293 = DATE_AND_TIME (#290, #292);
#294 = CC_DESIGN_DATE_AND_TIME_ASSIGNMENT (#293, #289, (#275));
#295 = PERSON_AND_ORGANIZATION_ROLE ('creator');
#296 = PERSON ('', '', $, $, $, $);
#297 = ORGANIZATION ($, '', '');
#298 = PERSON_AND_ORGANIZATION (#296, #297);
#299 = CC_DESIGN_PERSON_AND_ORGANIZATION_ASSIGNMENT (#298, #295, (#275));
#300 = PRODUCT_DEFINITION_SHAPE ('', '', #275);
#301 = SHAPE_DEFINITION_REPRESENTATION (#300, #212);
#302 = SHAPE_REPRESENTATION_RELATIONSHIP ('', '', #212, #303);
#303 = ADVANCED_BREP_SHAPE_REPRESENTATION ('', (#206), #211);
ENDSEC;
END-ISO-10303-21;
