ISO-10303-21;
HEADER;
FILE_DESCRIPTION ((), '1');
FILE_NAME ('C:\\OneCNC-XR7\\Mill 3D Expert\\Drawings\\180R\\180 1200-2_0RB.STP', '2020-04-22T13:16:57', ('Unknown'), ('Ma Ford Europe Ltd.'), 'OneCNC-XR7 Mill 3D Expert', 'OneCNC-XR7 Mill 3D Expert', '');
FILE_SCHEMA (('CONFIG_CONTROL_DESIGN'));
ENDSEC;

DATA;
#1 = CARTESIAN_POINT ('', (-2.44929359829471E-16, 1.49975978266186E-32, -1.49975978266186E-32));
#2 = VERTEX_POINT ('', #1);
#3 = CARTESIAN_POINT ('', (4.93038065763132E-32, 4., -9.79717439317883E-16));
#4 = VERTEX_POINT ('', #3);
#5 = CARTESIAN_POINT ('', (-2.44929359829471E-16, 1.49975978266186E-32, -1.49975978266186E-32));
#6 = CARTESIAN_POINT ('', (4.93038065763132E-32, 4., -9.79717439317883E-16));
#7 = B_SPLINE_CURVE_WITH_KNOTS ('', 1, (#5, #6), .UNSPECIFIED., .F., .U., (2, 2), (0., 1.), .UNSPECIFIED.);
#8 = EDGE_CURVE ('', #2, #4, #7, .T.);
#9 = ORIENTED_EDGE ('', *, *, #8, .F.);
#10 = ORIENTED_EDGE ('', *, *, #8, .T.);
#11 = CARTESIAN_POINT ('', (4.93038065763132E-32, 4., -9.79717439317883E-16));
#12 = CARTESIAN_POINT ('', (-9.79717439317882E-16, 4., 16.));
#13 = CARTESIAN_POINT ('', (-1.46957615897682E-15, -12., 8.));
#14 = CARTESIAN_POINT ('', (-4.89858719658942E-16, -12., -8.));
#15 = CARTESIAN_POINT ('', (9.79717439317882E-16, 4., -16.));
#16 = CARTESIAN_POINT ('', (4.93038065763132E-32, 4., -9.79717439317883E-16));
#17 = (
   BOUNDED_CURVE ()
   B_SPLINE_CURVE (5, (#11, #12, #13, #14, #15, #16), .UNSPECIFIED., .T., .U.)
   B_SPLINE_CURVE_WITH_KNOTS ((6, 6), (0., 1.), .UNSPECIFIED.)
   CURVE ()
   GEOMETRIC_REPRESENTATION_ITEM ()
   RATIONAL_B_SPLINE_CURVE ((5., 1., 1., 1., 1., 5.))
   REPRESENTATION_ITEM ('')
);
#18 = EDGE_CURVE ('', #4, #4, #17, .T.);
#19 = ORIENTED_EDGE ('', *, *, #18, .F.);
#20 = EDGE_LOOP ('', (#9, #10, #19));
#21 = FACE_OUTER_BOUND ('', #20, .F.);
#22 = CARTESIAN_POINT ('', (-2.44929359829471E-16, 1.49975978266186E-32, -1.49975978266186E-32));
#23 = CARTESIAN_POINT ('', (4.93038065763132E-32, 4., -9.79717439317883E-16));
#24 = CARTESIAN_POINT ('', (-2.44929359829471E-16, 1.49975978266186E-32, -1.49975978266186E-32));
#25 = CARTESIAN_POINT ('', (-9.79717439317882E-16, 4., 16.));
#26 = CARTESIAN_POINT ('', (-2.44929359829471E-16, 1.49975978266186E-32, -1.49975978266186E-32));
#27 = CARTESIAN_POINT ('', (-1.46957615897682E-15, -12., 8.));
#28 = CARTESIAN_POINT ('', (-2.44929359829471E-16, 1.49975978266186E-32, -1.49975978266186E-32));
#29 = CARTESIAN_POINT ('', (-4.89858719658942E-16, -12., -8.));
#30 = CARTESIAN_POINT ('', (-2.44929359829471E-16, 1.49975978266186E-32, -1.49975978266186E-32));
#31 = CARTESIAN_POINT ('', (9.79717439317882E-16, 4., -16.));
#32 = CARTESIAN_POINT ('', (-2.44929359829471E-16, 1.49975978266186E-32, -1.49975978266186E-32));
#33 = CARTESIAN_POINT ('', (4.93038065763132E-32, 4., -9.79717439317883E-16));
#34 = (
   BOUNDED_SURFACE ()
   B_SPLINE_SURFACE (5, 1, ((#22, #23), (#24, #25), (#26, #27), (#28, #29), (#30, #31), (#32, #33)), .UNSPECIFIED., .T., .F., .U.)
   B_SPLINE_SURFACE_WITH_KNOTS ((6, 6), (2, 2), (0., 1.), (0., 1.), .UNSPECIFIED.)
   SURFACE ()
   GEOMETRIC_REPRESENTATION_ITEM ()
   RATIONAL_B_SPLINE_SURFACE (((5., 5.), (1., 1.), (1., 1.), (1., 1.), (1., 1.), (5., 5.)))
   REPRESENTATION_ITEM ('')
);
#35 = ADVANCED_FACE ('', (#21), #34, .F.);
#36 = CARTESIAN_POINT ('', (-2., 6., -1.46957615897682E-15));
#37 = VERTEX_POINT ('', #36);
#38 = CARTESIAN_POINT ('', (4.93038065763132E-32, 4., -9.79717439317883E-16));
#39 = CARTESIAN_POINT ('', (4.93038065763132E-32, 4.21851075555945, -1.03323713879291E-15));
#40 = CARTESIAN_POINT ('', (-0.0810569207513764, 4.70748386722224, -1.1530010100063E-15));
#41 = CARTESIAN_POINT ('', (-0.440108600403853, 5.31939986126437, -1.30287720269646E-15));
#42 = CARTESIAN_POINT ('', (-1.09079593226565, 5.84838876480925, -1.4324421161986E-15));
#43 = CARTESIAN_POINT ('', (-1.64795972009859, 6., -1.46957615897682E-15));
#44 = CARTESIAN_POINT ('', (-2., 6., -1.46957615897682E-15));
#45 = B_SPLINE_CURVE_WITH_KNOTS ('', 3, (#38, #39, #40, #41, #42, #43, #44), .UNSPECIFIED., .F., .U., (4, 1, 1, 1, 4), (0., 0.208662401196191, 0.467060336615637, 0.66382629571742, 1.), .UNSPECIFIED.);
#46 = EDGE_CURVE ('', #4, #37, #45, .T.);
#47 = ORIENTED_EDGE ('', *, *, #46, .F.);
#48 = ORIENTED_EDGE ('', *, *, #18, .T.);
#49 = ORIENTED_EDGE ('', *, *, #46, .T.);
#50 = CARTESIAN_POINT ('', (-2., 6., -1.46957615897682E-15));
#51 = CARTESIAN_POINT ('', (-2., 6.00000000000001, 24.));
#52 = CARTESIAN_POINT ('', (-2., -18., 12.));
#53 = CARTESIAN_POINT ('', (-2., -18., -12.));
#54 = CARTESIAN_POINT ('', (-2., 5.99999999999999, -24.));
#55 = CARTESIAN_POINT ('', (-2., 6., -1.46957615897682E-15));
#56 = (
   BOUNDED_CURVE ()
   B_SPLINE_CURVE (5, (#50, #51, #52, #53, #54, #55), .UNSPECIFIED., .T., .U.)
   B_SPLINE_CURVE_WITH_KNOTS ((6, 6), (0., 1.), .UNSPECIFIED.)
   CURVE ()
   GEOMETRIC_REPRESENTATION_ITEM ()
   RATIONAL_B_SPLINE_CURVE ((5., 1., 1., 1., 1., 5.))
   REPRESENTATION_ITEM ('')
);
#57 = EDGE_CURVE ('', #37, #37, #56, .T.);
#58 = ORIENTED_EDGE ('', *, *, #57, .F.);
#59 = EDGE_LOOP ('', (#47, #48, #49, #58));
#60 = FACE_OUTER_BOUND ('', #59, .F.);
#61 = CARTESIAN_POINT ('', (4.93038065763132E-32, 4., -9.79717439317883E-16));
#62 = CARTESIAN_POINT ('', (4.93038065763132E-32, 4.21851075555945, -1.03323713879291E-15));
#63 = CARTESIAN_POINT ('', (-0.0810569207513764, 4.70748386722224, -1.1530010100063E-15));
#64 = CARTESIAN_POINT ('', (-0.440108600403853, 5.31939986126437, -1.30287720269646E-15));
#65 = CARTESIAN_POINT ('', (-1.09079593226565, 5.84838876480925, -1.4324421161986E-15));
#66 = CARTESIAN_POINT ('', (-1.64795972009859, 6., -1.46957615897682E-15));
#67 = CARTESIAN_POINT ('', (-2., 6., -1.46957615897682E-15));
#68 = CARTESIAN_POINT ('', (-9.79717439317882E-16, 4., 16.));
#69 = CARTESIAN_POINT ('', (-1.03323713879291E-15, 4.21851075555945, 16.8740430222378));
#70 = CARTESIAN_POINT ('', (-0.0810569207513775, 4.70748386722224, 18.8299354688889));
#71 = CARTESIAN_POINT ('', (-0.440108600403854, 5.31939986126437, 21.2775994450575));
#72 = CARTESIAN_POINT ('', (-1.09079593226565, 5.84838876480926, 23.393555059237));
#73 = CARTESIAN_POINT ('', (-1.6479597200986, 6.00000000000001, 24.));
#74 = CARTESIAN_POINT ('', (-2., 6.00000000000001, 24.));
#75 = CARTESIAN_POINT ('', (-1.46957615897682E-15, -12., 8.));
#76 = CARTESIAN_POINT ('', (-1.54985570818937E-15, -12.6555322666783, 8.4370215111189));
#77 = CARTESIAN_POINT ('', (-0.0810569207513781, -14.1224516016667, 9.41496773444447));
#78 = CARTESIAN_POINT ('', (-0.440108600403855, -15.9581995837931, 10.6387997225287));
#79 = CARTESIAN_POINT ('', (-1.09079593226565, -17.5451662944277, 11.6967775296185));
#80 = CARTESIAN_POINT ('', (-1.6479597200986, -18., 12.));
#81 = CARTESIAN_POINT ('', (-2., -18., 12.));
#82 = CARTESIAN_POINT ('', (-4.89858719658942E-16, -12., -8.));
#83 = CARTESIAN_POINT ('', (-5.16618569396456E-16, -12.6555322666783, -8.43702151111889));
#84 = CARTESIAN_POINT ('', (-0.081056920751377, -14.1224516016667, -9.41496773444447));
#85 = CARTESIAN_POINT ('', (-0.440108600403853, -15.9581995837931, -10.6387997225287));
#86 = CARTESIAN_POINT ('', (-1.09079593226565, -17.5451662944278, -11.6967775296185));
#87 = CARTESIAN_POINT ('', (-1.6479597200986, -18., -12.));
#88 = CARTESIAN_POINT ('', (-2., -18., -12.));
#89 = CARTESIAN_POINT ('', (9.79717439317882E-16, 4., -16.));
#90 = CARTESIAN_POINT ('', (1.03323713879291E-15, 4.21851075555944, -16.8740430222378));
#91 = CARTESIAN_POINT ('', (-0.0810569207513752, 4.70748386722223, -18.8299354688889));
#92 = CARTESIAN_POINT ('', (-0.440108600403851, 5.31939986126436, -21.2775994450575));
#93 = CARTESIAN_POINT ('', (-1.09079593226565, 5.84838876480925, -23.393555059237));
#94 = CARTESIAN_POINT ('', (-1.64795972009859, 5.99999999999999, -24.));
#95 = CARTESIAN_POINT ('', (-2., 5.99999999999999, -24.));
#96 = CARTESIAN_POINT ('', (4.93038065763132E-32, 4., -9.79717439317883E-16));
#97 = CARTESIAN_POINT ('', (4.93038065763132E-32, 4.21851075555945, -1.03323713879291E-15));
#98 = CARTESIAN_POINT ('', (-0.0810569207513764, 4.70748386722224, -1.1530010100063E-15));
#99 = CARTESIAN_POINT ('', (-0.440108600403853, 5.31939986126437, -1.30287720269646E-15));
#100 = CARTESIAN_POINT ('', (-1.09079593226565, 5.84838876480925, -1.4324421161986E-15));
#101 = CARTESIAN_POINT ('', (-1.64795972009859, 6., -1.46957615897682E-15));
#102 = CARTESIAN_POINT ('', (-2., 6., -1.46957615897682E-15));
#103 = (
   BOUNDED_SURFACE ()
   B_SPLINE_SURFACE (5, 3, ((#61, #62, #63, #64, #65, #66, #67), (#68, #69, #70, #71, #72, #73, #74), (#75, #76, #77, #78, #79, #80, #81), (#82, #83, #84, #85, #86, #87, #88), (#89, #90, #91, #92, #93, #94, #95), (#96, #97, #98, #99, #100, #101, #102)), .UNSPECIFIED., .T., .F., .U.)
   B_SPLINE_SURFACE_WITH_KNOTS ((6, 6), (4, 1, 1, 1, 4), (0., 1.), (0., 0.208662401196191, 0.467060336615637, 0.66382629571742, 1.), .UNSPECIFIED.)
   SURFACE ()
   GEOMETRIC_REPRESENTATION_ITEM ()
   RATIONAL_B_SPLINE_SURFACE (((5., 5., 5., 5., 5., 5., 5.), (1., 1., 1., 1., 1., 1., 1.), (1., 1., 1., 1., 1., 1., 1.), (1., 1., 1., 1., 1., 1., 1.), (1., 1., 1., 1., 1., 1., 1.), (5., 5., 5., 5., 5., 5., 5.)))
   REPRESENTATION_ITEM ('')
);
#104 = ADVANCED_FACE ('', (#60), #103, .F.);
#105 = CARTESIAN_POINT ('', (-83.75, 6.00000000000001, -1.46957615897682E-15));
#106 = VERTEX_POINT ('', #105);
#107 = CARTESIAN_POINT ('', (-83.75, 5.12820847142954E-15, -5.12820847142954E-15));
#108 = VERTEX_POINT ('', #107);
#109 = CARTESIAN_POINT ('', (-83.75, 6.00000000000001, -1.46957615897682E-15));
#110 = CARTESIAN_POINT ('', (-83.75, 5.12820847142954E-15, -5.12820847142954E-15));
#111 = B_SPLINE_CURVE_WITH_KNOTS ('', 1, (#109, #110), .UNSPECIFIED., .F., .U., (2, 2), (0., 1.), .UNSPECIFIED.);
#112 = EDGE_CURVE ('', #106, #108, #111, .T.);
#113 = ORIENTED_EDGE ('', *, *, #112, .F.);
#114 = CARTESIAN_POINT ('', (-83.75, 6.00000000000001, -1.46957615897682E-15));
#115 = CARTESIAN_POINT ('', (-83.75, 5.99999999999999, 24.));
#116 = CARTESIAN_POINT ('', (-83.75, -18., 12.));
#117 = CARTESIAN_POINT ('', (-83.75, -18., -12.));
#118 = CARTESIAN_POINT ('', (-83.75, 6.00000000000002, -24.));
#119 = CARTESIAN_POINT ('', (-83.75, 6.00000000000001, -1.46957615897682E-15));
#120 = (
   BOUNDED_CURVE ()
   B_SPLINE_CURVE (5, (#114, #115, #116, #117, #118, #119), .UNSPECIFIED., .T., .U.)
   B_SPLINE_CURVE_WITH_KNOTS ((6, 6), (0., 1.), .UNSPECIFIED.)
   CURVE ()
   GEOMETRIC_REPRESENTATION_ITEM ()
   RATIONAL_B_SPLINE_CURVE ((5., 1., 1., 1., 1., 5.))
   REPRESENTATION_ITEM ('')
);
#121 = EDGE_CURVE ('', #106, #106, #120, .T.);
#122 = ORIENTED_EDGE ('', *, *, #121, .T.);
#123 = ORIENTED_EDGE ('', *, *, #112, .T.);
#124 = EDGE_LOOP ('', (#113, #122, #123));
#125 = FACE_OUTER_BOUND ('', #124, .F.);
#126 = CARTESIAN_POINT ('', (-83.75, 6.00000000000001, -1.46957615897682E-15));
#127 = CARTESIAN_POINT ('', (-83.75, 5.12820847142954E-15, -5.12820847142954E-15));
#128 = CARTESIAN_POINT ('', (-83.75, 5.99999999999999, 24.));
#129 = CARTESIAN_POINT ('', (-83.75, 5.12820847142954E-15, -5.12820847142954E-15));
#130 = CARTESIAN_POINT ('', (-83.75, -18., 12.));
#131 = CARTESIAN_POINT ('', (-83.75, 5.12820847142954E-15, -5.12820847142954E-15));
#132 = CARTESIAN_POINT ('', (-83.75, -18., -12.));
#133 = CARTESIAN_POINT ('', (-83.75, 5.12820847142954E-15, -5.12820847142954E-15));
#134 = CARTESIAN_POINT ('', (-83.75, 6.00000000000002, -24.));
#135 = CARTESIAN_POINT ('', (-83.75, 5.12820847142954E-15, -5.12820847142954E-15));
#136 = CARTESIAN_POINT ('', (-83.75, 6.00000000000001, -1.46957615897682E-15));
#137 = CARTESIAN_POINT ('', (-83.75, 5.12820847142954E-15, -5.12820847142954E-15));
#138 = (
   BOUNDED_SURFACE ()
   B_SPLINE_SURFACE (5, 1, ((#126, #127), (#128, #129), (#130, #131), (#132, #133), (#134, #135), (#136, #137)), .UNSPECIFIED., .T., .F., .U.)
   B_SPLINE_SURFACE_WITH_KNOTS ((6, 6), (2, 2), (0., 1.), (0., 1.), .UNSPECIFIED.)
   SURFACE ()
   GEOMETRIC_REPRESENTATION_ITEM ()
   RATIONAL_B_SPLINE_SURFACE (((5., 5.), (1., 1.), (1., 1.), (1., 1.), (1., 1.), (5., 5.)))
   REPRESENTATION_ITEM ('')
);
#139 = ADVANCED_FACE ('', (#125), #138, .F.);
#140 = CARTESIAN_POINT ('', (-2., 6., -1.46957615897682E-15));
#141 = CARTESIAN_POINT ('', (-29.25, 6., -1.46957615897682E-15));
#142 = CARTESIAN_POINT ('', (-56.5, 6.00000000000001, -1.46957615897682E-15));
#143 = CARTESIAN_POINT ('', (-83.75, 6.00000000000001, -1.46957615897682E-15));
#144 = B_SPLINE_CURVE_WITH_KNOTS ('', 3, (#140, #141, #142, #143), .UNSPECIFIED., .F., .U., (4, 4), (0., 1.), .UNSPECIFIED.);
#145 = EDGE_CURVE ('', #37, #106, #144, .T.);
#146 = ORIENTED_EDGE ('', *, *, #145, .F.);
#147 = ORIENTED_EDGE ('', *, *, #57, .T.);
#148 = ORIENTED_EDGE ('', *, *, #145, .T.);
#149 = ORIENTED_EDGE ('', *, *, #121, .F.);
#150 = EDGE_LOOP ('', (#146, #147, #148, #149));
#151 = FACE_OUTER_BOUND ('', #150, .F.);
#152 = CARTESIAN_POINT ('', (-2., 6., -1.46957615897682E-15));
#153 = CARTESIAN_POINT ('', (-29.25, 6., -1.46957615897682E-15));
#154 = CARTESIAN_POINT ('', (-56.5, 6.00000000000001, -1.46957615897682E-15));
#155 = CARTESIAN_POINT ('', (-83.75, 6.00000000000001, -1.46957615897682E-15));
#156 = CARTESIAN_POINT ('', (-2., 6.00000000000001, 24.));
#157 = CARTESIAN_POINT ('', (-29.25, 6., 24.));
#158 = CARTESIAN_POINT ('', (-56.5, 6., 24.));
#159 = CARTESIAN_POINT ('', (-83.75, 5.99999999999999, 24.));
#160 = CARTESIAN_POINT ('', (-2., -18., 12.));
#161 = CARTESIAN_POINT ('', (-29.25, -18., 12.));
#162 = CARTESIAN_POINT ('', (-56.5, -18., 12.));
#163 = CARTESIAN_POINT ('', (-83.75, -18., 12.));
#164 = CARTESIAN_POINT ('', (-2., -18., -12.));
#165 = CARTESIAN_POINT ('', (-29.25, -18., -12.));
#166 = CARTESIAN_POINT ('', (-56.5, -18., -12.));
#167 = CARTESIAN_POINT ('', (-83.75, -18., -12.));
#168 = CARTESIAN_POINT ('', (-2., 5.99999999999999, -24.));
#169 = CARTESIAN_POINT ('', (-29.25, 6., -24.));
#170 = CARTESIAN_POINT ('', (-56.5, 6.00000000000001, -24.));
#171 = CARTESIAN_POINT ('', (-83.75, 6.00000000000002, -24.));
#172 = CARTESIAN_POINT ('', (-2., 6., -1.46957615897682E-15));
#173 = CARTESIAN_POINT ('', (-29.25, 6., -1.46957615897682E-15));
#174 = CARTESIAN_POINT ('', (-56.5, 6.00000000000001, -1.46957615897682E-15));
#175 = CARTESIAN_POINT ('', (-83.75, 6.00000000000001, -1.46957615897682E-15));
#176 = (
   BOUNDED_SURFACE ()
   B_SPLINE_SURFACE (5, 3, ((#152, #153, #154, #155), (#156, #157, #158, #159), (#160, #161, #162, #163), (#164, #165, #166, #167), (#168, #169, #170, #171), (#172, #173, #174, #175)), .UNSPECIFIED., .T., .F., .U.)
   B_SPLINE_SURFACE_WITH_KNOTS ((6, 6), (4, 4), (0., 1.), (0., 1.), .UNSPECIFIED.)
   SURFACE ()
   GEOMETRIC_REPRESENTATION_ITEM ()
   RATIONAL_B_SPLINE_SURFACE (((5., 5., 5., 5.), (1., 1., 1., 1.), (1., 1., 1., 1.), (1., 1., 1., 1.), (1., 1., 1., 1.), (5., 5., 5., 5.)))
   REPRESENTATION_ITEM ('')
);
#177 = ADVANCED_FACE ('', (#151), #176, .F.);
#178 = CLOSED_SHELL ('', (#35, #104, #139, #177));
#179 = MANIFOLD_SOLID_BREP ('', #178);
#180 = (
   LENGTH_UNIT ()
   NAMED_UNIT (*)
   SI_UNIT (.MILLI., .METRE.)
);
#181 = (
   NAMED_UNIT (*)
   SI_UNIT ($, .STERADIAN.)
   SOLID_ANGLE_UNIT ()
);
#182 = (
   NAMED_UNIT (*)
   SI_UNIT ($, .RADIAN.)
   PLANE_ANGLE_UNIT ()
);
#183 = UNCERTAINTY_MEASURE_WITH_UNIT (LENGTH_MEASURE(0.001), #180, 'DISTANCE_ACCURACY_VALUE', '');
#184 = (
   GEOMETRIC_REPRESENTATION_CONTEXT (3)
   GLOBAL_UNCERTAINTY_ASSIGNED_CONTEXT ((#183))
   GLOBAL_UNIT_ASSIGNED_CONTEXT ((#180, #181, #182))
   REPRESENTATION_CONTEXT ('', '3D')
);
#185 = SHAPE_REPRESENTATION ('', (), #184);
#186 = APPLICATION_CONTEXT ('configuration controlled 3D designs of mechanical parts and assemblies');
#187 = APPLICATION_PROTOCOL_DEFINITION ('International Standard', 'config_control_design', 1997, #186);
#188 = MECHANICAL_CONTEXT ('', #186, 'mechanical');
#189 = PRODUCT ('', '', '', (#188));
#190 = PERSON_AND_ORGANIZATION_ROLE ('design_owner');
#191 = PERSON ('', '', $, $, $, $);
#192 = ORGANIZATION ($, '', '');
#193 = PERSON_AND_ORGANIZATION (#191, #192);
#194 = CC_DESIGN_PERSON_AND_ORGANIZATION_ASSIGNMENT (#193, #190, (#189));
#195 = PRODUCT_RELATED_PRODUCT_CATEGORY ('detail', $, (#189));
#196 = PRODUCT_DEFINITION_FORMATION_WITH_SPECIFIED_SOURCE ('', '', #189, .NOT_KNOWN.);
#197 = APPROVAL_STATUS ('approved');
#198 = APPROVAL (#197, '');
#199 = CALENDAR_DATE (2020, 22, 4);
#200 = COORDINATED_UNIVERSAL_TIME_OFFSET (0, $, .AHEAD.);
#201 = LOCAL_TIME (13, 16, 57., #200);
#202 = DATE_AND_TIME (#199, #201);
#203 = APPROVAL_DATE_TIME (#202, #198);
#204 = APPROVAL_ROLE ('');
#205 = PERSON ('', '', $, $, $, $);
#206 = ORGANIZATION ($, '', '');
#207 = PERSON_AND_ORGANIZATION (#205, #206);
#208 = APPROVAL_PERSON_ORGANIZATION (#207, #198, #204);
#209 = CC_DESIGN_APPROVAL (#198, (#196));
#210 = PERSON_AND_ORGANIZATION_ROLE ('creator');
#211 = PERSON ('', '', $, $, $, $);
#212 = ORGANIZATION ($, '', '');
#213 = PERSON_AND_ORGANIZATION (#211, #212);
#214 = CC_DESIGN_PERSON_AND_ORGANIZATION_ASSIGNMENT (#213, #210, (#196));
#215 = PERSON_AND_ORGANIZATION_ROLE ('part_supplier');
#216 = PERSON ('', '', $, $, $, $);
#217 = ORGANIZATION ($, '', '');
#218 = PERSON_AND_ORGANIZATION (#216, #217);
#219 = CC_DESIGN_PERSON_AND_ORGANIZATION_ASSIGNMENT (#218, #215, (#196));
#220 = SECURITY_CLASSIFICATION_LEVEL ('unclassified');
#221 = SECURITY_CLASSIFICATION ('', '', #220);
#222 = APPROVAL_STATUS ('approved');
#223 = APPROVAL (#222, '');
#224 = CALENDAR_DATE (2020, 22, 4);
#225 = COORDINATED_UNIVERSAL_TIME_OFFSET (0, $, .AHEAD.);
#226 = LOCAL_TIME (13, 16, 57., #225);
#227 = DATE_AND_TIME (#224, #226);
#228 = APPROVAL_DATE_TIME (#227, #223);
#229 = APPROVAL_ROLE ('');
#230 = PERSON ('', '', $, $, $, $);
#231 = ORGANIZATION ($, '', '');
#232 = PERSON_AND_ORGANIZATION (#230, #231);
#233 = APPROVAL_PERSON_ORGANIZATION (#232, #223, #229);
#234 = CC_DESIGN_APPROVAL (#223, (#221));
#235 = DATE_TIME_ROLE ('classification_date');
#236 = CALENDAR_DATE (2020, 22, 4);
#237 = COORDINATED_UNIVERSAL_TIME_OFFSET (0, $, .AHEAD.);
#238 = LOCAL_TIME (13, 16, 57., #237);
#239 = DATE_AND_TIME (#236, #238);
#240 = CC_DESIGN_DATE_AND_TIME_ASSIGNMENT (#239, #235, (#221));
#241 = PERSON_AND_ORGANIZATION_ROLE ('classification_officer');
#242 = PERSON ('', '', $, $, $, $);
#243 = ORGANIZATION ($, '', '');
#244 = PERSON_AND_ORGANIZATION (#242, #243);
#245 = CC_DESIGN_PERSON_AND_ORGANIZATION_ASSIGNMENT (#244, #241, (#221));
#246 = CC_DESIGN_SECURITY_CLASSIFICATION (#221, (#196));
#247 = DESIGN_CONTEXT ('', #186, 'design');
#248 = PRODUCT_DEFINITION ('', '', #196, #247);
#249 = APPROVAL_STATUS ('approved');
#250 = APPROVAL (#249, '');
#251 = CALENDAR_DATE (2020, 22, 4);
#252 = COORDINATED_UNIVERSAL_TIME_OFFSET (0, $, .AHEAD.);
#253 = LOCAL_TIME (13, 16, 57., #252);
#254 = DATE_AND_TIME (#251, #253);
#255 = APPROVAL_DATE_TIME (#254, #250);
#256 = APPROVAL_ROLE ('');
#257 = PERSON ('', '', $, $, $, $);
#258 = ORGANIZATION ($, '', '');
#259 = PERSON_AND_ORGANIZATION (#257, #258);
#260 = APPROVAL_PERSON_ORGANIZATION (#259, #250, #256);
#261 = CC_DESIGN_APPROVAL (#250, (#248));
#262 = DATE_TIME_ROLE ('creation_date');
#263 = CALENDAR_DATE (2020, 22, 4);
#264 = COORDINATED_UNIVERSAL_TIME_OFFSET (0, $, .AHEAD.);
#265 = LOCAL_TIME (13, 16, 57., #264);
#266 = DATE_AND_TIME (#263, #265);
#267 = CC_DESIGN_DATE_AND_TIME_ASSIGNMENT (#266, #262, (#248));
#268 = PERSON_AND_ORGANIZATION_ROLE ('creator');
#269 = PERSON ('', '', $, $, $, $);
#270 = ORGANIZATION ($, '', '');
#271 = PERSON_AND_ORGANIZATION (#269, #270);
#272 = CC_DESIGN_PERSON_AND_ORGANIZATION_ASSIGNMENT (#271, #268, (#248));
#273 = PRODUCT_DEFINITION_SHAPE ('', '', #248);
#274 = SHAPE_DEFINITION_REPRESENTATION (#273, #185);
#275 = SHAPE_REPRESENTATION_RELATIONSHIP ('', '', #185, #276);
#276 = ADVANCED_BREP_SHAPE_REPRESENTATION ('', (#179), #184);
ENDSEC;
END-ISO-10303-21;
