ISO-10303-21;
HEADER;
FILE_DESCRIPTION ((), '1');
FILE_NAME ('C:\\OneCNC-XR7\\Mill 3D Expert\\Drawings\\180R\\180 1200-3_0RB.STP', '2020-04-22T13:18:43', ('Unknown'), ('Ma Ford Europe Ltd.'), 'OneCNC-XR7 Mill 3D Expert', 'OneCNC-XR7 Mill 3D Expert', '');
FILE_SCHEMA (('CONFIG_CONTROL_DESIGN'));
ENDSEC;

DATA;
#1 = CARTESIAN_POINT ('', (-1.83697019872103E-16, 1.12481983699639E-32, -1.12481983699639E-32));
#2 = VERTEX_POINT ('', #1);
#3 = CARTESIAN_POINT ('', (4.93038065763132E-32, 3., -7.34788079488412E-16));
#4 = VERTEX_POINT ('', #3);
#5 = CARTESIAN_POINT ('', (-1.83697019872103E-16, 1.12481983699639E-32, -1.12481983699639E-32));
#6 = CARTESIAN_POINT ('', (4.93038065763132E-32, 3., -7.34788079488412E-16));
#7 = B_SPLINE_CURVE_WITH_KNOTS ('', 1, (#5, #6), .UNSPECIFIED., .F., .U., (2, 2), (0., 1.), .UNSPECIFIED.);
#8 = EDGE_CURVE ('', #2, #4, #7, .T.);
#9 = ORIENTED_EDGE ('', *, *, #8, .F.);
#10 = ORIENTED_EDGE ('', *, *, #8, .T.);
#11 = CARTESIAN_POINT ('', (4.93038065763132E-32, 3., -7.34788079488412E-16));
#12 = CARTESIAN_POINT ('', (-7.34788079488412E-16, 3., 12.));
#13 = CARTESIAN_POINT ('', (-1.10218211923262E-15, -9., 6.));
#14 = CARTESIAN_POINT ('', (-3.67394039744206E-16, -9., -6.));
#15 = CARTESIAN_POINT ('', (7.34788079488412E-16, 3., -12.));
#16 = CARTESIAN_POINT ('', (4.93038065763132E-32, 3., -7.34788079488412E-16));
#17 = (
   BOUNDED_CURVE ()
   B_SPLINE_CURVE (5, (#11, #12, #13, #14, #15, #16), .UNSPECIFIED., .T., .U.)
   B_SPLINE_CURVE_WITH_KNOTS ((6, 6), (0., 1.), .UNSPECIFIED.)
   CURVE ()
   GEOMETRIC_REPRESENTATION_ITEM ()
   RATIONAL_B_SPLINE_CURVE ((5., 1., 1., 1., 1., 5.))
   REPRESENTATION_ITEM ('')
);
#18 = EDGE_CURVE ('', #4, #4, #17, .T.);
#19 = ORIENTED_EDGE ('', *, *, #18, .F.);
#20 = EDGE_LOOP ('', (#9, #10, #19));
#21 = FACE_OUTER_BOUND ('', #20, .F.);
#22 = CARTESIAN_POINT ('', (-1.83697019872103E-16, 1.12481983699639E-32, -1.12481983699639E-32));
#23 = CARTESIAN_POINT ('', (4.93038065763132E-32, 3., -7.34788079488412E-16));
#24 = CARTESIAN_POINT ('', (-1.83697019872103E-16, 1.12481983699639E-32, -1.12481983699639E-32));
#25 = CARTESIAN_POINT ('', (-7.34788079488412E-16, 3., 12.));
#26 = CARTESIAN_POINT ('', (-1.83697019872103E-16, 1.12481983699639E-32, -1.12481983699639E-32));
#27 = CARTESIAN_POINT ('', (-1.10218211923262E-15, -9., 6.));
#28 = CARTESIAN_POINT ('', (-1.83697019872103E-16, 1.12481983699639E-32, -1.12481983699639E-32));
#29 = CARTESIAN_POINT ('', (-3.67394039744206E-16, -9., -6.));
#30 = CARTESIAN_POINT ('', (-1.83697019872103E-16, 1.12481983699639E-32, -1.12481983699639E-32));
#31 = CARTESIAN_POINT ('', (7.34788079488412E-16, 3., -12.));
#32 = CARTESIAN_POINT ('', (-1.83697019872103E-16, 1.12481983699639E-32, -1.12481983699639E-32));
#33 = CARTESIAN_POINT ('', (4.93038065763132E-32, 3., -7.34788079488412E-16));
#34 = (
   BOUNDED_SURFACE ()
   B_SPLINE_SURFACE (5, 1, ((#22, #23), (#24, #25), (#26, #27), (#28, #29), (#30, #31), (#32, #33)), .UNSPECIFIED., .T., .F., .U.)
   B_SPLINE_SURFACE_WITH_KNOTS ((6, 6), (2, 2), (0., 1.), (0., 1.), .UNSPECIFIED.)
   SURFACE ()
   GEOMETRIC_REPRESENTATION_ITEM ()
   RATIONAL_B_SPLINE_SURFACE (((5., 5.), (1., 1.), (1., 1.), (1., 1.), (1., 1.), (5., 5.)))
   REPRESENTATION_ITEM ('')
);
#35 = ADVANCED_FACE ('', (#21), #34, .F.);
#36 = CARTESIAN_POINT ('', (-3., 6., -1.46957615897682E-15));
#37 = VERTEX_POINT ('', #36);
#38 = CARTESIAN_POINT ('', (4.93038065763132E-32, 3., -7.34788079488412E-16));
#39 = CARTESIAN_POINT ('', (0., 3.32776613333918, -8.15067628700958E-16));
#40 = CARTESIAN_POINT ('', (-0.0875129073392728, 3.85568476404556, -9.44370400961923E-16));
#41 = CARTESIAN_POINT ('', (-0.436645053847223, 4.62116904246167, -1.1318599752339E-15));
#42 = CARTESIAN_POINT ('', (-1.02090020810345, 5.33983709939423, -1.30788288234829E-15));
#43 = CARTESIAN_POINT ('', (-1.93877419916663, 5.87841461887293, -1.43979632941275E-15));
#44 = CARTESIAN_POINT ('', (-2.67223386666082, 6., -1.46957615897682E-15));
#45 = CARTESIAN_POINT ('', (-3., 6., -1.46957615897682E-15));
#46 = B_SPLINE_CURVE_WITH_KNOTS ('', 3, (#38, #39, #40, #41, #42, #43, #44, #45), .UNSPECIFIED., .F., .U., (4, 1, 1, 1, 1, 4), (0., 0.208662401196191, 0.33617370428258, 0.532939663384363, 0.791337598803809, 1.), .UNSPECIFIED.);
#47 = EDGE_CURVE ('', #4, #37, #46, .T.);
#48 = ORIENTED_EDGE ('', *, *, #47, .F.);
#49 = ORIENTED_EDGE ('', *, *, #18, .T.);
#50 = ORIENTED_EDGE ('', *, *, #47, .T.);
#51 = CARTESIAN_POINT ('', (-3., 6., -1.46957615897682E-15));
#52 = CARTESIAN_POINT ('', (-3., 6.00000000000001, 24.));
#53 = CARTESIAN_POINT ('', (-3., -18., 12.));
#54 = CARTESIAN_POINT ('', (-3., -18., -12.));
#55 = CARTESIAN_POINT ('', (-3., 5.99999999999999, -24.));
#56 = CARTESIAN_POINT ('', (-3., 6., -1.46957615897682E-15));
#57 = (
   BOUNDED_CURVE ()
   B_SPLINE_CURVE (5, (#51, #52, #53, #54, #55, #56), .UNSPECIFIED., .T., .U.)
   B_SPLINE_CURVE_WITH_KNOTS ((6, 6), (0., 1.), .UNSPECIFIED.)
   CURVE ()
   GEOMETRIC_REPRESENTATION_ITEM ()
   RATIONAL_B_SPLINE_CURVE ((5., 1., 1., 1., 1., 5.))
   REPRESENTATION_ITEM ('')
);
#58 = EDGE_CURVE ('', #37, #37, #57, .T.);
#59 = ORIENTED_EDGE ('', *, *, #58, .F.);
#60 = EDGE_LOOP ('', (#48, #49, #50, #59));
#61 = FACE_OUTER_BOUND ('', #60, .F.);
#62 = CARTESIAN_POINT ('', (4.93038065763132E-32, 3., -7.34788079488412E-16));
#63 = CARTESIAN_POINT ('', (0., 3.32776613333918, -8.15067628700958E-16));
#64 = CARTESIAN_POINT ('', (-0.0875129073392728, 3.85568476404556, -9.44370400961923E-16));
#65 = CARTESIAN_POINT ('', (-0.436645053847223, 4.62116904246167, -1.1318599752339E-15));
#66 = CARTESIAN_POINT ('', (-1.02090020810345, 5.33983709939423, -1.30788288234829E-15));
#67 = CARTESIAN_POINT ('', (-1.93877419916663, 5.87841461887293, -1.43979632941275E-15));
#68 = CARTESIAN_POINT ('', (-2.67223386666082, 6., -1.46957615897682E-15));
#69 = CARTESIAN_POINT ('', (-3., 6., -1.46957615897682E-15));
#70 = CARTESIAN_POINT ('', (-7.34788079488412E-16, 3., 12.));
#71 = CARTESIAN_POINT ('', (-8.15067628700958E-16, 3.32776613333918, 13.3110645333567));
#72 = CARTESIAN_POINT ('', (-0.0875129073392738, 3.85568476404556, 15.4227390561822));
#73 = CARTESIAN_POINT ('', (-0.436645053847224, 4.62116904246167, 18.4846761698467));
#74 = CARTESIAN_POINT ('', (-1.02090020810345, 5.33983709939423, 21.3593483975769));
#75 = CARTESIAN_POINT ('', (-1.93877419916663, 5.87841461887293, 23.5136584754917));
#76 = CARTESIAN_POINT ('', (-2.67223386666082, 6., 24.));
#77 = CARTESIAN_POINT ('', (-3., 6.00000000000001, 24.));
#78 = CARTESIAN_POINT ('', (-1.10218211923262E-15, -9., 6.));
#79 = CARTESIAN_POINT ('', (-1.22260144305144E-15, -9.98329840001754, 6.65553226667836));
#80 = CARTESIAN_POINT ('', (-0.0875129073392743, -11.5670542921367, 7.71136952809112));
#81 = CARTESIAN_POINT ('', (-0.436645053847224, -13.863507127385, 9.24233808492334));
#82 = CARTESIAN_POINT ('', (-1.02090020810345, -16.0195112981827, 10.6796741987885));
#83 = CARTESIAN_POINT ('', (-1.93877419916663, -17.6352438566188, 11.7568292377459));
#84 = CARTESIAN_POINT ('', (-2.67223386666082, -18., 12.));
#85 = CARTESIAN_POINT ('', (-3., -18., 12.));
#86 = CARTESIAN_POINT ('', (-3.67394039744206E-16, -9., -6.));
#87 = CARTESIAN_POINT ('', (-4.07533814350479E-16, -9.98329840001754, -6.65553226667836));
#88 = CARTESIAN_POINT ('', (-0.0875129073392733, -11.5670542921367, -7.71136952809112));
#89 = CARTESIAN_POINT ('', (-0.436645053847223, -13.863507127385, -9.24233808492333));
#90 = CARTESIAN_POINT ('', (-1.02090020810345, -16.0195112981827, -10.6796741987885));
#91 = CARTESIAN_POINT ('', (-1.93877419916663, -17.6352438566188, -11.7568292377459));
#92 = CARTESIAN_POINT ('', (-2.67223386666082, -18., -12.));
#93 = CARTESIAN_POINT ('', (-3., -18., -12.));
#94 = CARTESIAN_POINT ('', (7.34788079488412E-16, 3., -12.));
#95 = CARTESIAN_POINT ('', (8.15067628700958E-16, 3.32776613333918, -13.3110645333567));
#96 = CARTESIAN_POINT ('', (-0.0875129073392719, 3.85568476404556, -15.4227390561822));
#97 = CARTESIAN_POINT ('', (-0.436645053847222, 4.62116904246166, -18.4846761698467));
#98 = CARTESIAN_POINT ('', (-1.02090020810344, 5.33983709939422, -21.3593483975769));
#99 = CARTESIAN_POINT ('', (-1.93877419916663, 5.87841461887292, -23.5136584754917));
#100 = CARTESIAN_POINT ('', (-2.67223386666082, 5.99999999999999, -24.));
#101 = CARTESIAN_POINT ('', (-3., 5.99999999999999, -24.));
#102 = CARTESIAN_POINT ('', (4.93038065763132E-32, 3., -7.34788079488412E-16));
#103 = CARTESIAN_POINT ('', (0., 3.32776613333918, -8.15067628700958E-16));
#104 = CARTESIAN_POINT ('', (-0.0875129073392728, 3.85568476404556, -9.44370400961923E-16));
#105 = CARTESIAN_POINT ('', (-0.436645053847223, 4.62116904246167, -1.1318599752339E-15));
#106 = CARTESIAN_POINT ('', (-1.02090020810345, 5.33983709939423, -1.30788288234829E-15));
#107 = CARTESIAN_POINT ('', (-1.93877419916663, 5.87841461887293, -1.43979632941275E-15));
#108 = CARTESIAN_POINT ('', (-2.67223386666082, 6., -1.46957615897682E-15));
#109 = CARTESIAN_POINT ('', (-3., 6., -1.46957615897682E-15));
#110 = (
   BOUNDED_SURFACE ()
   B_SPLINE_SURFACE (5, 3, ((#62, #63, #64, #65, #66, #67, #68, #69), (#70, #71, #72, #73, #74, #75, #76, #77), (#78, #79, #80, #81, #82, #83, #84, #85), (#86, #87, #88, #89, #90, #91, #92, #93), (#94, #95, #96, #97, #98, #99, #100, #101), (#102, #103, #104, #105, #106, #107, #108, #109)), .UNSPECIFIED., .T., .F., .U.)
   B_SPLINE_SURFACE_WITH_KNOTS ((6, 6), (4, 1, 1, 1, 1, 4), (0., 1.), (0., 0.208662401196191, 0.33617370428258, 0.532939663384363, 0.791337598803809, 1.), .UNSPECIFIED.)
   SURFACE ()
   GEOMETRIC_REPRESENTATION_ITEM ()
   RATIONAL_B_SPLINE_SURFACE (((5., 5., 5., 5., 5., 5., 5., 5.), (1., 1., 1., 1., 1., 1., 1., 1.), (1., 1., 1., 1., 1., 1., 1., 1.), (1., 1., 1., 1., 1., 1., 1., 1.), (1., 1., 1., 1., 1., 1., 1., 1.), (5., 5., 5., 5., 5., 5., 5., 5.)))
   REPRESENTATION_ITEM ('')
);
#111 = ADVANCED_FACE ('', (#61), #110, .F.);
#112 = CARTESIAN_POINT ('', (-83.75, 6.00000000000001, -1.46957615897682E-15));
#113 = VERTEX_POINT ('', #112);
#114 = CARTESIAN_POINT ('', (-3., 6., -1.46957615897682E-15));
#115 = CARTESIAN_POINT ('', (-29.9166666666667, 6., -1.46957615897682E-15));
#116 = CARTESIAN_POINT ('', (-56.8333333333333, 5.99999999999998, -1.46957615897682E-15));
#117 = CARTESIAN_POINT ('', (-83.75, 6.00000000000001, -1.46957615897682E-15));
#118 = B_SPLINE_CURVE_WITH_KNOTS ('', 3, (#114, #115, #116, #117), .UNSPECIFIED., .F., .U., (4, 4), (0., 1.), .UNSPECIFIED.);
#119 = EDGE_CURVE ('', #37, #113, #118, .T.);
#120 = ORIENTED_EDGE ('', *, *, #119, .F.);
#121 = ORIENTED_EDGE ('', *, *, #58, .T.);
#122 = ORIENTED_EDGE ('', *, *, #119, .T.);
#123 = CARTESIAN_POINT ('', (-83.75, 6.00000000000001, -1.46957615897682E-15));
#124 = CARTESIAN_POINT ('', (-83.75, 5.99999999999999, 24.));
#125 = CARTESIAN_POINT ('', (-83.75, -18., 12.));
#126 = CARTESIAN_POINT ('', (-83.75, -18., -12.));
#127 = CARTESIAN_POINT ('', (-83.75, 6.00000000000002, -24.));
#128 = CARTESIAN_POINT ('', (-83.75, 6.00000000000001, -1.46957615897682E-15));
#129 = (
   BOUNDED_CURVE ()
   B_SPLINE_CURVE (5, (#123, #124, #125, #126, #127, #128), .UNSPECIFIED., .T., .U.)
   B_SPLINE_CURVE_WITH_KNOTS ((6, 6), (0., 1.), .UNSPECIFIED.)
   CURVE ()
   GEOMETRIC_REPRESENTATION_ITEM ()
   RATIONAL_B_SPLINE_CURVE ((5., 1., 1., 1., 1., 5.))
   REPRESENTATION_ITEM ('')
);
#130 = EDGE_CURVE ('', #113, #113, #129, .T.);
#131 = ORIENTED_EDGE ('', *, *, #130, .F.);
#132 = EDGE_LOOP ('', (#120, #121, #122, #131));
#133 = FACE_OUTER_BOUND ('', #132, .F.);
#134 = CARTESIAN_POINT ('', (-3., 6., -1.46957615897682E-15));
#135 = CARTESIAN_POINT ('', (-29.9166666666667, 6., -1.46957615897682E-15));
#136 = CARTESIAN_POINT ('', (-56.8333333333333, 5.99999999999998, -1.46957615897682E-15));
#137 = CARTESIAN_POINT ('', (-83.75, 6.00000000000001, -1.46957615897682E-15));
#138 = CARTESIAN_POINT ('', (-3., 6.00000000000001, 24.));
#139 = CARTESIAN_POINT ('', (-29.9166666666667, 6., 24.));
#140 = CARTESIAN_POINT ('', (-56.8333333333333, 5.99999999999998, 23.9999999999999));
#141 = CARTESIAN_POINT ('', (-83.75, 5.99999999999999, 24.));
#142 = CARTESIAN_POINT ('', (-3., -18., 12.));
#143 = CARTESIAN_POINT ('', (-29.9166666666667, -18., 12.));
#144 = CARTESIAN_POINT ('', (-56.8333333333333, -17.9999999999999, 12.));
#145 = CARTESIAN_POINT ('', (-83.75, -18., 12.));
#146 = CARTESIAN_POINT ('', (-3., -18., -12.));
#147 = CARTESIAN_POINT ('', (-29.9166666666667, -18., -12.));
#148 = CARTESIAN_POINT ('', (-56.8333333333333, -17.9999999999999, -12.));
#149 = CARTESIAN_POINT ('', (-83.75, -18., -12.));
#150 = CARTESIAN_POINT ('', (-3., 5.99999999999999, -24.));
#151 = CARTESIAN_POINT ('', (-29.9166666666667, 6., -24.));
#152 = CARTESIAN_POINT ('', (-56.8333333333333, 5.99999999999999, -23.9999999999999));
#153 = CARTESIAN_POINT ('', (-83.75, 6.00000000000002, -24.));
#154 = CARTESIAN_POINT ('', (-3., 6., -1.46957615897682E-15));
#155 = CARTESIAN_POINT ('', (-29.9166666666667, 6., -1.46957615897682E-15));
#156 = CARTESIAN_POINT ('', (-56.8333333333333, 5.99999999999998, -1.46957615897682E-15));
#157 = CARTESIAN_POINT ('', (-83.75, 6.00000000000001, -1.46957615897682E-15));
#158 = (
   BOUNDED_SURFACE ()
   B_SPLINE_SURFACE (5, 3, ((#134, #135, #136, #137), (#138, #139, #140, #141), (#142, #143, #144, #145), (#146, #147, #148, #149), (#150, #151, #152, #153), (#154, #155, #156, #157)), .UNSPECIFIED., .T., .F., .U.)
   B_SPLINE_SURFACE_WITH_KNOTS ((6, 6), (4, 4), (0., 1.), (0., 1.), .UNSPECIFIED.)
   SURFACE ()
   GEOMETRIC_REPRESENTATION_ITEM ()
   RATIONAL_B_SPLINE_SURFACE (((5., 5., 5., 5.), (1., 1., 1., 1.), (1., 1., 1., 1.), (1., 1., 1., 1.), (1., 1., 1., 1.), (5., 5., 5., 5.)))
   REPRESENTATION_ITEM ('')
);
#159 = ADVANCED_FACE ('', (#133), #158, .F.);
#160 = CARTESIAN_POINT ('', (-84., 5.75000000000001, -1.40834381901946E-15));
#161 = VERTEX_POINT ('', #160);
#162 = CARTESIAN_POINT ('', (-84., 5.14351655641888E-15, -5.14351655641888E-15));
#163 = VERTEX_POINT ('', #162);
#164 = CARTESIAN_POINT ('', (-84., 5.75000000000001, -1.40834381901946E-15));
#165 = CARTESIAN_POINT ('', (-84., 5.14351655641888E-15, -5.14351655641888E-15));
#166 = B_SPLINE_CURVE_WITH_KNOTS ('', 1, (#164, #165), .UNSPECIFIED., .F., .U., (2, 2), (0., 1.), .UNSPECIFIED.);
#167 = EDGE_CURVE ('', #161, #163, #166, .T.);
#168 = ORIENTED_EDGE ('', *, *, #167, .F.);
#169 = CARTESIAN_POINT ('', (-84., 5.75000000000001, -1.40834381901946E-15));
#170 = CARTESIAN_POINT ('', (-84., 5.74999999999999, 23.));
#171 = CARTESIAN_POINT ('', (-84., -17.25, 11.5));
#172 = CARTESIAN_POINT ('', (-84., -17.25, -11.5));
#173 = CARTESIAN_POINT ('', (-84., 5.75000000000002, -23.));
#174 = CARTESIAN_POINT ('', (-84., 5.75000000000001, -1.40834381901946E-15));
#175 = (
   BOUNDED_CURVE ()
   B_SPLINE_CURVE (5, (#169, #170, #171, #172, #173, #174), .UNSPECIFIED., .T., .U.)
   B_SPLINE_CURVE_WITH_KNOTS ((6, 6), (0., 1.), .UNSPECIFIED.)
   CURVE ()
   GEOMETRIC_REPRESENTATION_ITEM ()
   RATIONAL_B_SPLINE_CURVE ((5., 1., 1., 1., 1., 5.))
   REPRESENTATION_ITEM ('')
);
#176 = EDGE_CURVE ('', #161, #161, #175, .T.);
#177 = ORIENTED_EDGE ('', *, *, #176, .T.);
#178 = ORIENTED_EDGE ('', *, *, #167, .T.);
#179 = EDGE_LOOP ('', (#168, #177, #178));
#180 = FACE_OUTER_BOUND ('', #179, .F.);
#181 = CARTESIAN_POINT ('', (-84., 5.75000000000001, -1.40834381901946E-15));
#182 = CARTESIAN_POINT ('', (-84., 5.14351655641888E-15, -5.14351655641888E-15));
#183 = CARTESIAN_POINT ('', (-84., 5.74999999999999, 23.));
#184 = CARTESIAN_POINT ('', (-84., 5.14351655641888E-15, -5.14351655641888E-15));
#185 = CARTESIAN_POINT ('', (-84., -17.25, 11.5));
#186 = CARTESIAN_POINT ('', (-84., 5.14351655641888E-15, -5.14351655641888E-15));
#187 = CARTESIAN_POINT ('', (-84., -17.25, -11.5));
#188 = CARTESIAN_POINT ('', (-84., 5.14351655641888E-15, -5.14351655641888E-15));
#189 = CARTESIAN_POINT ('', (-84., 5.75000000000002, -23.));
#190 = CARTESIAN_POINT ('', (-84., 5.14351655641888E-15, -5.14351655641888E-15));
#191 = CARTESIAN_POINT ('', (-84., 5.75000000000001, -1.40834381901946E-15));
#192 = CARTESIAN_POINT ('', (-84., 5.14351655641888E-15, -5.14351655641888E-15));
#193 = (
   BOUNDED_SURFACE ()
   B_SPLINE_SURFACE (5, 1, ((#181, #182), (#183, #184), (#185, #186), (#187, #188), (#189, #190), (#191, #192)), .UNSPECIFIED., .T., .F., .U.)
   B_SPLINE_SURFACE_WITH_KNOTS ((6, 6), (2, 2), (0., 1.), (0., 1.), .UNSPECIFIED.)
   SURFACE ()
   GEOMETRIC_REPRESENTATION_ITEM ()
   RATIONAL_B_SPLINE_SURFACE (((5., 5.), (1., 1.), (1., 1.), (1., 1.), (1., 1.), (5., 5.)))
   REPRESENTATION_ITEM ('')
);
#194 = ADVANCED_FACE ('', (#180), #193, .F.);
#195 = CARTESIAN_POINT ('', (-83.75, 6.00000000000001, -1.46957615897682E-15));
#196 = CARTESIAN_POINT ('', (-83.8333333333335, 5.91666666666667, -1.44916537899103E-15));
#197 = CARTESIAN_POINT ('', (-83.9166666666663, 5.83333333333335, -1.42875459900525E-15));
#198 = CARTESIAN_POINT ('', (-84., 5.75000000000001, -1.40834381901946E-15));
#199 = B_SPLINE_CURVE_WITH_KNOTS ('', 3, (#195, #196, #197, #198), .UNSPECIFIED., .F., .U., (4, 4), (0., 1.), .UNSPECIFIED.);
#200 = EDGE_CURVE ('', #113, #161, #199, .T.);
#201 = ORIENTED_EDGE ('', *, *, #200, .F.);
#202 = ORIENTED_EDGE ('', *, *, #130, .T.);
#203 = ORIENTED_EDGE ('', *, *, #200, .T.);
#204 = ORIENTED_EDGE ('', *, *, #176, .F.);
#205 = EDGE_LOOP ('', (#201, #202, #203, #204));
#206 = FACE_OUTER_BOUND ('', #205, .F.);
#207 = CARTESIAN_POINT ('', (-83.75, 6.00000000000001, -1.46957615897682E-15));
#208 = CARTESIAN_POINT ('', (-83.8333333333335, 5.91666666666667, -1.44916537899103E-15));
#209 = CARTESIAN_POINT ('', (-83.9166666666663, 5.83333333333335, -1.42875459900525E-15));
#210 = CARTESIAN_POINT ('', (-84., 5.75000000000001, -1.40834381901946E-15));
#211 = CARTESIAN_POINT ('', (-83.75, 5.99999999999999, 24.));
#212 = CARTESIAN_POINT ('', (-83.8333333333335, 5.91666666666665, 23.6666666666667));
#213 = CARTESIAN_POINT ('', (-83.9166666666663, 5.83333333333333, 23.3333333333334));
#214 = CARTESIAN_POINT ('', (-84., 5.74999999999999, 23.));
#215 = CARTESIAN_POINT ('', (-83.75, -18., 12.));
#216 = CARTESIAN_POINT ('', (-83.8333333333335, -17.75, 11.8333333333333));
#217 = CARTESIAN_POINT ('', (-83.9166666666663, -17.5, 11.6666666666667));
#218 = CARTESIAN_POINT ('', (-84., -17.25, 11.5));
#219 = CARTESIAN_POINT ('', (-83.75, -18., -12.));
#220 = CARTESIAN_POINT ('', (-83.8333333333335, -17.75, -11.8333333333333));
#221 = CARTESIAN_POINT ('', (-83.9166666666663, -17.5, -11.6666666666667));
#222 = CARTESIAN_POINT ('', (-84., -17.25, -11.5));
#223 = CARTESIAN_POINT ('', (-83.75, 6.00000000000002, -24.));
#224 = CARTESIAN_POINT ('', (-83.8333333333335, 5.91666666666668, -23.6666666666667));
#225 = CARTESIAN_POINT ('', (-83.9166666666663, 5.83333333333336, -23.3333333333334));
#226 = CARTESIAN_POINT ('', (-84., 5.75000000000002, -23.));
#227 = CARTESIAN_POINT ('', (-83.75, 6.00000000000001, -1.46957615897682E-15));
#228 = CARTESIAN_POINT ('', (-83.8333333333335, 5.91666666666667, -1.44916537899103E-15));
#229 = CARTESIAN_POINT ('', (-83.9166666666663, 5.83333333333335, -1.42875459900525E-15));
#230 = CARTESIAN_POINT ('', (-84., 5.75000000000001, -1.40834381901946E-15));
#231 = (
   BOUNDED_SURFACE ()
   B_SPLINE_SURFACE (5, 3, ((#207, #208, #209, #210), (#211, #212, #213, #214), (#215, #216, #217, #218), (#219, #220, #221, #222), (#223, #224, #225, #226), (#227, #228, #229, #230)), .UNSPECIFIED., .T., .F., .U.)
   B_SPLINE_SURFACE_WITH_KNOTS ((6, 6), (4, 4), (0., 1.), (0., 1.), .UNSPECIFIED.)
   SURFACE ()
   GEOMETRIC_REPRESENTATION_ITEM ()
   RATIONAL_B_SPLINE_SURFACE (((5., 5., 5., 5.), (1., 1., 1., 1.), (1., 1., 1., 1.), (1., 1., 1., 1.), (1., 1., 1., 1.), (5., 5., 5., 5.)))
   REPRESENTATION_ITEM ('')
);
#232 = ADVANCED_FACE ('', (#206), #231, .F.);
#233 = CLOSED_SHELL ('', (#35, #111, #159, #194, #232));
#234 = MANIFOLD_SOLID_BREP ('', #233);
#235 = (
   LENGTH_UNIT ()
   NAMED_UNIT (*)
   SI_UNIT (.MILLI., .METRE.)
);
#236 = (
   NAMED_UNIT (*)
   SI_UNIT ($, .STERADIAN.)
   SOLID_ANGLE_UNIT ()
);
#237 = (
   NAMED_UNIT (*)
   SI_UNIT ($, .RADIAN.)
   PLANE_ANGLE_UNIT ()
);
#238 = UNCERTAINTY_MEASURE_WITH_UNIT (LENGTH_MEASURE(0.001), #235, 'DISTANCE_ACCURACY_VALUE', '');
#239 = (
   GEOMETRIC_REPRESENTATION_CONTEXT (3)
   GLOBAL_UNCERTAINTY_ASSIGNED_CONTEXT ((#238))
   GLOBAL_UNIT_ASSIGNED_CONTEXT ((#235, #236, #237))
   REPRESENTATION_CONTEXT ('', '3D')
);
#240 = SHAPE_REPRESENTATION ('', (), #239);
#241 = APPLICATION_CONTEXT ('configuration controlled 3D designs of mechanical parts and assemblies');
#242 = APPLICATION_PROTOCOL_DEFINITION ('International Standard', 'config_control_design', 1997, #241);
#243 = MECHANICAL_CONTEXT ('', #241, 'mechanical');
#244 = PRODUCT ('', '', '', (#243));
#245 = PERSON_AND_ORGANIZATION_ROLE ('design_owner');
#246 = PERSON ('', '', $, $, $, $);
#247 = ORGANIZATION ($, '', '');
#248 = PERSON_AND_ORGANIZATION (#246, #247);
#249 = CC_DESIGN_PERSON_AND_ORGANIZATION_ASSIGNMENT (#248, #245, (#244));
#250 = PRODUCT_RELATED_PRODUCT_CATEGORY ('detail', $, (#244));
#251 = PRODUCT_DEFINITION_FORMATION_WITH_SPECIFIED_SOURCE ('', '', #244, .NOT_KNOWN.);
#252 = APPROVAL_STATUS ('approved');
#253 = APPROVAL (#252, '');
#254 = CALENDAR_DATE (2020, 22, 4);
#255 = COORDINATED_UNIVERSAL_TIME_OFFSET (0, $, .AHEAD.);
#256 = LOCAL_TIME (13, 18, 43., #255);
#257 = DATE_AND_TIME (#254, #256);
#258 = APPROVAL_DATE_TIME (#257, #253);
#259 = APPROVAL_ROLE ('');
#260 = PERSON ('', '', $, $, $, $);
#261 = ORGANIZATION ($, '', '');
#262 = PERSON_AND_ORGANIZATION (#260, #261);
#263 = APPROVAL_PERSON_ORGANIZATION (#262, #253, #259);
#264 = CC_DESIGN_APPROVAL (#253, (#251));
#265 = PERSON_AND_ORGANIZATION_ROLE ('creator');
#266 = PERSON ('', '', $, $, $, $);
#267 = ORGANIZATION ($, '', '');
#268 = PERSON_AND_ORGANIZATION (#266, #267);
#269 = CC_DESIGN_PERSON_AND_ORGANIZATION_ASSIGNMENT (#268, #265, (#251));
#270 = PERSON_AND_ORGANIZATION_ROLE ('part_supplier');
#271 = PERSON ('', '', $, $, $, $);
#272 = ORGANIZATION ($, '', '');
#273 = PERSON_AND_ORGANIZATION (#271, #272);
#274 = CC_DESIGN_PERSON_AND_ORGANIZATION_ASSIGNMENT (#273, #270, (#251));
#275 = SECURITY_CLASSIFICATION_LEVEL ('unclassified');
#276 = SECURITY_CLASSIFICATION ('', '', #275);
#277 = APPROVAL_STATUS ('approved');
#278 = APPROVAL (#277, '');
#279 = CALENDAR_DATE (2020, 22, 4);
#280 = COORDINATED_UNIVERSAL_TIME_OFFSET (0, $, .AHEAD.);
#281 = LOCAL_TIME (13, 18, 43., #280);
#282 = DATE_AND_TIME (#279, #281);
#283 = APPROVAL_DATE_TIME (#282, #278);
#284 = APPROVAL_ROLE ('');
#285 = PERSON ('', '', $, $, $, $);
#286 = ORGANIZATION ($, '', '');
#287 = PERSON_AND_ORGANIZATION (#285, #286);
#288 = APPROVAL_PERSON_ORGANIZATION (#287, #278, #284);
#289 = CC_DESIGN_APPROVAL (#278, (#276));
#290 = DATE_TIME_ROLE ('classification_date');
#291 = CALENDAR_DATE (2020, 22, 4);
#292 = COORDINATED_UNIVERSAL_TIME_OFFSET (0, $, .AHEAD.);
#293 = LOCAL_TIME (13, 18, 43., #292);
#294 = DATE_AND_TIME (#291, #293);
#295 = CC_DESIGN_DATE_AND_TIME_ASSIGNMENT (#294, #290, (#276));
#296 = PERSON_AND_ORGANIZATION_ROLE ('classification_officer');
#297 = PERSON ('', '', $, $, $, $);
#298 = ORGANIZATION ($, '', '');
#299 = PERSON_AND_ORGANIZATION (#297, #298);
#300 = CC_DESIGN_PERSON_AND_ORGANIZATION_ASSIGNMENT (#299, #296, (#276));
#301 = CC_DESIGN_SECURITY_CLASSIFICATION (#276, (#251));
#302 = DESIGN_CONTEXT ('', #241, 'design');
#303 = PRODUCT_DEFINITION ('', '', #251, #302);
#304 = APPROVAL_STATUS ('approved');
#305 = APPROVAL (#304, '');
#306 = CALENDAR_DATE (2020, 22, 4);
#307 = COORDINATED_UNIVERSAL_TIME_OFFSET (0, $, .AHEAD.);
#308 = LOCAL_TIME (13, 18, 43., #307);
#309 = DATE_AND_TIME (#306, #308);
#310 = APPROVAL_DATE_TIME (#309, #305);
#311 = APPROVAL_ROLE ('');
#312 = PERSON ('', '', $, $, $, $);
#313 = ORGANIZATION ($, '', '');
#314 = PERSON_AND_ORGANIZATION (#312, #313);
#315 = APPROVAL_PERSON_ORGANIZATION (#314, #305, #311);
#316 = CC_DESIGN_APPROVAL (#305, (#303));
#317 = DATE_TIME_ROLE ('creation_date');
#318 = CALENDAR_DATE (2020, 22, 4);
#319 = COORDINATED_UNIVERSAL_TIME_OFFSET (0, $, .AHEAD.);
#320 = LOCAL_TIME (13, 18, 43., #319);
#321 = DATE_AND_TIME (#318, #320);
#322 = CC_DESIGN_DATE_AND_TIME_ASSIGNMENT (#321, #317, (#303));
#323 = PERSON_AND_ORGANIZATION_ROLE ('creator');
#324 = PERSON ('', '', $, $, $, $);
#325 = ORGANIZATION ($, '', '');
#326 = PERSON_AND_ORGANIZATION (#324, #325);
#327 = CC_DESIGN_PERSON_AND_ORGANIZATION_ASSIGNMENT (#326, #323, (#303));
#328 = PRODUCT_DEFINITION_SHAPE ('', '', #303);
#329 = SHAPE_DEFINITION_REPRESENTATION (#328, #240);
#330 = SHAPE_REPRESENTATION_RELATIONSHIP ('', '', #240, #331);
#331 = ADVANCED_BREP_SHAPE_REPRESENTATION ('', (#234), #239);
ENDSEC;
END-ISO-10303-21;
