ISO-10303-21;
HEADER;
FILE_DESCRIPTION ((), '1');
FILE_NAME ('C:\\OneCNC-XR7\\Mill 3D Expert\\Drawings\\180R\\180 1200-4_0RB.STP', '2020-04-22T13:21:07', ('Unknown'), ('Ma Ford Europe Ltd.'), 'OneCNC-XR7 Mill 3D Expert', 'OneCNC-XR7 Mill 3D Expert', '');
FILE_SCHEMA (('CONFIG_CONTROL_DESIGN'));
ENDSEC;

DATA;
#1 = CARTESIAN_POINT ('', (-1.22464679914735E-16, 7.49879891330929E-33, -7.49879891330929E-33));
#2 = VERTEX_POINT ('', #1);
#3 = CARTESIAN_POINT ('', (2.46519032881566E-32, 2., -4.89858719658941E-16));
#4 = VERTEX_POINT ('', #3);
#5 = CARTESIAN_POINT ('', (-1.22464679914735E-16, 7.49879891330929E-33, -7.49879891330929E-33));
#6 = CARTESIAN_POINT ('', (2.46519032881566E-32, 2., -4.89858719658941E-16));
#7 = B_SPLINE_CURVE_WITH_KNOTS ('', 1, (#5, #6), .UNSPECIFIED., .F., .U., (2, 2), (0., 1.), .UNSPECIFIED.);
#8 = EDGE_CURVE ('', #2, #4, #7, .T.);
#9 = ORIENTED_EDGE ('', *, *, #8, .F.);
#10 = ORIENTED_EDGE ('', *, *, #8, .T.);
#11 = CARTESIAN_POINT ('', (2.46519032881566E-32, 2., -4.89858719658941E-16));
#12 = CARTESIAN_POINT ('', (-4.89858719658941E-16, 2., 8.));
#13 = CARTESIAN_POINT ('', (-7.34788079488412E-16, -6., 4.));
#14 = CARTESIAN_POINT ('', (-2.44929359829471E-16, -6., -4.));
#15 = CARTESIAN_POINT ('', (4.89858719658941E-16, 2., -8.));
#16 = CARTESIAN_POINT ('', (2.46519032881566E-32, 2., -4.89858719658941E-16));
#17 = (
   BOUNDED_CURVE ()
   B_SPLINE_CURVE (5, (#11, #12, #13, #14, #15, #16), .UNSPECIFIED., .T., .U.)
   B_SPLINE_CURVE_WITH_KNOTS ((6, 6), (0., 1.), .UNSPECIFIED.)
   CURVE ()
   GEOMETRIC_REPRESENTATION_ITEM ()
   RATIONAL_B_SPLINE_CURVE ((5., 1., 1., 1., 1., 5.))
   REPRESENTATION_ITEM ('')
);
#18 = EDGE_CURVE ('', #4, #4, #17, .T.);
#19 = ORIENTED_EDGE ('', *, *, #18, .F.);
#20 = EDGE_LOOP ('', (#9, #10, #19));
#21 = FACE_OUTER_BOUND ('', #20, .F.);
#22 = CARTESIAN_POINT ('', (-1.22464679914735E-16, 7.49879891330929E-33, -7.49879891330929E-33));
#23 = CARTESIAN_POINT ('', (2.46519032881566E-32, 2., -4.89858719658941E-16));
#24 = CARTESIAN_POINT ('', (-1.22464679914735E-16, 7.49879891330929E-33, -7.49879891330929E-33));
#25 = CARTESIAN_POINT ('', (-4.89858719658941E-16, 2., 8.));
#26 = CARTESIAN_POINT ('', (-1.22464679914735E-16, 7.49879891330929E-33, -7.49879891330929E-33));
#27 = CARTESIAN_POINT ('', (-7.34788079488412E-16, -6., 4.));
#28 = CARTESIAN_POINT ('', (-1.22464679914735E-16, 7.49879891330929E-33, -7.49879891330929E-33));
#29 = CARTESIAN_POINT ('', (-2.44929359829471E-16, -6., -4.));
#30 = CARTESIAN_POINT ('', (-1.22464679914735E-16, 7.49879891330929E-33, -7.49879891330929E-33));
#31 = CARTESIAN_POINT ('', (4.89858719658941E-16, 2., -8.));
#32 = CARTESIAN_POINT ('', (-1.22464679914735E-16, 7.49879891330929E-33, -7.49879891330929E-33));
#33 = CARTESIAN_POINT ('', (2.46519032881566E-32, 2., -4.89858719658941E-16));
#34 = (
   BOUNDED_SURFACE ()
   B_SPLINE_SURFACE (5, 1, ((#22, #23), (#24, #25), (#26, #27), (#28, #29), (#30, #31), (#32, #33)), .UNSPECIFIED., .T., .F., .U.)
   B_SPLINE_SURFACE_WITH_KNOTS ((6, 6), (2, 2), (0., 1.), (0., 1.), .UNSPECIFIED.)
   SURFACE ()
   GEOMETRIC_REPRESENTATION_ITEM ()
   RATIONAL_B_SPLINE_SURFACE (((5., 5.), (1., 1.), (1., 1.), (1., 1.), (1., 1.), (5., 5.)))
   REPRESENTATION_ITEM ('')
);
#35 = ADVANCED_FACE ('', (#21), #34, .F.);
#36 = CARTESIAN_POINT ('', (-4., 6., -1.46957615897682E-15));
#37 = VERTEX_POINT ('', #36);
#38 = CARTESIAN_POINT ('', (2.46519032881566E-32, 2., -4.89858719658941E-16));
#39 = CARTESIAN_POINT ('', (2.46519032881566E-32, 2.43702151111891, -5.96898118609003E-16));
#40 = CARTESIAN_POINT ('', (-0.116683876452364, 3.14091301872741, -7.69301814956956E-16));
#41 = CARTESIAN_POINT ('', (-0.582193405129631, 4.16155872328221, -1.01928791398626E-15));
#42 = CARTESIAN_POINT ('', (-1.19072420123981, 4.91008724141034, -1.20262452474549E-15));
#43 = CARTESIAN_POINT ('', (-1.9646083768703, 5.47535054676717, -1.34107410426162E-15));
#44 = CARTESIAN_POINT ('', (-2.85908698127258, 5.88331612354763, -1.44099685181492E-15));
#45 = CARTESIAN_POINT ('', (-3.5629784888811, 6., -1.46957615897682E-15));
#46 = CARTESIAN_POINT ('', (-4., 6., -1.46957615897682E-15));
#47 = B_SPLINE_CURVE_WITH_KNOTS ('', 3, (#38, #39, #40, #41, #42, #43, #44, #45, #46), .UNSPECIFIED., .F., .U., (4, 1, 1, 1, 1, 1, 4), (0., 0.208662401196191, 0.33617370428258, 0.532939663384363, 0.66382629571742, 0.791337598803809, 1.), .UNSPECIFIED.);
#48 = EDGE_CURVE ('', #4, #37, #47, .T.);
#49 = ORIENTED_EDGE ('', *, *, #48, .F.);
#50 = ORIENTED_EDGE ('', *, *, #18, .T.);
#51 = ORIENTED_EDGE ('', *, *, #48, .T.);
#52 = CARTESIAN_POINT ('', (-4., 6., -1.46957615897682E-15));
#53 = CARTESIAN_POINT ('', (-4., 6.00000000000001, 24.));
#54 = CARTESIAN_POINT ('', (-4., -18., 12.));
#55 = CARTESIAN_POINT ('', (-4., -18., -12.));
#56 = CARTESIAN_POINT ('', (-4., 5.99999999999999, -24.));
#57 = CARTESIAN_POINT ('', (-4., 6., -1.46957615897682E-15));
#58 = (
   BOUNDED_CURVE ()
   B_SPLINE_CURVE (5, (#52, #53, #54, #55, #56, #57), .UNSPECIFIED., .T., .U.)
   B_SPLINE_CURVE_WITH_KNOTS ((6, 6), (0., 1.), .UNSPECIFIED.)
   CURVE ()
   GEOMETRIC_REPRESENTATION_ITEM ()
   RATIONAL_B_SPLINE_CURVE ((5., 1., 1., 1., 1., 5.))
   REPRESENTATION_ITEM ('')
);
#59 = EDGE_CURVE ('', #37, #37, #58, .T.);
#60 = ORIENTED_EDGE ('', *, *, #59, .F.);
#61 = EDGE_LOOP ('', (#49, #50, #51, #60));
#62 = FACE_OUTER_BOUND ('', #61, .F.);
#63 = CARTESIAN_POINT ('', (2.46519032881566E-32, 2., -4.89858719658941E-16));
#64 = CARTESIAN_POINT ('', (2.46519032881566E-32, 2.43702151111891, -5.96898118609003E-16));
#65 = CARTESIAN_POINT ('', (-0.116683876452364, 3.14091301872741, -7.69301814956956E-16));
#66 = CARTESIAN_POINT ('', (-0.582193405129631, 4.16155872328221, -1.01928791398626E-15));
#67 = CARTESIAN_POINT ('', (-1.19072420123981, 4.91008724141034, -1.20262452474549E-15));
#68 = CARTESIAN_POINT ('', (-1.9646083768703, 5.47535054676717, -1.34107410426162E-15));
#69 = CARTESIAN_POINT ('', (-2.85908698127258, 5.88331612354763, -1.44099685181492E-15));
#70 = CARTESIAN_POINT ('', (-3.5629784888811, 6., -1.46957615897682E-15));
#71 = CARTESIAN_POINT ('', (-4., 6., -1.46957615897682E-15));
#72 = CARTESIAN_POINT ('', (-4.89858719658941E-16, 2., 8.));
#73 = CARTESIAN_POINT ('', (-5.96898118609003E-16, 2.43702151111891, 9.74808604447563));
#74 = CARTESIAN_POINT ('', (-0.116683876452365, 3.14091301872742, 12.5636520749097));
#75 = CARTESIAN_POINT ('', (-0.582193405129632, 4.16155872328221, 16.6462348931288));
#76 = CARTESIAN_POINT ('', (-1.19072420123981, 4.91008724141034, 19.6403489656413));
#77 = CARTESIAN_POINT ('', (-1.96460837687031, 5.47535054676717, 21.9014021870687));
#78 = CARTESIAN_POINT ('', (-2.85908698127258, 5.88331612354764, 23.5332644941905));
#79 = CARTESIAN_POINT ('', (-3.5629784888811, 6.00000000000001, 24.));
#80 = CARTESIAN_POINT ('', (-4., 6.00000000000001, 24.));
#81 = CARTESIAN_POINT ('', (-7.34788079488412E-16, -6., 4.));
#82 = CARTESIAN_POINT ('', (-8.95347177913504E-16, -7.31106453335672, 4.87404302223781));
#83 = CARTESIAN_POINT ('', (-0.116683876452365, -9.42273905618224, 6.28182603745483));
#84 = CARTESIAN_POINT ('', (-0.582193405129632, -12.4846761698466, 8.32311744656443));
#85 = CARTESIAN_POINT ('', (-1.19072420123981, -14.730261724231, 9.82017448282068));
#86 = CARTESIAN_POINT ('', (-1.96460837687031, -16.4260516403015, 10.9507010935343));
#87 = CARTESIAN_POINT ('', (-2.85908698127258, -17.6499483706429, 11.7666322470953));
#88 = CARTESIAN_POINT ('', (-3.5629784888811, -18., 12.));
#89 = CARTESIAN_POINT ('', (-4., -18., 12.));
#90 = CARTESIAN_POINT ('', (-2.44929359829471E-16, -6., -4.));
#91 = CARTESIAN_POINT ('', (-2.98449059304502E-16, -7.31106453335672, -4.87404302223781));
#92 = CARTESIAN_POINT ('', (-0.116683876452365, -9.42273905618224, -6.28182603745483));
#93 = CARTESIAN_POINT ('', (-0.582193405129631, -12.4846761698466, -8.32311744656442));
#94 = CARTESIAN_POINT ('', (-1.19072420123981, -14.730261724231, -9.82017448282067));
#95 = CARTESIAN_POINT ('', (-1.96460837687031, -16.4260516403015, -10.9507010935343));
#96 = CARTESIAN_POINT ('', (-2.85908698127258, -17.6499483706429, -11.7666322470953));
#97 = CARTESIAN_POINT ('', (-3.5629784888811, -18., -12.));
#98 = CARTESIAN_POINT ('', (-4., -18., -12.));
#99 = CARTESIAN_POINT ('', (4.89858719658941E-16, 2., -8.));
#100 = CARTESIAN_POINT ('', (5.96898118609003E-16, 2.4370215111189, -9.74808604447563));
#101 = CARTESIAN_POINT ('', (-0.116683876452363, 3.14091301872741, -12.5636520749097));
#102 = CARTESIAN_POINT ('', (-0.58219340512963, 4.16155872328221, -16.6462348931288));
#103 = CARTESIAN_POINT ('', (-1.19072420123981, 4.91008724141033, -19.6403489656413));
#104 = CARTESIAN_POINT ('', (-1.9646083768703, 5.47535054676716, -21.9014021870687));
#105 = CARTESIAN_POINT ('', (-2.85908698127258, 5.88331612354763, -23.5332644941905));
#106 = CARTESIAN_POINT ('', (-3.56297848888109, 5.99999999999999, -24.));
#107 = CARTESIAN_POINT ('', (-4., 5.99999999999999, -24.));
#108 = CARTESIAN_POINT ('', (2.46519032881566E-32, 2., -4.89858719658941E-16));
#109 = CARTESIAN_POINT ('', (2.46519032881566E-32, 2.43702151111891, -5.96898118609003E-16));
#110 = CARTESIAN_POINT ('', (-0.116683876452364, 3.14091301872741, -7.69301814956956E-16));
#111 = CARTESIAN_POINT ('', (-0.582193405129631, 4.16155872328221, -1.01928791398626E-15));
#112 = CARTESIAN_POINT ('', (-1.19072420123981, 4.91008724141034, -1.20262452474549E-15));
#113 = CARTESIAN_POINT ('', (-1.9646083768703, 5.47535054676717, -1.34107410426162E-15));
#114 = CARTESIAN_POINT ('', (-2.85908698127258, 5.88331612354763, -1.44099685181492E-15));
#115 = CARTESIAN_POINT ('', (-3.5629784888811, 6., -1.46957615897682E-15));
#116 = CARTESIAN_POINT ('', (-4., 6., -1.46957615897682E-15));
#117 = (
   BOUNDED_SURFACE ()
   B_SPLINE_SURFACE (5, 3, ((#63, #64, #65, #66, #67, #68, #69, #70, #71), (#72, #73, #74, #75, #76, #77, #78, #79, #80), (#81, #82, #83, #84, #85, #86, #87, #88, #89), (#90, #91, #92, #93, #94, #95, #96, #97, #98), (#99, #100, #101, #102, #103, #104, #105, #106, #107), (#108, #109, #110, #111, #112, #113, #114, #115, #116)), .UNSPECIFIED., .T., .F., .U.)
   B_SPLINE_SURFACE_WITH_KNOTS ((6, 6), (4, 1, 1, 1, 1, 1, 4), (0., 1.), (0., 0.208662401196191, 0.33617370428258, 0.532939663384363, 0.66382629571742, 0.791337598803809, 1.), .UNSPECIFIED.)
   SURFACE ()
   GEOMETRIC_REPRESENTATION_ITEM ()
   RATIONAL_B_SPLINE_SURFACE (((5., 5., 5., 5., 5., 5., 5., 5., 5.), (1., 1., 1., 1., 1., 1., 1., 1., 1.), (1., 1., 1., 1., 1., 1., 1., 1., 1.), (1., 1., 1., 1., 1., 1., 1., 1., 1.), (1., 1., 1., 1., 1., 1., 1., 1., 1.), (5., 5., 5., 5., 5., 5., 5., 5., 5.)))
   REPRESENTATION_ITEM ('')
);
#118 = ADVANCED_FACE ('', (#62), #117, .F.);
#119 = CARTESIAN_POINT ('', (-83.75, 6.00000000000001, -1.46957615897682E-15));
#120 = VERTEX_POINT ('', #119);
#121 = CARTESIAN_POINT ('', (-4., 6., -1.46957615897682E-15));
#122 = CARTESIAN_POINT ('', (-30.5833333333333, 6., -1.46957615897682E-15));
#123 = CARTESIAN_POINT ('', (-57.1666666666664, 5.99999999999999, -1.46957615897682E-15));
#124 = CARTESIAN_POINT ('', (-83.75, 6.00000000000001, -1.46957615897682E-15));
#125 = B_SPLINE_CURVE_WITH_KNOTS ('', 3, (#121, #122, #123, #124), .UNSPECIFIED., .F., .U., (4, 4), (0., 1.), .UNSPECIFIED.);
#126 = EDGE_CURVE ('', #37, #120, #125, .T.);
#127 = ORIENTED_EDGE ('', *, *, #126, .F.);
#128 = ORIENTED_EDGE ('', *, *, #59, .T.);
#129 = ORIENTED_EDGE ('', *, *, #126, .T.);
#130 = CARTESIAN_POINT ('', (-83.75, 6.00000000000001, -1.46957615897682E-15));
#131 = CARTESIAN_POINT ('', (-83.75, 5.99999999999999, 24.));
#132 = CARTESIAN_POINT ('', (-83.75, -18., 12.));
#133 = CARTESIAN_POINT ('', (-83.75, -18., -12.));
#134 = CARTESIAN_POINT ('', (-83.75, 6.00000000000002, -24.));
#135 = CARTESIAN_POINT ('', (-83.75, 6.00000000000001, -1.46957615897682E-15));
#136 = (
   BOUNDED_CURVE ()
   B_SPLINE_CURVE (5, (#130, #131, #132, #133, #134, #135), .UNSPECIFIED., .T., .U.)
   B_SPLINE_CURVE_WITH_KNOTS ((6, 6), (0., 1.), .UNSPECIFIED.)
   CURVE ()
   GEOMETRIC_REPRESENTATION_ITEM ()
   RATIONAL_B_SPLINE_CURVE ((5., 1., 1., 1., 1., 5.))
   REPRESENTATION_ITEM ('')
);
#137 = EDGE_CURVE ('', #120, #120, #136, .T.);
#138 = ORIENTED_EDGE ('', *, *, #137, .F.);
#139 = EDGE_LOOP ('', (#127, #128, #129, #138));
#140 = FACE_OUTER_BOUND ('', #139, .F.);
#141 = CARTESIAN_POINT ('', (-4., 6., -1.46957615897682E-15));
#142 = CARTESIAN_POINT ('', (-30.5833333333333, 6., -1.46957615897682E-15));
#143 = CARTESIAN_POINT ('', (-57.1666666666664, 5.99999999999999, -1.46957615897682E-15));
#144 = CARTESIAN_POINT ('', (-83.75, 6.00000000000001, -1.46957615897682E-15));
#145 = CARTESIAN_POINT ('', (-4., 6.00000000000001, 24.));
#146 = CARTESIAN_POINT ('', (-30.5833333333333, 6., 24.));
#147 = CARTESIAN_POINT ('', (-57.1666666666664, 5.99999999999998, 24.));
#148 = CARTESIAN_POINT ('', (-83.75, 5.99999999999999, 24.));
#149 = CARTESIAN_POINT ('', (-4., -18., 12.));
#150 = CARTESIAN_POINT ('', (-30.5833333333333, -18., 12.));
#151 = CARTESIAN_POINT ('', (-57.1666666666664, -18., 12.));
#152 = CARTESIAN_POINT ('', (-83.75, -18., 12.));
#153 = CARTESIAN_POINT ('', (-4., -18., -12.));
#154 = CARTESIAN_POINT ('', (-30.5833333333333, -18., -12.));
#155 = CARTESIAN_POINT ('', (-57.1666666666664, -18., -12.));
#156 = CARTESIAN_POINT ('', (-83.75, -18., -12.));
#157 = CARTESIAN_POINT ('', (-4., 5.99999999999999, -24.));
#158 = CARTESIAN_POINT ('', (-30.5833333333333, 6., -24.));
#159 = CARTESIAN_POINT ('', (-57.1666666666664, 6., -24.));
#160 = CARTESIAN_POINT ('', (-83.75, 6.00000000000002, -24.));
#161 = CARTESIAN_POINT ('', (-4., 6., -1.46957615897682E-15));
#162 = CARTESIAN_POINT ('', (-30.5833333333333, 6., -1.46957615897682E-15));
#163 = CARTESIAN_POINT ('', (-57.1666666666664, 5.99999999999999, -1.46957615897682E-15));
#164 = CARTESIAN_POINT ('', (-83.75, 6.00000000000001, -1.46957615897682E-15));
#165 = (
   BOUNDED_SURFACE ()
   B_SPLINE_SURFACE (5, 3, ((#141, #142, #143, #144), (#145, #146, #147, #148), (#149, #150, #151, #152), (#153, #154, #155, #156), (#157, #158, #159, #160), (#161, #162, #163, #164)), .UNSPECIFIED., .T., .F., .U.)
   B_SPLINE_SURFACE_WITH_KNOTS ((6, 6), (4, 4), (0., 1.), (0., 1.), .UNSPECIFIED.)
   SURFACE ()
   GEOMETRIC_REPRESENTATION_ITEM ()
   RATIONAL_B_SPLINE_SURFACE (((5., 5., 5., 5.), (1., 1., 1., 1.), (1., 1., 1., 1.), (1., 1., 1., 1.), (1., 1., 1., 1.), (5., 5., 5., 5.)))
   REPRESENTATION_ITEM ('')
);
#166 = ADVANCED_FACE ('', (#140), #165, .F.);
#167 = CARTESIAN_POINT ('', (-84., 5.75000000000001, -1.40834381901946E-15));
#168 = VERTEX_POINT ('', #167);
#169 = CARTESIAN_POINT ('', (-84., 5.14351655641888E-15, -5.14351655641888E-15));
#170 = VERTEX_POINT ('', #169);
#171 = CARTESIAN_POINT ('', (-84., 5.75000000000001, -1.40834381901946E-15));
#172 = CARTESIAN_POINT ('', (-84., 5.14351655641888E-15, -5.14351655641888E-15));
#173 = B_SPLINE_CURVE_WITH_KNOTS ('', 1, (#171, #172), .UNSPECIFIED., .F., .U., (2, 2), (0., 1.), .UNSPECIFIED.);
#174 = EDGE_CURVE ('', #168, #170, #173, .T.);
#175 = ORIENTED_EDGE ('', *, *, #174, .F.);
#176 = CARTESIAN_POINT ('', (-84., 5.75000000000001, -1.40834381901946E-15));
#177 = CARTESIAN_POINT ('', (-84., 5.74999999999999, 23.));
#178 = CARTESIAN_POINT ('', (-84., -17.25, 11.5));
#179 = CARTESIAN_POINT ('', (-84., -17.25, -11.5));
#180 = CARTESIAN_POINT ('', (-84., 5.75000000000002, -23.));
#181 = CARTESIAN_POINT ('', (-84., 5.75000000000001, -1.40834381901946E-15));
#182 = (
   BOUNDED_CURVE ()
   B_SPLINE_CURVE (5, (#176, #177, #178, #179, #180, #181), .UNSPECIFIED., .T., .U.)
   B_SPLINE_CURVE_WITH_KNOTS ((6, 6), (0., 1.), .UNSPECIFIED.)
   CURVE ()
   GEOMETRIC_REPRESENTATION_ITEM ()
   RATIONAL_B_SPLINE_CURVE ((5., 1., 1., 1., 1., 5.))
   REPRESENTATION_ITEM ('')
);
#183 = EDGE_CURVE ('', #168, #168, #182, .T.);
#184 = ORIENTED_EDGE ('', *, *, #183, .T.);
#185 = ORIENTED_EDGE ('', *, *, #174, .T.);
#186 = EDGE_LOOP ('', (#175, #184, #185));
#187 = FACE_OUTER_BOUND ('', #186, .F.);
#188 = CARTESIAN_POINT ('', (-84., 5.75000000000001, -1.40834381901946E-15));
#189 = CARTESIAN_POINT ('', (-84., 5.14351655641888E-15, -5.14351655641888E-15));
#190 = CARTESIAN_POINT ('', (-84., 5.74999999999999, 23.));
#191 = CARTESIAN_POINT ('', (-84., 5.14351655641888E-15, -5.14351655641888E-15));
#192 = CARTESIAN_POINT ('', (-84., -17.25, 11.5));
#193 = CARTESIAN_POINT ('', (-84., 5.14351655641888E-15, -5.14351655641888E-15));
#194 = CARTESIAN_POINT ('', (-84., -17.25, -11.5));
#195 = CARTESIAN_POINT ('', (-84., 5.14351655641888E-15, -5.14351655641888E-15));
#196 = CARTESIAN_POINT ('', (-84., 5.75000000000002, -23.));
#197 = CARTESIAN_POINT ('', (-84., 5.14351655641888E-15, -5.14351655641888E-15));
#198 = CARTESIAN_POINT ('', (-84., 5.75000000000001, -1.40834381901946E-15));
#199 = CARTESIAN_POINT ('', (-84., 5.14351655641888E-15, -5.14351655641888E-15));
#200 = (
   BOUNDED_SURFACE ()
   B_SPLINE_SURFACE (5, 1, ((#188, #189), (#190, #191), (#192, #193), (#194, #195), (#196, #197), (#198, #199)), .UNSPECIFIED., .T., .F., .U.)
   B_SPLINE_SURFACE_WITH_KNOTS ((6, 6), (2, 2), (0., 1.), (0., 1.), .UNSPECIFIED.)
   SURFACE ()
   GEOMETRIC_REPRESENTATION_ITEM ()
   RATIONAL_B_SPLINE_SURFACE (((5., 5.), (1., 1.), (1., 1.), (1., 1.), (1., 1.), (5., 5.)))
   REPRESENTATION_ITEM ('')
);
#201 = ADVANCED_FACE ('', (#187), #200, .F.);
#202 = CARTESIAN_POINT ('', (-83.75, 6.00000000000001, -1.46957615897682E-15));
#203 = CARTESIAN_POINT ('', (-83.8333333333335, 5.91666666666667, -1.44916537899103E-15));
#204 = CARTESIAN_POINT ('', (-83.9166666666663, 5.83333333333335, -1.42875459900525E-15));
#205 = CARTESIAN_POINT ('', (-84., 5.75000000000001, -1.40834381901946E-15));
#206 = B_SPLINE_CURVE_WITH_KNOTS ('', 3, (#202, #203, #204, #205), .UNSPECIFIED., .F., .U., (4, 4), (0., 1.), .UNSPECIFIED.);
#207 = EDGE_CURVE ('', #120, #168, #206, .T.);
#208 = ORIENTED_EDGE ('', *, *, #207, .F.);
#209 = ORIENTED_EDGE ('', *, *, #137, .T.);
#210 = ORIENTED_EDGE ('', *, *, #207, .T.);
#211 = ORIENTED_EDGE ('', *, *, #183, .F.);
#212 = EDGE_LOOP ('', (#208, #209, #210, #211));
#213 = FACE_OUTER_BOUND ('', #212, .F.);
#214 = CARTESIAN_POINT ('', (-83.75, 6.00000000000001, -1.46957615897682E-15));
#215 = CARTESIAN_POINT ('', (-83.8333333333335, 5.91666666666667, -1.44916537899103E-15));
#216 = CARTESIAN_POINT ('', (-83.9166666666663, 5.83333333333335, -1.42875459900525E-15));
#217 = CARTESIAN_POINT ('', (-84., 5.75000000000001, -1.40834381901946E-15));
#218 = CARTESIAN_POINT ('', (-83.75, 5.99999999999999, 24.));
#219 = CARTESIAN_POINT ('', (-83.8333333333335, 5.91666666666665, 23.6666666666667));
#220 = CARTESIAN_POINT ('', (-83.9166666666663, 5.83333333333333, 23.3333333333334));
#221 = CARTESIAN_POINT ('', (-84., 5.74999999999999, 23.));
#222 = CARTESIAN_POINT ('', (-83.75, -18., 12.));
#223 = CARTESIAN_POINT ('', (-83.8333333333335, -17.75, 11.8333333333333));
#224 = CARTESIAN_POINT ('', (-83.9166666666663, -17.5, 11.6666666666667));
#225 = CARTESIAN_POINT ('', (-84., -17.25, 11.5));
#226 = CARTESIAN_POINT ('', (-83.75, -18., -12.));
#227 = CARTESIAN_POINT ('', (-83.8333333333335, -17.75, -11.8333333333333));
#228 = CARTESIAN_POINT ('', (-83.9166666666663, -17.5, -11.6666666666667));
#229 = CARTESIAN_POINT ('', (-84., -17.25, -11.5));
#230 = CARTESIAN_POINT ('', (-83.75, 6.00000000000002, -24.));
#231 = CARTESIAN_POINT ('', (-83.8333333333335, 5.91666666666668, -23.6666666666667));
#232 = CARTESIAN_POINT ('', (-83.9166666666663, 5.83333333333336, -23.3333333333334));
#233 = CARTESIAN_POINT ('', (-84., 5.75000000000002, -23.));
#234 = CARTESIAN_POINT ('', (-83.75, 6.00000000000001, -1.46957615897682E-15));
#235 = CARTESIAN_POINT ('', (-83.8333333333335, 5.91666666666667, -1.44916537899103E-15));
#236 = CARTESIAN_POINT ('', (-83.9166666666663, 5.83333333333335, -1.42875459900525E-15));
#237 = CARTESIAN_POINT ('', (-84., 5.75000000000001, -1.40834381901946E-15));
#238 = (
   BOUNDED_SURFACE ()
   B_SPLINE_SURFACE (5, 3, ((#214, #215, #216, #217), (#218, #219, #220, #221), (#222, #223, #224, #225), (#226, #227, #228, #229), (#230, #231, #232, #233), (#234, #235, #236, #237)), .UNSPECIFIED., .T., .F., .U.)
   B_SPLINE_SURFACE_WITH_KNOTS ((6, 6), (4, 4), (0., 1.), (0., 1.), .UNSPECIFIED.)
   SURFACE ()
   GEOMETRIC_REPRESENTATION_ITEM ()
   RATIONAL_B_SPLINE_SURFACE (((5., 5., 5., 5.), (1., 1., 1., 1.), (1., 1., 1., 1.), (1., 1., 1., 1.), (1., 1., 1., 1.), (5., 5., 5., 5.)))
   REPRESENTATION_ITEM ('')
);
#239 = ADVANCED_FACE ('', (#213), #238, .F.);
#240 = CLOSED_SHELL ('', (#35, #118, #166, #201, #239));
#241 = MANIFOLD_SOLID_BREP ('', #240);
#242 = (
   LENGTH_UNIT ()
   NAMED_UNIT (*)
   SI_UNIT (.MILLI., .METRE.)
);
#243 = (
   NAMED_UNIT (*)
   SI_UNIT ($, .STERADIAN.)
   SOLID_ANGLE_UNIT ()
);
#244 = (
   NAMED_UNIT (*)
   SI_UNIT ($, .RADIAN.)
   PLANE_ANGLE_UNIT ()
);
#245 = UNCERTAINTY_MEASURE_WITH_UNIT (LENGTH_MEASURE(0.001), #242, 'DISTANCE_ACCURACY_VALUE', '');
#246 = (
   GEOMETRIC_REPRESENTATION_CONTEXT (3)
   GLOBAL_UNCERTAINTY_ASSIGNED_CONTEXT ((#245))
   GLOBAL_UNIT_ASSIGNED_CONTEXT ((#242, #243, #244))
   REPRESENTATION_CONTEXT ('', '3D')
);
#247 = SHAPE_REPRESENTATION ('', (), #246);
#248 = APPLICATION_CONTEXT ('configuration controlled 3D designs of mechanical parts and assemblies');
#249 = APPLICATION_PROTOCOL_DEFINITION ('International Standard', 'config_control_design', 1997, #248);
#250 = MECHANICAL_CONTEXT ('', #248, 'mechanical');
#251 = PRODUCT ('', '', '', (#250));
#252 = PERSON_AND_ORGANIZATION_ROLE ('design_owner');
#253 = PERSON ('', '', $, $, $, $);
#254 = ORGANIZATION ($, '', '');
#255 = PERSON_AND_ORGANIZATION (#253, #254);
#256 = CC_DESIGN_PERSON_AND_ORGANIZATION_ASSIGNMENT (#255, #252, (#251));
#257 = PRODUCT_RELATED_PRODUCT_CATEGORY ('detail', $, (#251));
#258 = PRODUCT_DEFINITION_FORMATION_WITH_SPECIFIED_SOURCE ('', '', #251, .NOT_KNOWN.);
#259 = APPROVAL_STATUS ('approved');
#260 = APPROVAL (#259, '');
#261 = CALENDAR_DATE (2020, 22, 4);
#262 = COORDINATED_UNIVERSAL_TIME_OFFSET (0, $, .AHEAD.);
#263 = LOCAL_TIME (13, 21, 7., #262);
#264 = DATE_AND_TIME (#261, #263);
#265 = APPROVAL_DATE_TIME (#264, #260);
#266 = APPROVAL_ROLE ('');
#267 = PERSON ('', '', $, $, $, $);
#268 = ORGANIZATION ($, '', '');
#269 = PERSON_AND_ORGANIZATION (#267, #268);
#270 = APPROVAL_PERSON_ORGANIZATION (#269, #260, #266);
#271 = CC_DESIGN_APPROVAL (#260, (#258));
#272 = PERSON_AND_ORGANIZATION_ROLE ('creator');
#273 = PERSON ('', '', $, $, $, $);
#274 = ORGANIZATION ($, '', '');
#275 = PERSON_AND_ORGANIZATION (#273, #274);
#276 = CC_DESIGN_PERSON_AND_ORGANIZATION_ASSIGNMENT (#275, #272, (#258));
#277 = PERSON_AND_ORGANIZATION_ROLE ('part_supplier');
#278 = PERSON ('', '', $, $, $, $);
#279 = ORGANIZATION ($, '', '');
#280 = PERSON_AND_ORGANIZATION (#278, #279);
#281 = CC_DESIGN_PERSON_AND_ORGANIZATION_ASSIGNMENT (#280, #277, (#258));
#282 = SECURITY_CLASSIFICATION_LEVEL ('unclassified');
#283 = SECURITY_CLASSIFICATION ('', '', #282);
#284 = APPROVAL_STATUS ('approved');
#285 = APPROVAL (#284, '');
#286 = CALENDAR_DATE (2020, 22, 4);
#287 = COORDINATED_UNIVERSAL_TIME_OFFSET (0, $, .AHEAD.);
#288 = LOCAL_TIME (13, 21, 7., #287);
#289 = DATE_AND_TIME (#286, #288);
#290 = APPROVAL_DATE_TIME (#289, #285);
#291 = APPROVAL_ROLE ('');
#292 = PERSON ('', '', $, $, $, $);
#293 = ORGANIZATION ($, '', '');
#294 = PERSON_AND_ORGANIZATION (#292, #293);
#295 = APPROVAL_PERSON_ORGANIZATION (#294, #285, #291);
#296 = CC_DESIGN_APPROVAL (#285, (#283));
#297 = DATE_TIME_ROLE ('classification_date');
#298 = CALENDAR_DATE (2020, 22, 4);
#299 = COORDINATED_UNIVERSAL_TIME_OFFSET (0, $, .AHEAD.);
#300 = LOCAL_TIME (13, 21, 7., #299);
#301 = DATE_AND_TIME (#298, #300);
#302 = CC_DESIGN_DATE_AND_TIME_ASSIGNMENT (#301, #297, (#283));
#303 = PERSON_AND_ORGANIZATION_ROLE ('classification_officer');
#304 = PERSON ('', '', $, $, $, $);
#305 = ORGANIZATION ($, '', '');
#306 = PERSON_AND_ORGANIZATION (#304, #305);
#307 = CC_DESIGN_PERSON_AND_ORGANIZATION_ASSIGNMENT (#306, #303, (#283));
#308 = CC_DESIGN_SECURITY_CLASSIFICATION (#283, (#258));
#309 = DESIGN_CONTEXT ('', #248, 'design');
#310 = PRODUCT_DEFINITION ('', '', #258, #309);
#311 = APPROVAL_STATUS ('approved');
#312 = APPROVAL (#311, '');
#313 = CALENDAR_DATE (2020, 22, 4);
#314 = COORDINATED_UNIVERSAL_TIME_OFFSET (0, $, .AHEAD.);
#315 = LOCAL_TIME (13, 21, 7., #314);
#316 = DATE_AND_TIME (#313, #315);
#317 = APPROVAL_DATE_TIME (#316, #312);
#318 = APPROVAL_ROLE ('');
#319 = PERSON ('', '', $, $, $, $);
#320 = ORGANIZATION ($, '', '');
#321 = PERSON_AND_ORGANIZATION (#319, #320);
#322 = APPROVAL_PERSON_ORGANIZATION (#321, #312, #318);
#323 = CC_DESIGN_APPROVAL (#312, (#310));
#324 = DATE_TIME_ROLE ('creation_date');
#325 = CALENDAR_DATE (2020, 22, 4);
#326 = COORDINATED_UNIVERSAL_TIME_OFFSET (0, $, .AHEAD.);
#327 = LOCAL_TIME (13, 21, 7., #326);
#328 = DATE_AND_TIME (#325, #327);
#329 = CC_DESIGN_DATE_AND_TIME_ASSIGNMENT (#328, #324, (#310));
#330 = PERSON_AND_ORGANIZATION_ROLE ('creator');
#331 = PERSON ('', '', $, $, $, $);
#332 = ORGANIZATION ($, '', '');
#333 = PERSON_AND_ORGANIZATION (#331, #332);
#334 = CC_DESIGN_PERSON_AND_ORGANIZATION_ASSIGNMENT (#333, #330, (#310));
#335 = PRODUCT_DEFINITION_SHAPE ('', '', #310);
#336 = SHAPE_DEFINITION_REPRESENTATION (#335, #247);
#337 = SHAPE_REPRESENTATION_RELATIONSHIP ('', '', #247, #338);
#338 = ADVANCED_BREP_SHAPE_REPRESENTATION ('', (#241), #246);
ENDSEC;
END-ISO-10303-21;
