ISO-10303-21;
HEADER;
FILE_DESCRIPTION ((), '1');
FILE_NAME ('D:\\OneDrive - MAFord Europe\\Desktop\\250\\STEP\\250M01041B.STP', '2021-01-26T09:14:16', ('Unknown'), ('M. A. Ford Europe Ltd.'), 'OneCNC-XR8 Mill 3D Expert', 'OneCNC-XR8 Mill 3D Expert', '');
FILE_SCHEMA (('CONFIG_CONTROL_DESIGN'));
ENDSEC;

DATA;
#1 = CARTESIAN_POINT ('', (-0.5, 0.5, -1.22464679914735E-16));
#2 = VERTEX_POINT ('', #1);
#3 = CARTESIAN_POINT ('', (0., 0., 0.));
#4 = VERTEX_POINT ('', #3);
#5 = CARTESIAN_POINT ('', (-0.5, 0.5, -1.22464679914735E-16));
#6 = CARTESIAN_POINT ('', (-0.377723889808762, 0.5, -1.22464679914735E-16));
#7 = CARTESIAN_POINT ('', (-0.205021401527422, 0.432866673375725, -1.06021757201429E-16));
#8 = CARTESIAN_POINT ('', (-0.0379028087976891, 0.227301016933589, -5.56726925661315E-17));
#9 = CARTESIAN_POINT ('', (1.54074395550979E-33, 0.0880100699753519, -2.15562500976099E-17));
#10 = CARTESIAN_POINT ('', (0., 0., 0.));
#11 = B_SPLINE_CURVE_WITH_KNOTS ('', 3, (#5, #6, #7, #8, #9, #10), .UNSPECIFIED., .F., .U., (4, 1, 1, 4), (0., 0.467060336615637, 0.66382629571742, 1.), .UNSPECIFIED.);
#12 = EDGE_CURVE ('', #2, #4, #11, .T.);
#13 = ORIENTED_EDGE ('', *, *, #12, .F.);
#14 = CARTESIAN_POINT ('', (-0.5, 0.5, -1.22464679914735E-16));
#15 = CARTESIAN_POINT ('', (-0.5, 0.5, 2.));
#16 = CARTESIAN_POINT ('', (-0.5, -1.5, 1.));
#17 = CARTESIAN_POINT ('', (-0.5, -1.5, -1.));
#18 = CARTESIAN_POINT ('', (-0.5, 0.5, -2.));
#19 = CARTESIAN_POINT ('', (-0.5, 0.5, -1.22464679914735E-16));
#20 = (
   BOUNDED_CURVE ()
   B_SPLINE_CURVE (5, (#14, #15, #16, #17, #18, #19), .UNSPECIFIED., .T., .U.)
   B_SPLINE_CURVE_WITH_KNOTS ((6, 6), (0., 1.), .UNSPECIFIED.)
   CURVE ()
   GEOMETRIC_REPRESENTATION_ITEM ()
   RATIONAL_B_SPLINE_CURVE ((5., 1., 1., 1., 1., 5.))
   REPRESENTATION_ITEM ('')
);
#21 = EDGE_CURVE ('', #2, #2, #20, .T.);
#22 = ORIENTED_EDGE ('', *, *, #21, .T.);
#23 = ORIENTED_EDGE ('', *, *, #12, .T.);
#24 = EDGE_LOOP ('', (#13, #22, #23));
#25 = FACE_OUTER_BOUND ('', #24, .T.);
#26 = CARTESIAN_POINT ('', (-0.5, 0.5, -1.22464679914735E-16));
#27 = CARTESIAN_POINT ('', (-0.377723889808762, 0.5, -1.22464679914735E-16));
#28 = CARTESIAN_POINT ('', (-0.205021401527422, 0.432866673375725, -1.06021757201429E-16));
#29 = CARTESIAN_POINT ('', (-0.0379028087976891, 0.227301016933589, -5.56726925661315E-17));
#30 = CARTESIAN_POINT ('', (1.54074395550979E-33, 0.0880100699753519, -2.15562500976099E-17));
#31 = CARTESIAN_POINT ('', (0., 0., 0.));
#32 = CARTESIAN_POINT ('', (-0.5, 0.5, 2.));
#33 = CARTESIAN_POINT ('', (-0.377723889808763, 0.5, 2.));
#34 = CARTESIAN_POINT ('', (-0.205021401527423, 0.432866673375725, 1.7314666935029));
#35 = CARTESIAN_POINT ('', (-0.0379028087976891, 0.227301016933589, 0.909204067734355));
#36 = CARTESIAN_POINT ('', (-2.15562500976098E-17, 0.088010069975352, 0.352040279901408));
#37 = CARTESIAN_POINT ('', (0., 0., 0.));
#38 = CARTESIAN_POINT ('', (-0.5, -1.5, 1.));
#39 = CARTESIAN_POINT ('', (-0.377723889808763, -1.5, 1.));
#40 = CARTESIAN_POINT ('', (-0.205021401527423, -1.29860002012718, 0.865733346751451));
#41 = CARTESIAN_POINT ('', (-0.0379028087976891, -0.681903050800766, 0.454602033867178));
#42 = CARTESIAN_POINT ('', (-3.23343751464148E-17, -0.264030209926056, 0.176020139950704));
#43 = CARTESIAN_POINT ('', (0., 0., 0.));
#44 = CARTESIAN_POINT ('', (-0.5, -1.5, -1.));
#45 = CARTESIAN_POINT ('', (-0.377723889808762, -1.5, -1.));
#46 = CARTESIAN_POINT ('', (-0.205021401527422, -1.29860002012718, -0.86573334675145));
#47 = CARTESIAN_POINT ('', (-0.0379028087976891, -0.681903050800766, -0.454602033867177));
#48 = CARTESIAN_POINT ('', (-1.07781250488049E-17, -0.264030209926056, -0.176020139950704));
#49 = CARTESIAN_POINT ('', (0., 0., 0.));
#50 = CARTESIAN_POINT ('', (-0.5, 0.5, -2.));
#51 = CARTESIAN_POINT ('', (-0.377723889808762, 0.5, -2.));
#52 = CARTESIAN_POINT ('', (-0.205021401527422, 0.432866673375725, -1.7314666935029));
#53 = CARTESIAN_POINT ('', (-0.037902808797689, 0.227301016933588, -0.909204067734355));
#54 = CARTESIAN_POINT ('', (2.15562500976098E-17, 0.0880100699753518, -0.352040279901408));
#55 = CARTESIAN_POINT ('', (0., 0., 0.));
#56 = CARTESIAN_POINT ('', (-0.5, 0.5, -1.22464679914735E-16));
#57 = CARTESIAN_POINT ('', (-0.377723889808762, 0.5, -1.22464679914735E-16));
#58 = CARTESIAN_POINT ('', (-0.205021401527422, 0.432866673375725, -1.06021757201429E-16));
#59 = CARTESIAN_POINT ('', (-0.0379028087976891, 0.227301016933589, -5.56726925661315E-17));
#60 = CARTESIAN_POINT ('', (1.54074395550979E-33, 0.0880100699753519, -2.15562500976099E-17));
#61 = CARTESIAN_POINT ('', (0., 0., 0.));
#62 = (
   BOUNDED_SURFACE ()
   B_SPLINE_SURFACE (5, 3, ((#26, #27, #28, #29, #30, #31), (#32, #33, #34, #35, #36, #37), (#38, #39, #40, #41, #42, #43), (#44, #45, #46, #47, #48, #49), (#50, #51, #52, #53, #54, #55), (#56, #57, #58, #59, #60, #61)), .UNSPECIFIED., .T., .F., .U.)
   B_SPLINE_SURFACE_WITH_KNOTS ((6, 6), (4, 1, 1, 4), (0., 1.), (0., 0.467060336615637, 0.66382629571742, 1.), .UNSPECIFIED.)
   SURFACE ()
   GEOMETRIC_REPRESENTATION_ITEM ()
   RATIONAL_B_SPLINE_SURFACE (((5., 5., 5., 5., 5., 5.), (1., 1., 1., 1., 1., 1.), (1., 1., 1., 1., 1., 1.), (1., 1., 1., 1., 1., 1.), (1., 1., 1., 1., 1., 1.), (5., 5., 5., 5., 5., 5.)))
   REPRESENTATION_ITEM ('')
);
#63 = ADVANCED_FACE ('', (#25), #62, .T.);
#64 = CARTESIAN_POINT ('', (-2., 0.5, -1.22464679914735E-16));
#65 = VERTEX_POINT ('', #64);
#66 = CARTESIAN_POINT ('', (-2., 0.5, -1.22464679914735E-16));
#67 = CARTESIAN_POINT ('', (-1.5, 0.5, -1.22464679914735E-16));
#68 = CARTESIAN_POINT ('', (-1., 0.5, -1.22464679914735E-16));
#69 = CARTESIAN_POINT ('', (-0.5, 0.5, -1.22464679914735E-16));
#70 = B_SPLINE_CURVE_WITH_KNOTS ('', 3, (#66, #67, #68, #69), .UNSPECIFIED., .F., .U., (4, 4), (0., 1.), .UNSPECIFIED.);
#71 = EDGE_CURVE ('', #65, #2, #70, .T.);
#72 = ORIENTED_EDGE ('', *, *, #71, .F.);
#73 = CARTESIAN_POINT ('', (-2., 0.5, -1.22464679914735E-16));
#74 = CARTESIAN_POINT ('', (-2., 0.5, 2.));
#75 = CARTESIAN_POINT ('', (-2., -1.5, 1.));
#76 = CARTESIAN_POINT ('', (-2., -1.5, -1.));
#77 = CARTESIAN_POINT ('', (-2., 0.5, -2.));
#78 = CARTESIAN_POINT ('', (-2., 0.5, -1.22464679914735E-16));
#79 = (
   BOUNDED_CURVE ()
   B_SPLINE_CURVE (5, (#73, #74, #75, #76, #77, #78), .UNSPECIFIED., .T., .U.)
   B_SPLINE_CURVE_WITH_KNOTS ((6, 6), (0., 1.), .UNSPECIFIED.)
   CURVE ()
   GEOMETRIC_REPRESENTATION_ITEM ()
   RATIONAL_B_SPLINE_CURVE ((5., 1., 1., 1., 1., 5.))
   REPRESENTATION_ITEM ('')
);
#80 = EDGE_CURVE ('', #65, #65, #79, .T.);
#81 = ORIENTED_EDGE ('', *, *, #80, .T.);
#82 = ORIENTED_EDGE ('', *, *, #71, .T.);
#83 = ORIENTED_EDGE ('', *, *, #21, .F.);
#84 = EDGE_LOOP ('', (#72, #81, #82, #83));
#85 = FACE_OUTER_BOUND ('', #84, .T.);
#86 = CARTESIAN_POINT ('', (-2., 0.5, -1.22464679914735E-16));
#87 = CARTESIAN_POINT ('', (-1.5, 0.5, -1.22464679914735E-16));
#88 = CARTESIAN_POINT ('', (-1., 0.5, -1.22464679914735E-16));
#89 = CARTESIAN_POINT ('', (-0.5, 0.5, -1.22464679914735E-16));
#90 = CARTESIAN_POINT ('', (-2., 0.5, 2.));
#91 = CARTESIAN_POINT ('', (-1.5, 0.5, 2.));
#92 = CARTESIAN_POINT ('', (-1., 0.5, 2.));
#93 = CARTESIAN_POINT ('', (-0.5, 0.5, 2.));
#94 = CARTESIAN_POINT ('', (-2., -1.5, 1.));
#95 = CARTESIAN_POINT ('', (-1.5, -1.5, 1.));
#96 = CARTESIAN_POINT ('', (-1., -1.5, 1.));
#97 = CARTESIAN_POINT ('', (-0.5, -1.5, 1.));
#98 = CARTESIAN_POINT ('', (-2., -1.5, -1.));
#99 = CARTESIAN_POINT ('', (-1.5, -1.5, -1.));
#100 = CARTESIAN_POINT ('', (-1., -1.5, -1.));
#101 = CARTESIAN_POINT ('', (-0.5, -1.5, -1.));
#102 = CARTESIAN_POINT ('', (-2., 0.5, -2.));
#103 = CARTESIAN_POINT ('', (-1.5, 0.5, -2.));
#104 = CARTESIAN_POINT ('', (-1., 0.5, -2.));
#105 = CARTESIAN_POINT ('', (-0.5, 0.5, -2.));
#106 = CARTESIAN_POINT ('', (-2., 0.5, -1.22464679914735E-16));
#107 = CARTESIAN_POINT ('', (-1.5, 0.5, -1.22464679914735E-16));
#108 = CARTESIAN_POINT ('', (-1., 0.5, -1.22464679914735E-16));
#109 = CARTESIAN_POINT ('', (-0.5, 0.5, -1.22464679914735E-16));
#110 = (
   BOUNDED_SURFACE ()
   B_SPLINE_SURFACE (5, 3, ((#86, #87, #88, #89), (#90, #91, #92, #93), (#94, #95, #96, #97), (#98, #99, #100, #101), (#102, #103, #104, #105), (#106, #107, #108, #109)), .UNSPECIFIED., .T., .F., .U.)
   B_SPLINE_SURFACE_WITH_KNOTS ((6, 6), (4, 4), (0., 1.), (0., 1.), .UNSPECIFIED.)
   SURFACE ()
   GEOMETRIC_REPRESENTATION_ITEM ()
   RATIONAL_B_SPLINE_SURFACE (((5., 5., 5., 5.), (1., 1., 1., 1.), (1., 1., 1., 1.), (1., 1., 1., 1.), (1., 1., 1., 1.), (5., 5., 5., 5.)))
   REPRESENTATION_ITEM ('')
);
#111 = ADVANCED_FACE ('', (#85), #110, .T.);
#112 = CARTESIAN_POINT ('', (-9.71683102395546, 2., -4.89858719658941E-16));
#113 = VERTEX_POINT ('', #112);
#114 = CARTESIAN_POINT ('', (-9.71683102395546, 2., -4.89858719658941E-16));
#115 = CARTESIAN_POINT ('', (-7.14455401597028, 1.5, -3.67394039744207E-16));
#116 = CARTESIAN_POINT ('', (-4.57227700798515, 1., -2.44929359829471E-16));
#117 = CARTESIAN_POINT ('', (-2., 0.5, -1.22464679914735E-16));
#118 = B_SPLINE_CURVE_WITH_KNOTS ('', 3, (#114, #115, #116, #117), .UNSPECIFIED., .F., .U., (4, 4), (0., 1.), .UNSPECIFIED.);
#119 = EDGE_CURVE ('', #113, #65, #118, .T.);
#120 = ORIENTED_EDGE ('', *, *, #119, .F.);
#121 = CARTESIAN_POINT ('', (-9.71683102395546, 2., -4.89858719658941E-16));
#122 = CARTESIAN_POINT ('', (-9.71683102395546, 2., 8.));
#123 = CARTESIAN_POINT ('', (-9.71683102395546, -6., 4.));
#124 = CARTESIAN_POINT ('', (-9.71683102395546, -6., -4.));
#125 = CARTESIAN_POINT ('', (-9.71683102395546, 2., -8.));
#126 = CARTESIAN_POINT ('', (-9.71683102395546, 2., -4.89858719658941E-16));
#127 = (
   BOUNDED_CURVE ()
   B_SPLINE_CURVE (5, (#121, #122, #123, #124, #125, #126), .UNSPECIFIED., .T., .U.)
   B_SPLINE_CURVE_WITH_KNOTS ((6, 6), (0., 1.), .UNSPECIFIED.)
   CURVE ()
   GEOMETRIC_REPRESENTATION_ITEM ()
   RATIONAL_B_SPLINE_CURVE ((5., 1., 1., 1., 1., 5.))
   REPRESENTATION_ITEM ('')
);
#128 = EDGE_CURVE ('', #113, #113, #127, .T.);
#129 = ORIENTED_EDGE ('', *, *, #128, .T.);
#130 = ORIENTED_EDGE ('', *, *, #119, .T.);
#131 = ORIENTED_EDGE ('', *, *, #80, .F.);
#132 = EDGE_LOOP ('', (#120, #129, #130, #131));
#133 = FACE_OUTER_BOUND ('', #132, .T.);
#134 = CARTESIAN_POINT ('', (-9.71683102395546, 2., -4.89858719658941E-16));
#135 = CARTESIAN_POINT ('', (-7.14455401597028, 1.5, -3.67394039744207E-16));
#136 = CARTESIAN_POINT ('', (-4.57227700798515, 1., -2.44929359829471E-16));
#137 = CARTESIAN_POINT ('', (-2., 0.5, -1.22464679914735E-16));
#138 = CARTESIAN_POINT ('', (-9.71683102395546, 2., 8.));
#139 = CARTESIAN_POINT ('', (-7.14455401597028, 1.5, 6.00000000000001));
#140 = CARTESIAN_POINT ('', (-4.57227700798515, 1., 4.));
#141 = CARTESIAN_POINT ('', (-2., 0.5, 2.));
#142 = CARTESIAN_POINT ('', (-9.71683102395546, -6., 4.));
#143 = CARTESIAN_POINT ('', (-7.14455401597028, -4.50000000000001, 3.00000000000001));
#144 = CARTESIAN_POINT ('', (-4.57227700798515, -3., 2.));
#145 = CARTESIAN_POINT ('', (-2., -1.5, 1.));
#146 = CARTESIAN_POINT ('', (-9.71683102395546, -6., -4.));
#147 = CARTESIAN_POINT ('', (-7.14455401597028, -4.50000000000001, -3.00000000000001));
#148 = CARTESIAN_POINT ('', (-4.57227700798515, -3., -2.));
#149 = CARTESIAN_POINT ('', (-2., -1.5, -1.));
#150 = CARTESIAN_POINT ('', (-9.71683102395546, 2., -8.));
#151 = CARTESIAN_POINT ('', (-7.14455401597028, 1.5, -6.00000000000001));
#152 = CARTESIAN_POINT ('', (-4.57227700798515, 1., -4.));
#153 = CARTESIAN_POINT ('', (-2., 0.5, -2.));
#154 = CARTESIAN_POINT ('', (-9.71683102395546, 2., -4.89858719658941E-16));
#155 = CARTESIAN_POINT ('', (-7.14455401597028, 1.5, -3.67394039744207E-16));
#156 = CARTESIAN_POINT ('', (-4.57227700798515, 1., -2.44929359829471E-16));
#157 = CARTESIAN_POINT ('', (-2., 0.5, -1.22464679914735E-16));
#158 = (
   BOUNDED_SURFACE ()
   B_SPLINE_SURFACE (5, 3, ((#134, #135, #136, #137), (#138, #139, #140, #141), (#142, #143, #144, #145), (#146, #147, #148, #149), (#150, #151, #152, #153), (#154, #155, #156, #157)), .UNSPECIFIED., .T., .F., .U.)
   B_SPLINE_SURFACE_WITH_KNOTS ((6, 6), (4, 4), (0., 1.), (0., 1.), .UNSPECIFIED.)
   SURFACE ()
   GEOMETRIC_REPRESENTATION_ITEM ()
   RATIONAL_B_SPLINE_SURFACE (((5., 5., 5., 5.), (1., 1., 1., 1.), (1., 1., 1., 1.), (1., 1., 1., 1.), (1., 1., 1., 1.), (5., 5., 5., 5.)))
   REPRESENTATION_ITEM ('')
);
#159 = ADVANCED_FACE ('', (#133), #158, .T.);
#160 = CARTESIAN_POINT ('', (-49.75, 2., -4.89858719658941E-16));
#161 = VERTEX_POINT ('', #160);
#162 = CARTESIAN_POINT ('', (-49.75, 2., -4.89858719658941E-16));
#163 = CARTESIAN_POINT ('', (-36.4056103413186, 2., -4.89858719658941E-16));
#164 = CARTESIAN_POINT ('', (-23.061220682637, 2., -4.89858719658941E-16));
#165 = CARTESIAN_POINT ('', (-9.71683102395546, 2., -4.89858719658941E-16));
#166 = B_SPLINE_CURVE_WITH_KNOTS ('', 3, (#162, #163, #164, #165), .UNSPECIFIED., .F., .U., (4, 4), (0., 1.), .UNSPECIFIED.);
#167 = EDGE_CURVE ('', #161, #113, #166, .T.);
#168 = ORIENTED_EDGE ('', *, *, #167, .F.);
#169 = CARTESIAN_POINT ('', (-49.75, 2., -4.89858719658941E-16));
#170 = CARTESIAN_POINT ('', (-49.75, 1.99999999999999, 7.99999999999999));
#171 = CARTESIAN_POINT ('', (-49.75, -5.99999999999999, 3.99999999999998));
#172 = CARTESIAN_POINT ('', (-49.75, -5.99999999999998, -4.));
#173 = CARTESIAN_POINT ('', (-49.75, 2.00000000000001, -7.99999999999999));
#174 = CARTESIAN_POINT ('', (-49.75, 2., -4.89858719658941E-16));
#175 = (
   BOUNDED_CURVE ()
   B_SPLINE_CURVE (5, (#169, #170, #171, #172, #173, #174), .UNSPECIFIED., .T., .U.)
   B_SPLINE_CURVE_WITH_KNOTS ((6, 6), (0., 1.), .UNSPECIFIED.)
   CURVE ()
   GEOMETRIC_REPRESENTATION_ITEM ()
   RATIONAL_B_SPLINE_CURVE ((5., 1., 1., 1., 1., 5.))
   REPRESENTATION_ITEM ('')
);
#176 = EDGE_CURVE ('', #161, #161, #175, .T.);
#177 = ORIENTED_EDGE ('', *, *, #176, .T.);
#178 = ORIENTED_EDGE ('', *, *, #167, .T.);
#179 = ORIENTED_EDGE ('', *, *, #128, .F.);
#180 = EDGE_LOOP ('', (#168, #177, #178, #179));
#181 = FACE_OUTER_BOUND ('', #180, .T.);
#182 = CARTESIAN_POINT ('', (-49.75, 2., -4.89858719658941E-16));
#183 = CARTESIAN_POINT ('', (-36.4056103413186, 2., -4.89858719658941E-16));
#184 = CARTESIAN_POINT ('', (-23.061220682637, 2., -4.89858719658941E-16));
#185 = CARTESIAN_POINT ('', (-9.71683102395546, 2., -4.89858719658941E-16));
#186 = CARTESIAN_POINT ('', (-49.75, 1.99999999999999, 7.99999999999999));
#187 = CARTESIAN_POINT ('', (-36.4056103413186, 1.99999999999999, 7.99999999999999));
#188 = CARTESIAN_POINT ('', (-23.061220682637, 2., 7.99999999999999));
#189 = CARTESIAN_POINT ('', (-9.71683102395546, 2., 8.));
#190 = CARTESIAN_POINT ('', (-49.75, -5.99999999999999, 3.99999999999998));
#191 = CARTESIAN_POINT ('', (-36.4056103413186, -5.99999999999999, 3.99999999999999));
#192 = CARTESIAN_POINT ('', (-23.061220682637, -6., 3.99999999999999));
#193 = CARTESIAN_POINT ('', (-9.71683102395546, -6., 4.));
#194 = CARTESIAN_POINT ('', (-49.75, -5.99999999999998, -4.));
#195 = CARTESIAN_POINT ('', (-36.4056103413186, -5.99999999999999, -4.));
#196 = CARTESIAN_POINT ('', (-23.061220682637, -5.99999999999999, -4.));
#197 = CARTESIAN_POINT ('', (-9.71683102395546, -6., -4.));
#198 = CARTESIAN_POINT ('', (-49.75, 2.00000000000001, -7.99999999999999));
#199 = CARTESIAN_POINT ('', (-36.4056103413186, 2.00000000000001, -7.99999999999999));
#200 = CARTESIAN_POINT ('', (-23.061220682637, 2., -8.));
#201 = CARTESIAN_POINT ('', (-9.71683102395546, 2., -8.));
#202 = CARTESIAN_POINT ('', (-49.75, 2., -4.89858719658941E-16));
#203 = CARTESIAN_POINT ('', (-36.4056103413186, 2., -4.89858719658941E-16));
#204 = CARTESIAN_POINT ('', (-23.061220682637, 2., -4.89858719658941E-16));
#205 = CARTESIAN_POINT ('', (-9.71683102395546, 2., -4.89858719658941E-16));
#206 = (
   BOUNDED_SURFACE ()
   B_SPLINE_SURFACE (5, 3, ((#182, #183, #184, #185), (#186, #187, #188, #189), (#190, #191, #192, #193), (#194, #195, #196, #197), (#198, #199, #200, #201), (#202, #203, #204, #205)), .UNSPECIFIED., .T., .F., .U.)
   B_SPLINE_SURFACE_WITH_KNOTS ((6, 6), (4, 4), (0., 1.), (0., 1.), .UNSPECIFIED.)
   SURFACE ()
   GEOMETRIC_REPRESENTATION_ITEM ()
   RATIONAL_B_SPLINE_SURFACE (((5., 5., 5., 5.), (1., 1., 1., 1.), (1., 1., 1., 1.), (1., 1., 1., 1.), (1., 1., 1., 1.), (5., 5., 5., 5.)))
   REPRESENTATION_ITEM ('')
);
#207 = ADVANCED_FACE ('', (#181), #206, .T.);
#208 = CARTESIAN_POINT ('', (-50., 3.06161699786838E-15, -3.06161699786838E-15));
#209 = VERTEX_POINT ('', #208);
#210 = CARTESIAN_POINT ('', (-50., 1.75, -4.28626379701573E-16));
#211 = VERTEX_POINT ('', #210);
#212 = CARTESIAN_POINT ('', (-50., 3.06161699786838E-15, -3.06161699786838E-15));
#213 = CARTESIAN_POINT ('', (-50., 1.75, -4.28626379701573E-16));
#214 = B_SPLINE_CURVE_WITH_KNOTS ('', 1, (#212, #213), .UNSPECIFIED., .F., .U., (2, 2), (0., 1.), .UNSPECIFIED.);
#215 = EDGE_CURVE ('', #209, #211, #214, .T.);
#216 = ORIENTED_EDGE ('', *, *, #215, .F.);
#217 = ORIENTED_EDGE ('', *, *, #215, .T.);
#218 = CARTESIAN_POINT ('', (-50., 1.75, -4.28626379701573E-16));
#219 = CARTESIAN_POINT ('', (-50., 1.74999999999999, 6.99999999999999));
#220 = CARTESIAN_POINT ('', (-50., -5.24999999999999, 3.49999999999998));
#221 = CARTESIAN_POINT ('', (-50., -5.24999999999998, -3.5));
#222 = CARTESIAN_POINT ('', (-50., 1.75000000000001, -6.99999999999999));
#223 = CARTESIAN_POINT ('', (-50., 1.75, -4.28626379701573E-16));
#224 = (
   BOUNDED_CURVE ()
   B_SPLINE_CURVE (5, (#218, #219, #220, #221, #222, #223), .UNSPECIFIED., .T., .U.)
   B_SPLINE_CURVE_WITH_KNOTS ((6, 6), (0., 1.), .UNSPECIFIED.)
   CURVE ()
   GEOMETRIC_REPRESENTATION_ITEM ()
   RATIONAL_B_SPLINE_CURVE ((5., 1., 1., 1., 1., 5.))
   REPRESENTATION_ITEM ('')
);
#225 = EDGE_CURVE ('', #211, #211, #224, .T.);
#226 = ORIENTED_EDGE ('', *, *, #225, .F.);
#227 = EDGE_LOOP ('', (#216, #217, #226));
#228 = FACE_OUTER_BOUND ('', #227, .T.);
#229 = CARTESIAN_POINT ('', (-50., 3.06161699786838E-15, -3.06161699786838E-15));
#230 = CARTESIAN_POINT ('', (-50., 1.75, -4.28626379701573E-16));
#231 = CARTESIAN_POINT ('', (-50., 3.06161699786838E-15, -3.06161699786838E-15));
#232 = CARTESIAN_POINT ('', (-50., 1.74999999999999, 6.99999999999999));
#233 = CARTESIAN_POINT ('', (-50., 3.06161699786838E-15, -3.06161699786838E-15));
#234 = CARTESIAN_POINT ('', (-50., -5.24999999999999, 3.49999999999998));
#235 = CARTESIAN_POINT ('', (-50., 3.06161699786838E-15, -3.06161699786838E-15));
#236 = CARTESIAN_POINT ('', (-50., -5.24999999999998, -3.5));
#237 = CARTESIAN_POINT ('', (-50., 3.06161699786838E-15, -3.06161699786838E-15));
#238 = CARTESIAN_POINT ('', (-50., 1.75000000000001, -6.99999999999999));
#239 = CARTESIAN_POINT ('', (-50., 3.06161699786838E-15, -3.06161699786838E-15));
#240 = CARTESIAN_POINT ('', (-50., 1.75, -4.28626379701573E-16));
#241 = (
   BOUNDED_SURFACE ()
   B_SPLINE_SURFACE (5, 1, ((#229, #230), (#231, #232), (#233, #234), (#235, #236), (#237, #238), (#239, #240)), .UNSPECIFIED., .T., .F., .U.)
   B_SPLINE_SURFACE_WITH_KNOTS ((6, 6), (2, 2), (0., 1.), (0., 1.), .UNSPECIFIED.)
   SURFACE ()
   GEOMETRIC_REPRESENTATION_ITEM ()
   RATIONAL_B_SPLINE_SURFACE (((5., 5.), (1., 1.), (1., 1.), (1., 1.), (1., 1.), (5., 5.)))
   REPRESENTATION_ITEM ('')
);
#242 = ADVANCED_FACE ('', (#228), #241, .T.);
#243 = CARTESIAN_POINT ('', (-50., 1.75, -4.28626379701573E-16));
#244 = CARTESIAN_POINT ('', (-49.9166666666667, 1.83333333333333, -4.49037159687362E-16));
#245 = CARTESIAN_POINT ('', (-49.8333333333334, 1.91666666666666, -4.69447939673151E-16));
#246 = CARTESIAN_POINT ('', (-49.75, 2., -4.89858719658941E-16));
#247 = B_SPLINE_CURVE_WITH_KNOTS ('', 3, (#243, #244, #245, #246), .UNSPECIFIED., .F., .U., (4, 4), (0., 1.), .UNSPECIFIED.);
#248 = EDGE_CURVE ('', #211, #161, #247, .T.);
#249 = ORIENTED_EDGE ('', *, *, #248, .F.);
#250 = ORIENTED_EDGE ('', *, *, #225, .T.);
#251 = ORIENTED_EDGE ('', *, *, #248, .T.);
#252 = ORIENTED_EDGE ('', *, *, #176, .F.);
#253 = EDGE_LOOP ('', (#249, #250, #251, #252));
#254 = FACE_OUTER_BOUND ('', #253, .T.);
#255 = CARTESIAN_POINT ('', (-50., 1.75, -4.28626379701573E-16));
#256 = CARTESIAN_POINT ('', (-49.9166666666667, 1.83333333333333, -4.49037159687362E-16));
#257 = CARTESIAN_POINT ('', (-49.8333333333334, 1.91666666666666, -4.69447939673151E-16));
#258 = CARTESIAN_POINT ('', (-49.75, 2., -4.89858719658941E-16));
#259 = CARTESIAN_POINT ('', (-50., 1.74999999999999, 6.99999999999999));
#260 = CARTESIAN_POINT ('', (-49.9166666666667, 1.83333333333332, 7.33333333333331));
#261 = CARTESIAN_POINT ('', (-49.8333333333334, 1.91666666666665, 7.66666666666665));
#262 = CARTESIAN_POINT ('', (-49.75, 1.99999999999999, 7.99999999999999));
#263 = CARTESIAN_POINT ('', (-50., -5.24999999999999, 3.49999999999998));
#264 = CARTESIAN_POINT ('', (-49.9166666666667, -5.49999999999999, 3.66666666666665));
#265 = CARTESIAN_POINT ('', (-49.8333333333334, -5.74999999999999, 3.83333333333331));
#266 = CARTESIAN_POINT ('', (-49.75, -5.99999999999999, 3.99999999999998));
#267 = CARTESIAN_POINT ('', (-50., -5.24999999999998, -3.5));
#268 = CARTESIAN_POINT ('', (-49.9166666666667, -5.49999999999998, -3.66666666666667));
#269 = CARTESIAN_POINT ('', (-49.8333333333334, -5.74999999999998, -3.83333333333334));
#270 = CARTESIAN_POINT ('', (-49.75, -5.99999999999998, -4.));
#271 = CARTESIAN_POINT ('', (-50., 1.75000000000001, -6.99999999999999));
#272 = CARTESIAN_POINT ('', (-49.9166666666667, 1.83333333333334, -7.33333333333331));
#273 = CARTESIAN_POINT ('', (-49.8333333333334, 1.91666666666668, -7.66666666666665));
#274 = CARTESIAN_POINT ('', (-49.75, 2.00000000000001, -7.99999999999999));
#275 = CARTESIAN_POINT ('', (-50., 1.75, -4.28626379701573E-16));
#276 = CARTESIAN_POINT ('', (-49.9166666666667, 1.83333333333333, -4.49037159687362E-16));
#277 = CARTESIAN_POINT ('', (-49.8333333333334, 1.91666666666666, -4.69447939673151E-16));
#278 = CARTESIAN_POINT ('', (-49.75, 2., -4.89858719658941E-16));
#279 = (
   BOUNDED_SURFACE ()
   B_SPLINE_SURFACE (5, 3, ((#255, #256, #257, #258), (#259, #260, #261, #262), (#263, #264, #265, #266), (#267, #268, #269, #270), (#271, #272, #273, #274), (#275, #276, #277, #278)), .UNSPECIFIED., .T., .F., .U.)
   B_SPLINE_SURFACE_WITH_KNOTS ((6, 6), (4, 4), (0., 1.), (0., 1.), .UNSPECIFIED.)
   SURFACE ()
   GEOMETRIC_REPRESENTATION_ITEM ()
   RATIONAL_B_SPLINE_SURFACE (((5., 5., 5., 5.), (1., 1., 1., 1.), (1., 1., 1., 1.), (1., 1., 1., 1.), (1., 1., 1., 1.), (5., 5., 5., 5.)))
   REPRESENTATION_ITEM ('')
);
#280 = ADVANCED_FACE ('', (#254), #279, .T.);
#281 = CLOSED_SHELL ('', (#63, #111, #159, #207, #242, #280));
#282 = MANIFOLD_SOLID_BREP ('', #281);
#283 = (
   LENGTH_UNIT ()
   NAMED_UNIT (*)
   SI_UNIT (.MILLI., .METRE.)
);
#284 = (
   NAMED_UNIT (*)
   SI_UNIT ($, .STERADIAN.)
   SOLID_ANGLE_UNIT ()
);
#285 = (
   NAMED_UNIT (*)
   SI_UNIT ($, .RADIAN.)
   PLANE_ANGLE_UNIT ()
);
#286 = UNCERTAINTY_MEASURE_WITH_UNIT (LENGTH_MEASURE(0.001), #283, 'DISTANCE_ACCURACY_VALUE', '');
#287 = (
   GEOMETRIC_REPRESENTATION_CONTEXT (3)
   GLOBAL_UNCERTAINTY_ASSIGNED_CONTEXT ((#286))
   GLOBAL_UNIT_ASSIGNED_CONTEXT ((#283, #284, #285))
   REPRESENTATION_CONTEXT ('', '3D')
);
#288 = SHAPE_REPRESENTATION ('', (), #287);
#289 = APPLICATION_CONTEXT ('configuration controlled 3D designs of mechanical parts and assemblies');
#290 = APPLICATION_PROTOCOL_DEFINITION ('International Standard', 'config_control_design', 1997, #289);
#291 = MECHANICAL_CONTEXT ('', #289, 'mechanical');
#292 = PRODUCT ('', '', '', (#291));
#293 = PERSON_AND_ORGANIZATION_ROLE ('design_owner');
#294 = PERSON ('', '', $, $, $, $);
#295 = ORGANIZATION ($, '', '');
#296 = PERSON_AND_ORGANIZATION (#294, #295);
#297 = CC_DESIGN_PERSON_AND_ORGANIZATION_ASSIGNMENT (#296, #293, (#292));
#298 = PRODUCT_RELATED_PRODUCT_CATEGORY ('detail', $, (#292));
#299 = PRODUCT_DEFINITION_FORMATION_WITH_SPECIFIED_SOURCE ('', '', #292, .NOT_KNOWN.);
#300 = APPROVAL_STATUS ('approved');
#301 = APPROVAL (#300, '');
#302 = CALENDAR_DATE (2021, 26, 1);
#303 = COORDINATED_UNIVERSAL_TIME_OFFSET (0, $, .AHEAD.);
#304 = LOCAL_TIME (9, 14, 16., #303);
#305 = DATE_AND_TIME (#302, #304);
#306 = APPROVAL_DATE_TIME (#305, #301);
#307 = APPROVAL_ROLE ('');
#308 = PERSON ('', '', $, $, $, $);
#309 = ORGANIZATION ($, '', '');
#310 = PERSON_AND_ORGANIZATION (#308, #309);
#311 = APPROVAL_PERSON_ORGANIZATION (#310, #301, #307);
#312 = CC_DESIGN_APPROVAL (#301, (#299));
#313 = PERSON_AND_ORGANIZATION_ROLE ('creator');
#314 = PERSON ('', '', $, $, $, $);
#315 = ORGANIZATION ($, '', '');
#316 = PERSON_AND_ORGANIZATION (#314, #315);
#317 = CC_DESIGN_PERSON_AND_ORGANIZATION_ASSIGNMENT (#316, #313, (#299));
#318 = PERSON_AND_ORGANIZATION_ROLE ('part_supplier');
#319 = PERSON ('', '', $, $, $, $);
#320 = ORGANIZATION ($, '', '');
#321 = PERSON_AND_ORGANIZATION (#319, #320);
#322 = CC_DESIGN_PERSON_AND_ORGANIZATION_ASSIGNMENT (#321, #318, (#299));
#323 = SECURITY_CLASSIFICATION_LEVEL ('unclassified');
#324 = SECURITY_CLASSIFICATION ('', '', #323);
#325 = APPROVAL_STATUS ('approved');
#326 = APPROVAL (#325, '');
#327 = CALENDAR_DATE (2021, 26, 1);
#328 = COORDINATED_UNIVERSAL_TIME_OFFSET (0, $, .AHEAD.);
#329 = LOCAL_TIME (9, 14, 16., #328);
#330 = DATE_AND_TIME (#327, #329);
#331 = APPROVAL_DATE_TIME (#330, #326);
#332 = APPROVAL_ROLE ('');
#333 = PERSON ('', '', $, $, $, $);
#334 = ORGANIZATION ($, '', '');
#335 = PERSON_AND_ORGANIZATION (#333, #334);
#336 = APPROVAL_PERSON_ORGANIZATION (#335, #326, #332);
#337 = CC_DESIGN_APPROVAL (#326, (#324));
#338 = DATE_TIME_ROLE ('classification_date');
#339 = CALENDAR_DATE (2021, 26, 1);
#340 = COORDINATED_UNIVERSAL_TIME_OFFSET (0, $, .AHEAD.);
#341 = LOCAL_TIME (9, 14, 16., #340);
#342 = DATE_AND_TIME (#339, #341);
#343 = CC_DESIGN_DATE_AND_TIME_ASSIGNMENT (#342, #338, (#324));
#344 = PERSON_AND_ORGANIZATION_ROLE ('classification_officer');
#345 = PERSON ('', '', $, $, $, $);
#346 = ORGANIZATION ($, '', '');
#347 = PERSON_AND_ORGANIZATION (#345, #346);
#348 = CC_DESIGN_PERSON_AND_ORGANIZATION_ASSIGNMENT (#347, #344, (#324));
#349 = CC_DESIGN_SECURITY_CLASSIFICATION (#324, (#299));
#350 = DESIGN_CONTEXT ('', #289, 'design');
#351 = PRODUCT_DEFINITION ('', '', #299, #350);
#352 = APPROVAL_STATUS ('approved');
#353 = APPROVAL (#352, '');
#354 = CALENDAR_DATE (2021, 26, 1);
#355 = COORDINATED_UNIVERSAL_TIME_OFFSET (0, $, .AHEAD.);
#356 = LOCAL_TIME (9, 14, 16., #355);
#357 = DATE_AND_TIME (#354, #356);
#358 = APPROVAL_DATE_TIME (#357, #353);
#359 = APPROVAL_ROLE ('');
#360 = PERSON ('', '', $, $, $, $);
#361 = ORGANIZATION ($, '', '');
#362 = PERSON_AND_ORGANIZATION (#360, #361);
#363 = APPROVAL_PERSON_ORGANIZATION (#362, #353, #359);
#364 = CC_DESIGN_APPROVAL (#353, (#351));
#365 = DATE_TIME_ROLE ('creation_date');
#366 = CALENDAR_DATE (2021, 26, 1);
#367 = COORDINATED_UNIVERSAL_TIME_OFFSET (0, $, .AHEAD.);
#368 = LOCAL_TIME (9, 14, 16., #367);
#369 = DATE_AND_TIME (#366, #368);
#370 = CC_DESIGN_DATE_AND_TIME_ASSIGNMENT (#369, #365, (#351));
#371 = PERSON_AND_ORGANIZATION_ROLE ('creator');
#372 = PERSON ('', '', $, $, $, $);
#373 = ORGANIZATION ($, '', '');
#374 = PERSON_AND_ORGANIZATION (#372, #373);
#375 = CC_DESIGN_PERSON_AND_ORGANIZATION_ASSIGNMENT (#374, #371, (#351));
#376 = PRODUCT_DEFINITION_SHAPE ('', '', #351);
#377 = SHAPE_DEFINITION_REPRESENTATION (#376, #288);
#378 = SHAPE_REPRESENTATION_RELATIONSHIP ('', '', #288, #379);
#379 = ADVANCED_BREP_SHAPE_REPRESENTATION ('', (#282), #287);
ENDSEC;
END-ISO-10303-21;
