ISO-10303-21;
HEADER;
FILE_DESCRIPTION ((), '1');
FILE_NAME ('D:\\OneDrive - MAFord Europe\\Desktop\\250\\STEP\\250M015041B.STP', '2021-01-26T09:20:55', ('Unknown'), ('M. A. Ford Europe Ltd.'), 'OneCNC-XR8 Mill 3D Expert', 'OneCNC-XR8 Mill 3D Expert', '');
FILE_SCHEMA (('CONFIG_CONTROL_DESIGN'));
ENDSEC;

DATA;
#1 = CARTESIAN_POINT ('', (-3., 0.75, -1.83697019872103E-16));
#2 = VERTEX_POINT ('', #1);
#3 = CARTESIAN_POINT ('', (-0.75, 0.75, -1.83697019872103E-16));
#4 = VERTEX_POINT ('', #3);
#5 = CARTESIAN_POINT ('', (-3., 0.75, -1.83697019872103E-16));
#6 = CARTESIAN_POINT ('', (-2.25, 0.75, -1.83697019872103E-16));
#7 = CARTESIAN_POINT ('', (-1.5, 0.75, -1.83697019872103E-16));
#8 = CARTESIAN_POINT ('', (-0.75, 0.75, -1.83697019872103E-16));
#9 = B_SPLINE_CURVE_WITH_KNOTS ('', 3, (#5, #6, #7, #8), .UNSPECIFIED., .F., .U., (4, 4), (0., 1.), .UNSPECIFIED.);
#10 = EDGE_CURVE ('', #2, #4, #9, .T.);
#11 = ORIENTED_EDGE ('', *, *, #10, .F.);
#12 = CARTESIAN_POINT ('', (-3., 0.75, -1.83697019872103E-16));
#13 = CARTESIAN_POINT ('', (-3., 0.75, 3.));
#14 = CARTESIAN_POINT ('', (-3., -2.25, 1.5));
#15 = CARTESIAN_POINT ('', (-3., -2.25, -1.5));
#16 = CARTESIAN_POINT ('', (-3., 0.75, -3.));
#17 = CARTESIAN_POINT ('', (-3., 0.75, -1.83697019872103E-16));
#18 = (
   BOUNDED_CURVE ()
   B_SPLINE_CURVE (5, (#12, #13, #14, #15, #16, #17), .UNSPECIFIED., .T., .U.)
   B_SPLINE_CURVE_WITH_KNOTS ((6, 6), (0., 1.), .UNSPECIFIED.)
   CURVE ()
   GEOMETRIC_REPRESENTATION_ITEM ()
   RATIONAL_B_SPLINE_CURVE ((5., 1., 1., 1., 1., 5.))
   REPRESENTATION_ITEM ('')
);
#19 = EDGE_CURVE ('', #2, #2, #18, .T.);
#20 = ORIENTED_EDGE ('', *, *, #19, .T.);
#21 = ORIENTED_EDGE ('', *, *, #10, .T.);
#22 = CARTESIAN_POINT ('', (-0.75, 0.75, -1.83697019872103E-16));
#23 = CARTESIAN_POINT ('', (-0.75, 0.750000000000001, 3.));
#24 = CARTESIAN_POINT ('', (-0.75, -2.25, 1.5));
#25 = CARTESIAN_POINT ('', (-0.75, -2.25, -1.5));
#26 = CARTESIAN_POINT ('', (-0.75, 0.749999999999999, -3.));
#27 = CARTESIAN_POINT ('', (-0.75, 0.75, -1.83697019872103E-16));
#28 = (
   BOUNDED_CURVE ()
   B_SPLINE_CURVE (5, (#22, #23, #24, #25, #26, #27), .UNSPECIFIED., .T., .U.)
   B_SPLINE_CURVE_WITH_KNOTS ((6, 6), (0., 1.), .UNSPECIFIED.)
   CURVE ()
   GEOMETRIC_REPRESENTATION_ITEM ()
   RATIONAL_B_SPLINE_CURVE ((5., 1., 1., 1., 1., 5.))
   REPRESENTATION_ITEM ('')
);
#29 = EDGE_CURVE ('', #4, #4, #28, .T.);
#30 = ORIENTED_EDGE ('', *, *, #29, .F.);
#31 = EDGE_LOOP ('', (#11, #20, #21, #30));
#32 = FACE_OUTER_BOUND ('', #31, .T.);
#33 = CARTESIAN_POINT ('', (-3., 0.75, -1.83697019872103E-16));
#34 = CARTESIAN_POINT ('', (-2.25, 0.75, -1.83697019872103E-16));
#35 = CARTESIAN_POINT ('', (-1.5, 0.75, -1.83697019872103E-16));
#36 = CARTESIAN_POINT ('', (-0.75, 0.75, -1.83697019872103E-16));
#37 = CARTESIAN_POINT ('', (-3., 0.75, 3.));
#38 = CARTESIAN_POINT ('', (-2.25, 0.75, 3.));
#39 = CARTESIAN_POINT ('', (-1.5, 0.75, 3.));
#40 = CARTESIAN_POINT ('', (-0.75, 0.750000000000001, 3.));
#41 = CARTESIAN_POINT ('', (-3., -2.25, 1.5));
#42 = CARTESIAN_POINT ('', (-2.25, -2.25, 1.5));
#43 = CARTESIAN_POINT ('', (-1.5, -2.25, 1.5));
#44 = CARTESIAN_POINT ('', (-0.75, -2.25, 1.5));
#45 = CARTESIAN_POINT ('', (-3., -2.25, -1.5));
#46 = CARTESIAN_POINT ('', (-2.25, -2.25, -1.5));
#47 = CARTESIAN_POINT ('', (-1.5, -2.25, -1.5));
#48 = CARTESIAN_POINT ('', (-0.75, -2.25, -1.5));
#49 = CARTESIAN_POINT ('', (-3., 0.75, -3.));
#50 = CARTESIAN_POINT ('', (-2.25, 0.75, -3.));
#51 = CARTESIAN_POINT ('', (-1.5, 0.749999999999999, -3.));
#52 = CARTESIAN_POINT ('', (-0.75, 0.749999999999999, -3.));
#53 = CARTESIAN_POINT ('', (-3., 0.75, -1.83697019872103E-16));
#54 = CARTESIAN_POINT ('', (-2.25, 0.75, -1.83697019872103E-16));
#55 = CARTESIAN_POINT ('', (-1.5, 0.75, -1.83697019872103E-16));
#56 = CARTESIAN_POINT ('', (-0.75, 0.75, -1.83697019872103E-16));
#57 = (
   BOUNDED_SURFACE ()
   B_SPLINE_SURFACE (5, 3, ((#33, #34, #35, #36), (#37, #38, #39, #40), (#41, #42, #43, #44), (#45, #46, #47, #48), (#49, #50, #51, #52), (#53, #54, #55, #56)), .UNSPECIFIED., .T., .F., .U.)
   B_SPLINE_SURFACE_WITH_KNOTS ((6, 6), (4, 4), (0., 1.), (0., 1.), .UNSPECIFIED.)
   SURFACE ()
   GEOMETRIC_REPRESENTATION_ITEM ()
   RATIONAL_B_SPLINE_SURFACE (((5., 5., 5., 5.), (1., 1., 1., 1.), (1., 1., 1., 1.), (1., 1., 1., 1.), (1., 1., 1., 1.), (5., 5., 5., 5.)))
   REPRESENTATION_ITEM ('')
);
#58 = ADVANCED_FACE ('', (#32), #57, .T.);
#59 = CARTESIAN_POINT ('', (-9.43069251996289, 2., -4.89858719658941E-16));
#60 = VERTEX_POINT ('', #59);
#61 = CARTESIAN_POINT ('', (-9.43069251996289, 2., -4.89858719658941E-16));
#62 = CARTESIAN_POINT ('', (-7.28712834664194, 1.58333333333334, -3.87804819729996E-16));
#63 = CARTESIAN_POINT ('', (-5.14356417332096, 1.16666666666667, -2.85750919801049E-16));
#64 = CARTESIAN_POINT ('', (-3., 0.75, -1.83697019872103E-16));
#65 = B_SPLINE_CURVE_WITH_KNOTS ('', 3, (#61, #62, #63, #64), .UNSPECIFIED., .F., .U., (4, 4), (0., 1.), .UNSPECIFIED.);
#66 = EDGE_CURVE ('', #60, #2, #65, .T.);
#67 = ORIENTED_EDGE ('', *, *, #66, .F.);
#68 = CARTESIAN_POINT ('', (-9.43069251996289, 2., -4.89858719658941E-16));
#69 = CARTESIAN_POINT ('', (-9.43069251996289, 2., 8.));
#70 = CARTESIAN_POINT ('', (-9.43069251996289, -6., 4.));
#71 = CARTESIAN_POINT ('', (-9.43069251996289, -6., -4.));
#72 = CARTESIAN_POINT ('', (-9.43069251996289, 2., -8.));
#73 = CARTESIAN_POINT ('', (-9.43069251996289, 2., -4.89858719658941E-16));
#74 = (
   BOUNDED_CURVE ()
   B_SPLINE_CURVE (5, (#68, #69, #70, #71, #72, #73), .UNSPECIFIED., .T., .U.)
   B_SPLINE_CURVE_WITH_KNOTS ((6, 6), (0., 1.), .UNSPECIFIED.)
   CURVE ()
   GEOMETRIC_REPRESENTATION_ITEM ()
   RATIONAL_B_SPLINE_CURVE ((5., 1., 1., 1., 1., 5.))
   REPRESENTATION_ITEM ('')
);
#75 = EDGE_CURVE ('', #60, #60, #74, .T.);
#76 = ORIENTED_EDGE ('', *, *, #75, .T.);
#77 = ORIENTED_EDGE ('', *, *, #66, .T.);
#78 = ORIENTED_EDGE ('', *, *, #19, .F.);
#79 = EDGE_LOOP ('', (#67, #76, #77, #78));
#80 = FACE_OUTER_BOUND ('', #79, .T.);
#81 = CARTESIAN_POINT ('', (-9.43069251996289, 2., -4.89858719658941E-16));
#82 = CARTESIAN_POINT ('', (-7.28712834664194, 1.58333333333334, -3.87804819729996E-16));
#83 = CARTESIAN_POINT ('', (-5.14356417332096, 1.16666666666667, -2.85750919801049E-16));
#84 = CARTESIAN_POINT ('', (-3., 0.75, -1.83697019872103E-16));
#85 = CARTESIAN_POINT ('', (-9.43069251996289, 2., 8.));
#86 = CARTESIAN_POINT ('', (-7.28712834664194, 1.58333333333334, 6.33333333333334));
#87 = CARTESIAN_POINT ('', (-5.14356417332096, 1.16666666666667, 4.66666666666667));
#88 = CARTESIAN_POINT ('', (-3., 0.75, 3.));
#89 = CARTESIAN_POINT ('', (-9.43069251996289, -6., 4.));
#90 = CARTESIAN_POINT ('', (-7.28712834664194, -4.75, 3.16666666666667));
#91 = CARTESIAN_POINT ('', (-5.14356417332096, -3.5, 2.33333333333333));
#92 = CARTESIAN_POINT ('', (-3., -2.25, 1.5));
#93 = CARTESIAN_POINT ('', (-9.43069251996289, -6., -4.));
#94 = CARTESIAN_POINT ('', (-7.28712834664194, -4.75, -3.16666666666667));
#95 = CARTESIAN_POINT ('', (-5.14356417332096, -3.5, -2.33333333333333));
#96 = CARTESIAN_POINT ('', (-3., -2.25, -1.5));
#97 = CARTESIAN_POINT ('', (-9.43069251996289, 2., -8.));
#98 = CARTESIAN_POINT ('', (-7.28712834664194, 1.58333333333334, -6.33333333333334));
#99 = CARTESIAN_POINT ('', (-5.14356417332096, 1.16666666666667, -4.66666666666667));
#100 = CARTESIAN_POINT ('', (-3., 0.75, -3.));
#101 = CARTESIAN_POINT ('', (-9.43069251996289, 2., -4.89858719658941E-16));
#102 = CARTESIAN_POINT ('', (-7.28712834664194, 1.58333333333334, -3.87804819729996E-16));
#103 = CARTESIAN_POINT ('', (-5.14356417332096, 1.16666666666667, -2.85750919801049E-16));
#104 = CARTESIAN_POINT ('', (-3., 0.75, -1.83697019872103E-16));
#105 = (
   BOUNDED_SURFACE ()
   B_SPLINE_SURFACE (5, 3, ((#81, #82, #83, #84), (#85, #86, #87, #88), (#89, #90, #91, #92), (#93, #94, #95, #96), (#97, #98, #99, #100), (#101, #102, #103, #104)), .UNSPECIFIED., .T., .F., .U.)
   B_SPLINE_SURFACE_WITH_KNOTS ((6, 6), (4, 4), (0., 1.), (0., 1.), .UNSPECIFIED.)
   SURFACE ()
   GEOMETRIC_REPRESENTATION_ITEM ()
   RATIONAL_B_SPLINE_SURFACE (((5., 5., 5., 5.), (1., 1., 1., 1.), (1., 1., 1., 1.), (1., 1., 1., 1.), (1., 1., 1., 1.), (5., 5., 5., 5.)))
   REPRESENTATION_ITEM ('')
);
#106 = ADVANCED_FACE ('', (#80), #105, .T.);
#107 = CARTESIAN_POINT ('', (-49.75, 2., -4.89858719658941E-16));
#108 = VERTEX_POINT ('', #107);
#109 = CARTESIAN_POINT ('', (-49.75, 2., -4.89858719658941E-16));
#110 = CARTESIAN_POINT ('', (-36.3102308399875, 2., -4.89858719658941E-16));
#111 = CARTESIAN_POINT ('', (-22.8704616799753, 2., -4.89858719658941E-16));
#112 = CARTESIAN_POINT ('', (-9.43069251996289, 2., -4.89858719658941E-16));
#113 = B_SPLINE_CURVE_WITH_KNOTS ('', 3, (#109, #110, #111, #112), .UNSPECIFIED., .F., .U., (4, 4), (0., 1.), .UNSPECIFIED.);
#114 = EDGE_CURVE ('', #108, #60, #113, .T.);
#115 = ORIENTED_EDGE ('', *, *, #114, .F.);
#116 = CARTESIAN_POINT ('', (-49.75, 2., -4.89858719658941E-16));
#117 = CARTESIAN_POINT ('', (-49.75, 1.99999999999999, 7.99999999999999));
#118 = CARTESIAN_POINT ('', (-49.75, -5.99999999999999, 3.99999999999998));
#119 = CARTESIAN_POINT ('', (-49.75, -5.99999999999998, -4.));
#120 = CARTESIAN_POINT ('', (-49.75, 2.00000000000001, -7.99999999999999));
#121 = CARTESIAN_POINT ('', (-49.75, 2., -4.89858719658941E-16));
#122 = (
   BOUNDED_CURVE ()
   B_SPLINE_CURVE (5, (#116, #117, #118, #119, #120, #121), .UNSPECIFIED., .T., .U.)
   B_SPLINE_CURVE_WITH_KNOTS ((6, 6), (0., 1.), .UNSPECIFIED.)
   CURVE ()
   GEOMETRIC_REPRESENTATION_ITEM ()
   RATIONAL_B_SPLINE_CURVE ((5., 1., 1., 1., 1., 5.))
   REPRESENTATION_ITEM ('')
);
#123 = EDGE_CURVE ('', #108, #108, #122, .T.);
#124 = ORIENTED_EDGE ('', *, *, #123, .T.);
#125 = ORIENTED_EDGE ('', *, *, #114, .T.);
#126 = ORIENTED_EDGE ('', *, *, #75, .F.);
#127 = EDGE_LOOP ('', (#115, #124, #125, #126));
#128 = FACE_OUTER_BOUND ('', #127, .T.);
#129 = CARTESIAN_POINT ('', (-49.75, 2., -4.89858719658941E-16));
#130 = CARTESIAN_POINT ('', (-36.3102308399875, 2., -4.89858719658941E-16));
#131 = CARTESIAN_POINT ('', (-22.8704616799753, 2., -4.89858719658941E-16));
#132 = CARTESIAN_POINT ('', (-9.43069251996289, 2., -4.89858719658941E-16));
#133 = CARTESIAN_POINT ('', (-49.75, 1.99999999999999, 7.99999999999999));
#134 = CARTESIAN_POINT ('', (-36.3102308399875, 1.99999999999999, 7.99999999999999));
#135 = CARTESIAN_POINT ('', (-22.8704616799753, 2., 7.99999999999999));
#136 = CARTESIAN_POINT ('', (-9.43069251996289, 2., 8.));
#137 = CARTESIAN_POINT ('', (-49.75, -5.99999999999999, 3.99999999999998));
#138 = CARTESIAN_POINT ('', (-36.3102308399875, -5.99999999999999, 3.99999999999999));
#139 = CARTESIAN_POINT ('', (-22.8704616799753, -6., 3.99999999999999));
#140 = CARTESIAN_POINT ('', (-9.43069251996289, -6., 4.));
#141 = CARTESIAN_POINT ('', (-49.75, -5.99999999999998, -4.));
#142 = CARTESIAN_POINT ('', (-36.3102308399875, -5.99999999999999, -4.));
#143 = CARTESIAN_POINT ('', (-22.8704616799753, -5.99999999999999, -4.));
#144 = CARTESIAN_POINT ('', (-9.43069251996289, -6., -4.));
#145 = CARTESIAN_POINT ('', (-49.75, 2.00000000000001, -7.99999999999999));
#146 = CARTESIAN_POINT ('', (-36.3102308399875, 2.00000000000001, -7.99999999999999));
#147 = CARTESIAN_POINT ('', (-22.8704616799753, 2., -8.));
#148 = CARTESIAN_POINT ('', (-9.43069251996289, 2., -8.));
#149 = CARTESIAN_POINT ('', (-49.75, 2., -4.89858719658941E-16));
#150 = CARTESIAN_POINT ('', (-36.3102308399875, 2., -4.89858719658941E-16));
#151 = CARTESIAN_POINT ('', (-22.8704616799753, 2., -4.89858719658941E-16));
#152 = CARTESIAN_POINT ('', (-9.43069251996289, 2., -4.89858719658941E-16));
#153 = (
   BOUNDED_SURFACE ()
   B_SPLINE_SURFACE (5, 3, ((#129, #130, #131, #132), (#133, #134, #135, #136), (#137, #138, #139, #140), (#141, #142, #143, #144), (#145, #146, #147, #148), (#149, #150, #151, #152)), .UNSPECIFIED., .T., .F., .U.)
   B_SPLINE_SURFACE_WITH_KNOTS ((6, 6), (4, 4), (0., 1.), (0., 1.), .UNSPECIFIED.)
   SURFACE ()
   GEOMETRIC_REPRESENTATION_ITEM ()
   RATIONAL_B_SPLINE_SURFACE (((5., 5., 5., 5.), (1., 1., 1., 1.), (1., 1., 1., 1.), (1., 1., 1., 1.), (1., 1., 1., 1.), (5., 5., 5., 5.)))
   REPRESENTATION_ITEM ('')
);
#154 = ADVANCED_FACE ('', (#128), #153, .T.);
#155 = CARTESIAN_POINT ('', (-50., 3.06161699786838E-15, -3.06161699786838E-15));
#156 = VERTEX_POINT ('', #155);
#157 = CARTESIAN_POINT ('', (-50., 1.75, -4.28626379701573E-16));
#158 = VERTEX_POINT ('', #157);
#159 = CARTESIAN_POINT ('', (-50., 3.06161699786838E-15, -3.06161699786838E-15));
#160 = CARTESIAN_POINT ('', (-50., 1.75, -4.28626379701573E-16));
#161 = B_SPLINE_CURVE_WITH_KNOTS ('', 1, (#159, #160), .UNSPECIFIED., .F., .U., (2, 2), (0., 1.), .UNSPECIFIED.);
#162 = EDGE_CURVE ('', #156, #158, #161, .T.);
#163 = ORIENTED_EDGE ('', *, *, #162, .F.);
#164 = ORIENTED_EDGE ('', *, *, #162, .T.);
#165 = CARTESIAN_POINT ('', (-50., 1.75, -4.28626379701573E-16));
#166 = CARTESIAN_POINT ('', (-50., 1.74999999999999, 6.99999999999999));
#167 = CARTESIAN_POINT ('', (-50., -5.24999999999999, 3.49999999999998));
#168 = CARTESIAN_POINT ('', (-50., -5.24999999999998, -3.5));
#169 = CARTESIAN_POINT ('', (-50., 1.75000000000001, -6.99999999999999));
#170 = CARTESIAN_POINT ('', (-50., 1.75, -4.28626379701573E-16));
#171 = (
   BOUNDED_CURVE ()
   B_SPLINE_CURVE (5, (#165, #166, #167, #168, #169, #170), .UNSPECIFIED., .T., .U.)
   B_SPLINE_CURVE_WITH_KNOTS ((6, 6), (0., 1.), .UNSPECIFIED.)
   CURVE ()
   GEOMETRIC_REPRESENTATION_ITEM ()
   RATIONAL_B_SPLINE_CURVE ((5., 1., 1., 1., 1., 5.))
   REPRESENTATION_ITEM ('')
);
#172 = EDGE_CURVE ('', #158, #158, #171, .T.);
#173 = ORIENTED_EDGE ('', *, *, #172, .F.);
#174 = EDGE_LOOP ('', (#163, #164, #173));
#175 = FACE_OUTER_BOUND ('', #174, .T.);
#176 = CARTESIAN_POINT ('', (-50., 3.06161699786838E-15, -3.06161699786838E-15));
#177 = CARTESIAN_POINT ('', (-50., 1.75, -4.28626379701573E-16));
#178 = CARTESIAN_POINT ('', (-50., 3.06161699786838E-15, -3.06161699786838E-15));
#179 = CARTESIAN_POINT ('', (-50., 1.74999999999999, 6.99999999999999));
#180 = CARTESIAN_POINT ('', (-50., 3.06161699786838E-15, -3.06161699786838E-15));
#181 = CARTESIAN_POINT ('', (-50., -5.24999999999999, 3.49999999999998));
#182 = CARTESIAN_POINT ('', (-50., 3.06161699786838E-15, -3.06161699786838E-15));
#183 = CARTESIAN_POINT ('', (-50., -5.24999999999998, -3.5));
#184 = CARTESIAN_POINT ('', (-50., 3.06161699786838E-15, -3.06161699786838E-15));
#185 = CARTESIAN_POINT ('', (-50., 1.75000000000001, -6.99999999999999));
#186 = CARTESIAN_POINT ('', (-50., 3.06161699786838E-15, -3.06161699786838E-15));
#187 = CARTESIAN_POINT ('', (-50., 1.75, -4.28626379701573E-16));
#188 = (
   BOUNDED_SURFACE ()
   B_SPLINE_SURFACE (5, 1, ((#176, #177), (#178, #179), (#180, #181), (#182, #183), (#184, #185), (#186, #187)), .UNSPECIFIED., .T., .F., .U.)
   B_SPLINE_SURFACE_WITH_KNOTS ((6, 6), (2, 2), (0., 1.), (0., 1.), .UNSPECIFIED.)
   SURFACE ()
   GEOMETRIC_REPRESENTATION_ITEM ()
   RATIONAL_B_SPLINE_SURFACE (((5., 5.), (1., 1.), (1., 1.), (1., 1.), (1., 1.), (5., 5.)))
   REPRESENTATION_ITEM ('')
);
#189 = ADVANCED_FACE ('', (#175), #188, .T.);
#190 = CARTESIAN_POINT ('', (-50., 1.75, -4.28626379701573E-16));
#191 = CARTESIAN_POINT ('', (-49.9166666666667, 1.83333333333333, -4.49037159687362E-16));
#192 = CARTESIAN_POINT ('', (-49.8333333333334, 1.91666666666666, -4.69447939673151E-16));
#193 = CARTESIAN_POINT ('', (-49.75, 2., -4.89858719658941E-16));
#194 = B_SPLINE_CURVE_WITH_KNOTS ('', 3, (#190, #191, #192, #193), .UNSPECIFIED., .F., .U., (4, 4), (0., 1.), .UNSPECIFIED.);
#195 = EDGE_CURVE ('', #158, #108, #194, .T.);
#196 = ORIENTED_EDGE ('', *, *, #195, .F.);
#197 = ORIENTED_EDGE ('', *, *, #172, .T.);
#198 = ORIENTED_EDGE ('', *, *, #195, .T.);
#199 = ORIENTED_EDGE ('', *, *, #123, .F.);
#200 = EDGE_LOOP ('', (#196, #197, #198, #199));
#201 = FACE_OUTER_BOUND ('', #200, .T.);
#202 = CARTESIAN_POINT ('', (-50., 1.75, -4.28626379701573E-16));
#203 = CARTESIAN_POINT ('', (-49.9166666666667, 1.83333333333333, -4.49037159687362E-16));
#204 = CARTESIAN_POINT ('', (-49.8333333333334, 1.91666666666666, -4.69447939673151E-16));
#205 = CARTESIAN_POINT ('', (-49.75, 2., -4.89858719658941E-16));
#206 = CARTESIAN_POINT ('', (-50., 1.74999999999999, 6.99999999999999));
#207 = CARTESIAN_POINT ('', (-49.9166666666667, 1.83333333333332, 7.33333333333331));
#208 = CARTESIAN_POINT ('', (-49.8333333333334, 1.91666666666665, 7.66666666666665));
#209 = CARTESIAN_POINT ('', (-49.75, 1.99999999999999, 7.99999999999999));
#210 = CARTESIAN_POINT ('', (-50., -5.24999999999999, 3.49999999999998));
#211 = CARTESIAN_POINT ('', (-49.9166666666667, -5.49999999999999, 3.66666666666665));
#212 = CARTESIAN_POINT ('', (-49.8333333333334, -5.74999999999999, 3.83333333333331));
#213 = CARTESIAN_POINT ('', (-49.75, -5.99999999999999, 3.99999999999998));
#214 = CARTESIAN_POINT ('', (-50., -5.24999999999998, -3.5));
#215 = CARTESIAN_POINT ('', (-49.9166666666667, -5.49999999999998, -3.66666666666667));
#216 = CARTESIAN_POINT ('', (-49.8333333333334, -5.74999999999998, -3.83333333333334));
#217 = CARTESIAN_POINT ('', (-49.75, -5.99999999999998, -4.));
#218 = CARTESIAN_POINT ('', (-50., 1.75000000000001, -6.99999999999999));
#219 = CARTESIAN_POINT ('', (-49.9166666666667, 1.83333333333334, -7.33333333333331));
#220 = CARTESIAN_POINT ('', (-49.8333333333334, 1.91666666666668, -7.66666666666665));
#221 = CARTESIAN_POINT ('', (-49.75, 2.00000000000001, -7.99999999999999));
#222 = CARTESIAN_POINT ('', (-50., 1.75, -4.28626379701573E-16));
#223 = CARTESIAN_POINT ('', (-49.9166666666667, 1.83333333333333, -4.49037159687362E-16));
#224 = CARTESIAN_POINT ('', (-49.8333333333334, 1.91666666666666, -4.69447939673151E-16));
#225 = CARTESIAN_POINT ('', (-49.75, 2., -4.89858719658941E-16));
#226 = (
   BOUNDED_SURFACE ()
   B_SPLINE_SURFACE (5, 3, ((#202, #203, #204, #205), (#206, #207, #208, #209), (#210, #211, #212, #213), (#214, #215, #216, #217), (#218, #219, #220, #221), (#222, #223, #224, #225)), .UNSPECIFIED., .T., .F., .U.)
   B_SPLINE_SURFACE_WITH_KNOTS ((6, 6), (4, 4), (0., 1.), (0., 1.), .UNSPECIFIED.)
   SURFACE ()
   GEOMETRIC_REPRESENTATION_ITEM ()
   RATIONAL_B_SPLINE_SURFACE (((5., 5., 5., 5.), (1., 1., 1., 1.), (1., 1., 1., 1.), (1., 1., 1., 1.), (1., 1., 1., 1.), (5., 5., 5., 5.)))
   REPRESENTATION_ITEM ('')
);
#227 = ADVANCED_FACE ('', (#201), #226, .T.);
#228 = CARTESIAN_POINT ('', (0., 0., 0.));
#229 = VERTEX_POINT ('', #228);
#230 = CARTESIAN_POINT ('', (-0.75, 0.75, -1.83697019872103E-16));
#231 = CARTESIAN_POINT ('', (-0.566585834713142, 0.749999999999999, -1.83697019872103E-16));
#232 = CARTESIAN_POINT ('', (-0.307532102291133, 0.649300010063586, -1.59032635802143E-16));
#233 = CARTESIAN_POINT ('', (-0.0568542131965341, 0.340951525400384, -8.35090388491976E-17));
#234 = CARTESIAN_POINT ('', (1.54074395550979E-33, 0.132015104963028, -3.23343751464148E-17));
#235 = CARTESIAN_POINT ('', (0., 0., 0.));
#236 = B_SPLINE_CURVE_WITH_KNOTS ('', 3, (#230, #231, #232, #233, #234, #235), .UNSPECIFIED., .F., .U., (4, 1, 1, 4), (0., 0.467060336615637, 0.66382629571742, 1.), .UNSPECIFIED.);
#237 = EDGE_CURVE ('', #4, #229, #236, .T.);
#238 = ORIENTED_EDGE ('', *, *, #237, .F.);
#239 = ORIENTED_EDGE ('', *, *, #29, .T.);
#240 = ORIENTED_EDGE ('', *, *, #237, .T.);
#241 = EDGE_LOOP ('', (#238, #239, #240));
#242 = FACE_OUTER_BOUND ('', #241, .T.);
#243 = CARTESIAN_POINT ('', (-0.75, 0.75, -1.83697019872103E-16));
#244 = CARTESIAN_POINT ('', (-0.566585834713142, 0.749999999999999, -1.83697019872103E-16));
#245 = CARTESIAN_POINT ('', (-0.307532102291133, 0.649300010063586, -1.59032635802143E-16));
#246 = CARTESIAN_POINT ('', (-0.0568542131965341, 0.340951525400384, -8.35090388491976E-17));
#247 = CARTESIAN_POINT ('', (1.54074395550979E-33, 0.132015104963028, -3.23343751464148E-17));
#248 = CARTESIAN_POINT ('', (0., 0., 0.));
#249 = CARTESIAN_POINT ('', (-0.75, 0.750000000000001, 3.));
#250 = CARTESIAN_POINT ('', (-0.566585834713142, 0.75, 3.));
#251 = CARTESIAN_POINT ('', (-0.307532102291133, 0.649300010063587, 2.59720004025434));
#252 = CARTESIAN_POINT ('', (-0.0568542131965342, 0.340951525400384, 1.36380610160154));
#253 = CARTESIAN_POINT ('', (-3.23343751464148E-17, 0.132015104963028, 0.528060419852111));
#254 = CARTESIAN_POINT ('', (0., 0., 0.));
#255 = CARTESIAN_POINT ('', (-0.75, -2.25, 1.5));
#256 = CARTESIAN_POINT ('', (-0.566585834713142, -2.25, 1.5));
#257 = CARTESIAN_POINT ('', (-0.307532102291133, -1.94790003019076, 1.29860002012717));
#258 = CARTESIAN_POINT ('', (-0.0568542131965342, -1.02285457620115, 0.681903050800768));
#259 = CARTESIAN_POINT ('', (-4.85015627196222E-17, -0.396045314889084, 0.264030209926056));
#260 = CARTESIAN_POINT ('', (0., 0., 0.));
#261 = CARTESIAN_POINT ('', (-0.75, -2.25, -1.5));
#262 = CARTESIAN_POINT ('', (-0.566585834713142, -2.25, -1.5));
#263 = CARTESIAN_POINT ('', (-0.307532102291133, -1.94790003019076, -1.29860002012717));
#264 = CARTESIAN_POINT ('', (-0.0568542131965341, -1.02285457620115, -0.681903050800768));
#265 = CARTESIAN_POINT ('', (-1.61671875732074E-17, -0.396045314889084, -0.264030209926056));
#266 = CARTESIAN_POINT ('', (0., 0., 0.));
#267 = CARTESIAN_POINT ('', (-0.75, 0.749999999999999, -3.));
#268 = CARTESIAN_POINT ('', (-0.566585834713142, 0.749999999999999, -3.));
#269 = CARTESIAN_POINT ('', (-0.307532102291133, 0.649300010063585, -2.59720004025434));
#270 = CARTESIAN_POINT ('', (-0.056854213196534, 0.340951525400384, -1.36380610160154));
#271 = CARTESIAN_POINT ('', (3.23343751464148E-17, 0.132015104963028, -0.528060419852111));
#272 = CARTESIAN_POINT ('', (0., 0., 0.));
#273 = CARTESIAN_POINT ('', (-0.75, 0.75, -1.83697019872103E-16));
#274 = CARTESIAN_POINT ('', (-0.566585834713142, 0.749999999999999, -1.83697019872103E-16));
#275 = CARTESIAN_POINT ('', (-0.307532102291133, 0.649300010063586, -1.59032635802143E-16));
#276 = CARTESIAN_POINT ('', (-0.0568542131965341, 0.340951525400384, -8.35090388491976E-17));
#277 = CARTESIAN_POINT ('', (1.54074395550979E-33, 0.132015104963028, -3.23343751464148E-17));
#278 = CARTESIAN_POINT ('', (0., 0., 0.));
#279 = (
   BOUNDED_SURFACE ()
   B_SPLINE_SURFACE (5, 3, ((#243, #244, #245, #246, #247, #248), (#249, #250, #251, #252, #253, #254), (#255, #256, #257, #258, #259, #260), (#261, #262, #263, #264, #265, #266), (#267, #268, #269, #270, #271, #272), (#273, #274, #275, #276, #277, #278)), .UNSPECIFIED., .T., .F., .U.)
   B_SPLINE_SURFACE_WITH_KNOTS ((6, 6), (4, 1, 1, 4), (0., 1.), (0., 0.467060336615637, 0.66382629571742, 1.), .UNSPECIFIED.)
   SURFACE ()
   GEOMETRIC_REPRESENTATION_ITEM ()
   RATIONAL_B_SPLINE_SURFACE (((5., 5., 5., 5., 5., 5.), (1., 1., 1., 1., 1., 1.), (1., 1., 1., 1., 1., 1.), (1., 1., 1., 1., 1., 1.), (1., 1., 1., 1., 1., 1.), (5., 5., 5., 5., 5., 5.)))
   REPRESENTATION_ITEM ('')
);
#280 = ADVANCED_FACE ('', (#242), #279, .T.);
#281 = CLOSED_SHELL ('', (#58, #106, #154, #189, #227, #280));
#282 = MANIFOLD_SOLID_BREP ('', #281);
#283 = (
   LENGTH_UNIT ()
   NAMED_UNIT (*)
   SI_UNIT (.MILLI., .METRE.)
);
#284 = (
   NAMED_UNIT (*)
   SI_UNIT ($, .STERADIAN.)
   SOLID_ANGLE_UNIT ()
);
#285 = (
   NAMED_UNIT (*)
   SI_UNIT ($, .RADIAN.)
   PLANE_ANGLE_UNIT ()
);
#286 = UNCERTAINTY_MEASURE_WITH_UNIT (LENGTH_MEASURE(0.001), #283, 'DISTANCE_ACCURACY_VALUE', '');
#287 = (
   GEOMETRIC_REPRESENTATION_CONTEXT (3)
   GLOBAL_UNCERTAINTY_ASSIGNED_CONTEXT ((#286))
   GLOBAL_UNIT_ASSIGNED_CONTEXT ((#283, #284, #285))
   REPRESENTATION_CONTEXT ('', '3D')
);
#288 = SHAPE_REPRESENTATION ('', (), #287);
#289 = APPLICATION_CONTEXT ('configuration controlled 3D designs of mechanical parts and assemblies');
#290 = APPLICATION_PROTOCOL_DEFINITION ('International Standard', 'config_control_design', 1997, #289);
#291 = MECHANICAL_CONTEXT ('', #289, 'mechanical');
#292 = PRODUCT ('', '', '', (#291));
#293 = PERSON_AND_ORGANIZATION_ROLE ('design_owner');
#294 = PERSON ('', '', $, $, $, $);
#295 = ORGANIZATION ($, '', '');
#296 = PERSON_AND_ORGANIZATION (#294, #295);
#297 = CC_DESIGN_PERSON_AND_ORGANIZATION_ASSIGNMENT (#296, #293, (#292));
#298 = PRODUCT_RELATED_PRODUCT_CATEGORY ('detail', $, (#292));
#299 = PRODUCT_DEFINITION_FORMATION_WITH_SPECIFIED_SOURCE ('', '', #292, .NOT_KNOWN.);
#300 = APPROVAL_STATUS ('approved');
#301 = APPROVAL (#300, '');
#302 = CALENDAR_DATE (2021, 26, 1);
#303 = COORDINATED_UNIVERSAL_TIME_OFFSET (0, $, .AHEAD.);
#304 = LOCAL_TIME (9, 20, 55., #303);
#305 = DATE_AND_TIME (#302, #304);
#306 = APPROVAL_DATE_TIME (#305, #301);
#307 = APPROVAL_ROLE ('');
#308 = PERSON ('', '', $, $, $, $);
#309 = ORGANIZATION ($, '', '');
#310 = PERSON_AND_ORGANIZATION (#308, #309);
#311 = APPROVAL_PERSON_ORGANIZATION (#310, #301, #307);
#312 = CC_DESIGN_APPROVAL (#301, (#299));
#313 = PERSON_AND_ORGANIZATION_ROLE ('creator');
#314 = PERSON ('', '', $, $, $, $);
#315 = ORGANIZATION ($, '', '');
#316 = PERSON_AND_ORGANIZATION (#314, #315);
#317 = CC_DESIGN_PERSON_AND_ORGANIZATION_ASSIGNMENT (#316, #313, (#299));
#318 = PERSON_AND_ORGANIZATION_ROLE ('part_supplier');
#319 = PERSON ('', '', $, $, $, $);
#320 = ORGANIZATION ($, '', '');
#321 = PERSON_AND_ORGANIZATION (#319, #320);
#322 = CC_DESIGN_PERSON_AND_ORGANIZATION_ASSIGNMENT (#321, #318, (#299));
#323 = SECURITY_CLASSIFICATION_LEVEL ('unclassified');
#324 = SECURITY_CLASSIFICATION ('', '', #323);
#325 = APPROVAL_STATUS ('approved');
#326 = APPROVAL (#325, '');
#327 = CALENDAR_DATE (2021, 26, 1);
#328 = COORDINATED_UNIVERSAL_TIME_OFFSET (0, $, .AHEAD.);
#329 = LOCAL_TIME (9, 20, 55., #328);
#330 = DATE_AND_TIME (#327, #329);
#331 = APPROVAL_DATE_TIME (#330, #326);
#332 = APPROVAL_ROLE ('');
#333 = PERSON ('', '', $, $, $, $);
#334 = ORGANIZATION ($, '', '');
#335 = PERSON_AND_ORGANIZATION (#333, #334);
#336 = APPROVAL_PERSON_ORGANIZATION (#335, #326, #332);
#337 = CC_DESIGN_APPROVAL (#326, (#324));
#338 = DATE_TIME_ROLE ('classification_date');
#339 = CALENDAR_DATE (2021, 26, 1);
#340 = COORDINATED_UNIVERSAL_TIME_OFFSET (0, $, .AHEAD.);
#341 = LOCAL_TIME (9, 20, 55., #340);
#342 = DATE_AND_TIME (#339, #341);
#343 = CC_DESIGN_DATE_AND_TIME_ASSIGNMENT (#342, #338, (#324));
#344 = PERSON_AND_ORGANIZATION_ROLE ('classification_officer');
#345 = PERSON ('', '', $, $, $, $);
#346 = ORGANIZATION ($, '', '');
#347 = PERSON_AND_ORGANIZATION (#345, #346);
#348 = CC_DESIGN_PERSON_AND_ORGANIZATION_ASSIGNMENT (#347, #344, (#324));
#349 = CC_DESIGN_SECURITY_CLASSIFICATION (#324, (#299));
#350 = DESIGN_CONTEXT ('', #289, 'design');
#351 = PRODUCT_DEFINITION ('', '', #299, #350);
#352 = APPROVAL_STATUS ('approved');
#353 = APPROVAL (#352, '');
#354 = CALENDAR_DATE (2021, 26, 1);
#355 = COORDINATED_UNIVERSAL_TIME_OFFSET (0, $, .AHEAD.);
#356 = LOCAL_TIME (9, 20, 55., #355);
#357 = DATE_AND_TIME (#354, #356);
#358 = APPROVAL_DATE_TIME (#357, #353);
#359 = APPROVAL_ROLE ('');
#360 = PERSON ('', '', $, $, $, $);
#361 = ORGANIZATION ($, '', '');
#362 = PERSON_AND_ORGANIZATION (#360, #361);
#363 = APPROVAL_PERSON_ORGANIZATION (#362, #353, #359);
#364 = CC_DESIGN_APPROVAL (#353, (#351));
#365 = DATE_TIME_ROLE ('creation_date');
#366 = CALENDAR_DATE (2021, 26, 1);
#367 = COORDINATED_UNIVERSAL_TIME_OFFSET (0, $, .AHEAD.);
#368 = LOCAL_TIME (9, 20, 55., #367);
#369 = DATE_AND_TIME (#366, #368);
#370 = CC_DESIGN_DATE_AND_TIME_ASSIGNMENT (#369, #365, (#351));
#371 = PERSON_AND_ORGANIZATION_ROLE ('creator');
#372 = PERSON ('', '', $, $, $, $);
#373 = ORGANIZATION ($, '', '');
#374 = PERSON_AND_ORGANIZATION (#372, #373);
#375 = CC_DESIGN_PERSON_AND_ORGANIZATION_ASSIGNMENT (#374, #371, (#351));
#376 = PRODUCT_DEFINITION_SHAPE ('', '', #351);
#377 = SHAPE_DEFINITION_REPRESENTATION (#376, #288);
#378 = SHAPE_REPRESENTATION_RELATIONSHIP ('', '', #288, #379);
#379 = ADVANCED_BREP_SHAPE_REPRESENTATION ('', (#282), #287);
ENDSEC;
END-ISO-10303-21;
