ISO-10303-21;
HEADER;
FILE_DESCRIPTION ((), '1');
FILE_NAME ('D:\\OneDrive - MAFord Europe\\Desktop\\250\\STEP\\250M02041B.STP', '2021-01-26T09:24:32', ('Unknown'), ('M. A. Ford Europe Ltd.'), 'OneCNC-XR8 Mill 3D Expert', 'OneCNC-XR8 Mill 3D Expert', '');
FILE_SCHEMA (('CONFIG_CONTROL_DESIGN'));
ENDSEC;

DATA;
#1 = CARTESIAN_POINT ('', (-4., 1., -2.44929359829471E-16));
#2 = VERTEX_POINT ('', #1);
#3 = CARTESIAN_POINT ('', (-1., 1., -2.44929359829471E-16));
#4 = VERTEX_POINT ('', #3);
#5 = CARTESIAN_POINT ('', (-4., 1., -2.44929359829471E-16));
#6 = CARTESIAN_POINT ('', (-3.00000000000001, 1., -2.44929359829471E-16));
#7 = CARTESIAN_POINT ('', (-2.00000000000001, 1., -2.44929359829471E-16));
#8 = CARTESIAN_POINT ('', (-1., 1., -2.44929359829471E-16));
#9 = B_SPLINE_CURVE_WITH_KNOTS ('', 3, (#5, #6, #7, #8), .UNSPECIFIED., .F., .U., (4, 4), (0., 1.), .UNSPECIFIED.);
#10 = EDGE_CURVE ('', #2, #4, #9, .T.);
#11 = ORIENTED_EDGE ('', *, *, #10, .F.);
#12 = CARTESIAN_POINT ('', (-4., 1., -2.44929359829471E-16));
#13 = CARTESIAN_POINT ('', (-4., 1., 4.));
#14 = CARTESIAN_POINT ('', (-4., -3., 2.));
#15 = CARTESIAN_POINT ('', (-4., -3., -2.));
#16 = CARTESIAN_POINT ('', (-4., 1., -4.));
#17 = CARTESIAN_POINT ('', (-4., 1., -2.44929359829471E-16));
#18 = (
   BOUNDED_CURVE ()
   B_SPLINE_CURVE (5, (#12, #13, #14, #15, #16, #17), .UNSPECIFIED., .T., .U.)
   B_SPLINE_CURVE_WITH_KNOTS ((6, 6), (0., 1.), .UNSPECIFIED.)
   CURVE ()
   GEOMETRIC_REPRESENTATION_ITEM ()
   RATIONAL_B_SPLINE_CURVE ((5., 1., 1., 1., 1., 5.))
   REPRESENTATION_ITEM ('')
);
#19 = EDGE_CURVE ('', #2, #2, #18, .T.);
#20 = ORIENTED_EDGE ('', *, *, #19, .T.);
#21 = ORIENTED_EDGE ('', *, *, #10, .T.);
#22 = CARTESIAN_POINT ('', (-1., 1., -2.44929359829471E-16));
#23 = CARTESIAN_POINT ('', (-1., 1., 4.));
#24 = CARTESIAN_POINT ('', (-1., -3., 2.));
#25 = CARTESIAN_POINT ('', (-1., -3., -2.));
#26 = CARTESIAN_POINT ('', (-1., 0.999999999999999, -4.));
#27 = CARTESIAN_POINT ('', (-1., 1., -2.44929359829471E-16));
#28 = (
   BOUNDED_CURVE ()
   B_SPLINE_CURVE (5, (#22, #23, #24, #25, #26, #27), .UNSPECIFIED., .T., .U.)
   B_SPLINE_CURVE_WITH_KNOTS ((6, 6), (0., 1.), .UNSPECIFIED.)
   CURVE ()
   GEOMETRIC_REPRESENTATION_ITEM ()
   RATIONAL_B_SPLINE_CURVE ((5., 1., 1., 1., 1., 5.))
   REPRESENTATION_ITEM ('')
);
#29 = EDGE_CURVE ('', #4, #4, #28, .T.);
#30 = ORIENTED_EDGE ('', *, *, #29, .F.);
#31 = EDGE_LOOP ('', (#11, #20, #21, #30));
#32 = FACE_OUTER_BOUND ('', #31, .T.);
#33 = CARTESIAN_POINT ('', (-4., 1., -2.44929359829471E-16));
#34 = CARTESIAN_POINT ('', (-3.00000000000001, 1., -2.44929359829471E-16));
#35 = CARTESIAN_POINT ('', (-2.00000000000001, 1., -2.44929359829471E-16));
#36 = CARTESIAN_POINT ('', (-1., 1., -2.44929359829471E-16));
#37 = CARTESIAN_POINT ('', (-4., 1., 4.));
#38 = CARTESIAN_POINT ('', (-3.00000000000001, 1., 4.));
#39 = CARTESIAN_POINT ('', (-2.00000000000001, 1., 4.));
#40 = CARTESIAN_POINT ('', (-1., 1., 4.));
#41 = CARTESIAN_POINT ('', (-4., -3., 2.));
#42 = CARTESIAN_POINT ('', (-3.00000000000001, -3., 2.));
#43 = CARTESIAN_POINT ('', (-2.00000000000001, -3., 2.));
#44 = CARTESIAN_POINT ('', (-1., -3., 2.));
#45 = CARTESIAN_POINT ('', (-4., -3., -2.));
#46 = CARTESIAN_POINT ('', (-3.00000000000001, -3., -2.));
#47 = CARTESIAN_POINT ('', (-2.00000000000001, -3., -2.));
#48 = CARTESIAN_POINT ('', (-1., -3., -2.));
#49 = CARTESIAN_POINT ('', (-4., 1., -4.));
#50 = CARTESIAN_POINT ('', (-3.00000000000001, 1., -4.));
#51 = CARTESIAN_POINT ('', (-2., 1., -4.));
#52 = CARTESIAN_POINT ('', (-1., 0.999999999999999, -4.));
#53 = CARTESIAN_POINT ('', (-4., 1., -2.44929359829471E-16));
#54 = CARTESIAN_POINT ('', (-3.00000000000001, 1., -2.44929359829471E-16));
#55 = CARTESIAN_POINT ('', (-2.00000000000001, 1., -2.44929359829471E-16));
#56 = CARTESIAN_POINT ('', (-1., 1., -2.44929359829471E-16));
#57 = (
   BOUNDED_SURFACE ()
   B_SPLINE_SURFACE (5, 3, ((#33, #34, #35, #36), (#37, #38, #39, #40), (#41, #42, #43, #44), (#45, #46, #47, #48), (#49, #50, #51, #52), (#53, #54, #55, #56)), .UNSPECIFIED., .T., .F., .U.)
   B_SPLINE_SURFACE_WITH_KNOTS ((6, 6), (4, 4), (0., 1.), (0., 1.), .UNSPECIFIED.)
   SURFACE ()
   GEOMETRIC_REPRESENTATION_ITEM ()
   RATIONAL_B_SPLINE_SURFACE (((5., 5., 5., 5.), (1., 1., 1., 1.), (1., 1., 1., 1.), (1., 1., 1., 1.), (1., 1., 1., 1.), (5., 5., 5., 5.)))
   REPRESENTATION_ITEM ('')
);
#58 = ADVANCED_FACE ('', (#32), #57, .T.);
#59 = CARTESIAN_POINT ('', (-9.14455401597031, 2., -4.89858719658941E-16));
#60 = VERTEX_POINT ('', #59);
#61 = CARTESIAN_POINT ('', (-9.14455401597031, 2., -4.89858719658941E-16));
#62 = CARTESIAN_POINT ('', (-7.42970267731353, 1.66666666666666, -4.08215599715783E-16));
#63 = CARTESIAN_POINT ('', (-5.71485133865678, 1.33333333333333, -3.26572479772628E-16));
#64 = CARTESIAN_POINT ('', (-4., 1., -2.44929359829471E-16));
#65 = B_SPLINE_CURVE_WITH_KNOTS ('', 3, (#61, #62, #63, #64), .UNSPECIFIED., .F., .U., (4, 4), (0., 1.), .UNSPECIFIED.);
#66 = EDGE_CURVE ('', #60, #2, #65, .T.);
#67 = ORIENTED_EDGE ('', *, *, #66, .F.);
#68 = CARTESIAN_POINT ('', (-9.14455401597031, 2., -4.89858719658941E-16));
#69 = CARTESIAN_POINT ('', (-9.14455401597031, 2., 8.));
#70 = CARTESIAN_POINT ('', (-9.14455401597031, -6., 4.));
#71 = CARTESIAN_POINT ('', (-9.14455401597031, -6., -4.));
#72 = CARTESIAN_POINT ('', (-9.14455401597031, 2., -8.));
#73 = CARTESIAN_POINT ('', (-9.14455401597031, 2., -4.89858719658941E-16));
#74 = (
   BOUNDED_CURVE ()
   B_SPLINE_CURVE (5, (#68, #69, #70, #71, #72, #73), .UNSPECIFIED., .T., .U.)
   B_SPLINE_CURVE_WITH_KNOTS ((6, 6), (0., 1.), .UNSPECIFIED.)
   CURVE ()
   GEOMETRIC_REPRESENTATION_ITEM ()
   RATIONAL_B_SPLINE_CURVE ((5., 1., 1., 1., 1., 5.))
   REPRESENTATION_ITEM ('')
);
#75 = EDGE_CURVE ('', #60, #60, #74, .T.);
#76 = ORIENTED_EDGE ('', *, *, #75, .T.);
#77 = ORIENTED_EDGE ('', *, *, #66, .T.);
#78 = ORIENTED_EDGE ('', *, *, #19, .F.);
#79 = EDGE_LOOP ('', (#67, #76, #77, #78));
#80 = FACE_OUTER_BOUND ('', #79, .T.);
#81 = CARTESIAN_POINT ('', (-9.14455401597031, 2., -4.89858719658941E-16));
#82 = CARTESIAN_POINT ('', (-7.42970267731353, 1.66666666666666, -4.08215599715783E-16));
#83 = CARTESIAN_POINT ('', (-5.71485133865678, 1.33333333333333, -3.26572479772628E-16));
#84 = CARTESIAN_POINT ('', (-4., 1., -2.44929359829471E-16));
#85 = CARTESIAN_POINT ('', (-9.14455401597031, 2., 8.));
#86 = CARTESIAN_POINT ('', (-7.42970267731353, 1.66666666666666, 6.66666666666665));
#87 = CARTESIAN_POINT ('', (-5.71485133865678, 1.33333333333333, 5.33333333333333));
#88 = CARTESIAN_POINT ('', (-4., 1., 4.));
#89 = CARTESIAN_POINT ('', (-9.14455401597031, -6., 4.));
#90 = CARTESIAN_POINT ('', (-7.42970267731353, -4.99999999999998, 3.33333333333332));
#91 = CARTESIAN_POINT ('', (-5.71485133865678, -4., 2.66666666666667));
#92 = CARTESIAN_POINT ('', (-4., -3., 2.));
#93 = CARTESIAN_POINT ('', (-9.14455401597031, -6., -4.));
#94 = CARTESIAN_POINT ('', (-7.42970267731353, -4.99999999999998, -3.33333333333332));
#95 = CARTESIAN_POINT ('', (-5.71485133865678, -4., -2.66666666666667));
#96 = CARTESIAN_POINT ('', (-4., -3., -2.));
#97 = CARTESIAN_POINT ('', (-9.14455401597031, 2., -8.));
#98 = CARTESIAN_POINT ('', (-7.42970267731353, 1.66666666666666, -6.66666666666665));
#99 = CARTESIAN_POINT ('', (-5.71485133865678, 1.33333333333333, -5.33333333333333));
#100 = CARTESIAN_POINT ('', (-4., 1., -4.));
#101 = CARTESIAN_POINT ('', (-9.14455401597031, 2., -4.89858719658941E-16));
#102 = CARTESIAN_POINT ('', (-7.42970267731353, 1.66666666666666, -4.08215599715783E-16));
#103 = CARTESIAN_POINT ('', (-5.71485133865678, 1.33333333333333, -3.26572479772628E-16));
#104 = CARTESIAN_POINT ('', (-4., 1., -2.44929359829471E-16));
#105 = (
   BOUNDED_SURFACE ()
   B_SPLINE_SURFACE (5, 3, ((#81, #82, #83, #84), (#85, #86, #87, #88), (#89, #90, #91, #92), (#93, #94, #95, #96), (#97, #98, #99, #100), (#101, #102, #103, #104)), .UNSPECIFIED., .T., .F., .U.)
   B_SPLINE_SURFACE_WITH_KNOTS ((6, 6), (4, 4), (0., 1.), (0., 1.), .UNSPECIFIED.)
   SURFACE ()
   GEOMETRIC_REPRESENTATION_ITEM ()
   RATIONAL_B_SPLINE_SURFACE (((5., 5., 5., 5.), (1., 1., 1., 1.), (1., 1., 1., 1.), (1., 1., 1., 1.), (1., 1., 1., 1.), (5., 5., 5., 5.)))
   REPRESENTATION_ITEM ('')
);
#106 = ADVANCED_FACE ('', (#80), #105, .T.);
#107 = CARTESIAN_POINT ('', (-49.75, 2., -4.89858719658941E-16));
#108 = VERTEX_POINT ('', #107);
#109 = CARTESIAN_POINT ('', (-49.75, 2., -4.89858719658941E-16));
#110 = CARTESIAN_POINT ('', (-36.2148513386567, 2., -4.89858719658941E-16));
#111 = CARTESIAN_POINT ('', (-22.6797026773135, 2., -4.89858719658941E-16));
#112 = CARTESIAN_POINT ('', (-9.14455401597031, 2., -4.89858719658941E-16));
#113 = B_SPLINE_CURVE_WITH_KNOTS ('', 3, (#109, #110, #111, #112), .UNSPECIFIED., .F., .U., (4, 4), (0., 1.), .UNSPECIFIED.);
#114 = EDGE_CURVE ('', #108, #60, #113, .T.);
#115 = ORIENTED_EDGE ('', *, *, #114, .F.);
#116 = CARTESIAN_POINT ('', (-49.75, 2., -4.89858719658941E-16));
#117 = CARTESIAN_POINT ('', (-49.75, 1.99999999999999, 7.99999999999999));
#118 = CARTESIAN_POINT ('', (-49.75, -5.99999999999999, 3.99999999999998));
#119 = CARTESIAN_POINT ('', (-49.75, -5.99999999999998, -4.));
#120 = CARTESIAN_POINT ('', (-49.75, 2.00000000000001, -7.99999999999999));
#121 = CARTESIAN_POINT ('', (-49.75, 2., -4.89858719658941E-16));
#122 = (
   BOUNDED_CURVE ()
   B_SPLINE_CURVE (5, (#116, #117, #118, #119, #120, #121), .UNSPECIFIED., .T., .U.)
   B_SPLINE_CURVE_WITH_KNOTS ((6, 6), (0., 1.), .UNSPECIFIED.)
   CURVE ()
   GEOMETRIC_REPRESENTATION_ITEM ()
   RATIONAL_B_SPLINE_CURVE ((5., 1., 1., 1., 1., 5.))
   REPRESENTATION_ITEM ('')
);
#123 = EDGE_CURVE ('', #108, #108, #122, .T.);
#124 = ORIENTED_EDGE ('', *, *, #123, .T.);
#125 = ORIENTED_EDGE ('', *, *, #114, .T.);
#126 = ORIENTED_EDGE ('', *, *, #75, .F.);
#127 = EDGE_LOOP ('', (#115, #124, #125, #126));
#128 = FACE_OUTER_BOUND ('', #127, .T.);
#129 = CARTESIAN_POINT ('', (-49.75, 2., -4.89858719658941E-16));
#130 = CARTESIAN_POINT ('', (-36.2148513386567, 2., -4.89858719658941E-16));
#131 = CARTESIAN_POINT ('', (-22.6797026773135, 2., -4.89858719658941E-16));
#132 = CARTESIAN_POINT ('', (-9.14455401597031, 2., -4.89858719658941E-16));
#133 = CARTESIAN_POINT ('', (-49.75, 1.99999999999999, 7.99999999999999));
#134 = CARTESIAN_POINT ('', (-36.2148513386567, 1.99999999999999, 7.99999999999999));
#135 = CARTESIAN_POINT ('', (-22.6797026773135, 2., 7.99999999999999));
#136 = CARTESIAN_POINT ('', (-9.14455401597031, 2., 8.));
#137 = CARTESIAN_POINT ('', (-49.75, -5.99999999999999, 3.99999999999998));
#138 = CARTESIAN_POINT ('', (-36.2148513386567, -5.99999999999999, 3.99999999999999));
#139 = CARTESIAN_POINT ('', (-22.6797026773135, -6., 3.99999999999999));
#140 = CARTESIAN_POINT ('', (-9.14455401597031, -6., 4.));
#141 = CARTESIAN_POINT ('', (-49.75, -5.99999999999998, -4.));
#142 = CARTESIAN_POINT ('', (-36.2148513386567, -5.99999999999999, -4.));
#143 = CARTESIAN_POINT ('', (-22.6797026773135, -5.99999999999999, -4.));
#144 = CARTESIAN_POINT ('', (-9.14455401597031, -6., -4.));
#145 = CARTESIAN_POINT ('', (-49.75, 2.00000000000001, -7.99999999999999));
#146 = CARTESIAN_POINT ('', (-36.2148513386567, 2.00000000000001, -7.99999999999999));
#147 = CARTESIAN_POINT ('', (-22.6797026773135, 2., -8.));
#148 = CARTESIAN_POINT ('', (-9.14455401597031, 2., -8.));
#149 = CARTESIAN_POINT ('', (-49.75, 2., -4.89858719658941E-16));
#150 = CARTESIAN_POINT ('', (-36.2148513386567, 2., -4.89858719658941E-16));
#151 = CARTESIAN_POINT ('', (-22.6797026773135, 2., -4.89858719658941E-16));
#152 = CARTESIAN_POINT ('', (-9.14455401597031, 2., -4.89858719658941E-16));
#153 = (
   BOUNDED_SURFACE ()
   B_SPLINE_SURFACE (5, 3, ((#129, #130, #131, #132), (#133, #134, #135, #136), (#137, #138, #139, #140), (#141, #142, #143, #144), (#145, #146, #147, #148), (#149, #150, #151, #152)), .UNSPECIFIED., .T., .F., .U.)
   B_SPLINE_SURFACE_WITH_KNOTS ((6, 6), (4, 4), (0., 1.), (0., 1.), .UNSPECIFIED.)
   SURFACE ()
   GEOMETRIC_REPRESENTATION_ITEM ()
   RATIONAL_B_SPLINE_SURFACE (((5., 5., 5., 5.), (1., 1., 1., 1.), (1., 1., 1., 1.), (1., 1., 1., 1.), (1., 1., 1., 1.), (5., 5., 5., 5.)))
   REPRESENTATION_ITEM ('')
);
#154 = ADVANCED_FACE ('', (#128), #153, .T.);
#155 = CARTESIAN_POINT ('', (-50., 1.75, -4.28626379701573E-16));
#156 = VERTEX_POINT ('', #155);
#157 = CARTESIAN_POINT ('', (-50., 1.75, -4.28626379701573E-16));
#158 = CARTESIAN_POINT ('', (-49.9166666666667, 1.83333333333333, -4.49037159687362E-16));
#159 = CARTESIAN_POINT ('', (-49.8333333333334, 1.91666666666666, -4.69447939673151E-16));
#160 = CARTESIAN_POINT ('', (-49.75, 2., -4.89858719658941E-16));
#161 = B_SPLINE_CURVE_WITH_KNOTS ('', 3, (#157, #158, #159, #160), .UNSPECIFIED., .F., .U., (4, 4), (0., 1.), .UNSPECIFIED.);
#162 = EDGE_CURVE ('', #156, #108, #161, .T.);
#163 = ORIENTED_EDGE ('', *, *, #162, .F.);
#164 = CARTESIAN_POINT ('', (-50., 1.75, -4.28626379701573E-16));
#165 = CARTESIAN_POINT ('', (-50., 1.74999999999999, 6.99999999999999));
#166 = CARTESIAN_POINT ('', (-50., -5.24999999999999, 3.49999999999998));
#167 = CARTESIAN_POINT ('', (-50., -5.24999999999998, -3.5));
#168 = CARTESIAN_POINT ('', (-50., 1.75000000000001, -6.99999999999999));
#169 = CARTESIAN_POINT ('', (-50., 1.75, -4.28626379701573E-16));
#170 = (
   BOUNDED_CURVE ()
   B_SPLINE_CURVE (5, (#164, #165, #166, #167, #168, #169), .UNSPECIFIED., .T., .U.)
   B_SPLINE_CURVE_WITH_KNOTS ((6, 6), (0., 1.), .UNSPECIFIED.)
   CURVE ()
   GEOMETRIC_REPRESENTATION_ITEM ()
   RATIONAL_B_SPLINE_CURVE ((5., 1., 1., 1., 1., 5.))
   REPRESENTATION_ITEM ('')
);
#171 = EDGE_CURVE ('', #156, #156, #170, .T.);
#172 = ORIENTED_EDGE ('', *, *, #171, .T.);
#173 = ORIENTED_EDGE ('', *, *, #162, .T.);
#174 = ORIENTED_EDGE ('', *, *, #123, .F.);
#175 = EDGE_LOOP ('', (#163, #172, #173, #174));
#176 = FACE_OUTER_BOUND ('', #175, .T.);
#177 = CARTESIAN_POINT ('', (-50., 1.75, -4.28626379701573E-16));
#178 = CARTESIAN_POINT ('', (-49.9166666666667, 1.83333333333333, -4.49037159687362E-16));
#179 = CARTESIAN_POINT ('', (-49.8333333333334, 1.91666666666666, -4.69447939673151E-16));
#180 = CARTESIAN_POINT ('', (-49.75, 2., -4.89858719658941E-16));
#181 = CARTESIAN_POINT ('', (-50., 1.74999999999999, 6.99999999999999));
#182 = CARTESIAN_POINT ('', (-49.9166666666667, 1.83333333333332, 7.33333333333331));
#183 = CARTESIAN_POINT ('', (-49.8333333333334, 1.91666666666665, 7.66666666666665));
#184 = CARTESIAN_POINT ('', (-49.75, 1.99999999999999, 7.99999999999999));
#185 = CARTESIAN_POINT ('', (-50., -5.24999999999999, 3.49999999999998));
#186 = CARTESIAN_POINT ('', (-49.9166666666667, -5.49999999999999, 3.66666666666665));
#187 = CARTESIAN_POINT ('', (-49.8333333333334, -5.74999999999999, 3.83333333333331));
#188 = CARTESIAN_POINT ('', (-49.75, -5.99999999999999, 3.99999999999998));
#189 = CARTESIAN_POINT ('', (-50., -5.24999999999998, -3.5));
#190 = CARTESIAN_POINT ('', (-49.9166666666667, -5.49999999999998, -3.66666666666667));
#191 = CARTESIAN_POINT ('', (-49.8333333333334, -5.74999999999998, -3.83333333333334));
#192 = CARTESIAN_POINT ('', (-49.75, -5.99999999999998, -4.));
#193 = CARTESIAN_POINT ('', (-50., 1.75000000000001, -6.99999999999999));
#194 = CARTESIAN_POINT ('', (-49.9166666666667, 1.83333333333334, -7.33333333333331));
#195 = CARTESIAN_POINT ('', (-49.8333333333334, 1.91666666666668, -7.66666666666665));
#196 = CARTESIAN_POINT ('', (-49.75, 2.00000000000001, -7.99999999999999));
#197 = CARTESIAN_POINT ('', (-50., 1.75, -4.28626379701573E-16));
#198 = CARTESIAN_POINT ('', (-49.9166666666667, 1.83333333333333, -4.49037159687362E-16));
#199 = CARTESIAN_POINT ('', (-49.8333333333334, 1.91666666666666, -4.69447939673151E-16));
#200 = CARTESIAN_POINT ('', (-49.75, 2., -4.89858719658941E-16));
#201 = (
   BOUNDED_SURFACE ()
   B_SPLINE_SURFACE (5, 3, ((#177, #178, #179, #180), (#181, #182, #183, #184), (#185, #186, #187, #188), (#189, #190, #191, #192), (#193, #194, #195, #196), (#197, #198, #199, #200)), .UNSPECIFIED., .T., .F., .U.)
   B_SPLINE_SURFACE_WITH_KNOTS ((6, 6), (4, 4), (0., 1.), (0., 1.), .UNSPECIFIED.)
   SURFACE ()
   GEOMETRIC_REPRESENTATION_ITEM ()
   RATIONAL_B_SPLINE_SURFACE (((5., 5., 5., 5.), (1., 1., 1., 1.), (1., 1., 1., 1.), (1., 1., 1., 1.), (1., 1., 1., 1.), (5., 5., 5., 5.)))
   REPRESENTATION_ITEM ('')
);
#202 = ADVANCED_FACE ('', (#176), #201, .T.);
#203 = CARTESIAN_POINT ('', (-50., 3.06161699786838E-15, -3.06161699786838E-15));
#204 = VERTEX_POINT ('', #203);
#205 = CARTESIAN_POINT ('', (-50., 3.06161699786838E-15, -3.06161699786838E-15));
#206 = CARTESIAN_POINT ('', (-50., 1.75, -4.28626379701573E-16));
#207 = B_SPLINE_CURVE_WITH_KNOTS ('', 1, (#205, #206), .UNSPECIFIED., .F., .U., (2, 2), (0., 1.), .UNSPECIFIED.);
#208 = EDGE_CURVE ('', #204, #156, #207, .T.);
#209 = ORIENTED_EDGE ('', *, *, #208, .F.);
#210 = ORIENTED_EDGE ('', *, *, #208, .T.);
#211 = ORIENTED_EDGE ('', *, *, #171, .F.);
#212 = EDGE_LOOP ('', (#209, #210, #211));
#213 = FACE_OUTER_BOUND ('', #212, .T.);
#214 = CARTESIAN_POINT ('', (-50., 3.06161699786838E-15, -3.06161699786838E-15));
#215 = CARTESIAN_POINT ('', (-50., 1.75, -4.28626379701573E-16));
#216 = CARTESIAN_POINT ('', (-50., 3.06161699786838E-15, -3.06161699786838E-15));
#217 = CARTESIAN_POINT ('', (-50., 1.74999999999999, 6.99999999999999));
#218 = CARTESIAN_POINT ('', (-50., 3.06161699786838E-15, -3.06161699786838E-15));
#219 = CARTESIAN_POINT ('', (-50., -5.24999999999999, 3.49999999999998));
#220 = CARTESIAN_POINT ('', (-50., 3.06161699786838E-15, -3.06161699786838E-15));
#221 = CARTESIAN_POINT ('', (-50., -5.24999999999998, -3.5));
#222 = CARTESIAN_POINT ('', (-50., 3.06161699786838E-15, -3.06161699786838E-15));
#223 = CARTESIAN_POINT ('', (-50., 1.75000000000001, -6.99999999999999));
#224 = CARTESIAN_POINT ('', (-50., 3.06161699786838E-15, -3.06161699786838E-15));
#225 = CARTESIAN_POINT ('', (-50., 1.75, -4.28626379701573E-16));
#226 = (
   BOUNDED_SURFACE ()
   B_SPLINE_SURFACE (5, 1, ((#214, #215), (#216, #217), (#218, #219), (#220, #221), (#222, #223), (#224, #225)), .UNSPECIFIED., .T., .F., .U.)
   B_SPLINE_SURFACE_WITH_KNOTS ((6, 6), (2, 2), (0., 1.), (0., 1.), .UNSPECIFIED.)
   SURFACE ()
   GEOMETRIC_REPRESENTATION_ITEM ()
   RATIONAL_B_SPLINE_SURFACE (((5., 5.), (1., 1.), (1., 1.), (1., 1.), (1., 1.), (5., 5.)))
   REPRESENTATION_ITEM ('')
);
#227 = ADVANCED_FACE ('', (#213), #226, .T.);
#228 = CARTESIAN_POINT ('', (0., 0., 0.));
#229 = VERTEX_POINT ('', #228);
#230 = CARTESIAN_POINT ('', (-1., 1., -2.44929359829471E-16));
#231 = CARTESIAN_POINT ('', (-0.890744622220274, 1., -2.44929359829471E-16));
#232 = CARTESIAN_POINT ('', (-0.646258066388878, 0.959471539624311, -2.35002749974779E-16));
#233 = CARTESIAN_POINT ('', (-0.340300069367816, 0.779945699798075, -1.91031600953291E-16));
#234 = CARTESIAN_POINT ('', (-0.0758056175953781, 0.454602033867177, -1.11345385132263E-16));
#235 = CARTESIAN_POINT ('', (3.08148791101958E-33, 0.176020139950704, -4.31125001952197E-17));
#236 = CARTESIAN_POINT ('', (0., 0., 0.));
#237 = B_SPLINE_CURVE_WITH_KNOTS ('', 3, (#230, #231, #232, #233, #234, #235, #236), .UNSPECIFIED., .F., .U., (4, 1, 1, 1, 4), (0., 0.208662401196191, 0.467060336615637, 0.66382629571742, 1.), .UNSPECIFIED.);
#238 = EDGE_CURVE ('', #4, #229, #237, .T.);
#239 = ORIENTED_EDGE ('', *, *, #238, .F.);
#240 = ORIENTED_EDGE ('', *, *, #29, .T.);
#241 = ORIENTED_EDGE ('', *, *, #238, .T.);
#242 = EDGE_LOOP ('', (#239, #240, #241));
#243 = FACE_OUTER_BOUND ('', #242, .T.);
#244 = CARTESIAN_POINT ('', (-1., 1., -2.44929359829471E-16));
#245 = CARTESIAN_POINT ('', (-0.890744622220274, 1., -2.44929359829471E-16));
#246 = CARTESIAN_POINT ('', (-0.646258066388878, 0.959471539624311, -2.35002749974779E-16));
#247 = CARTESIAN_POINT ('', (-0.340300069367816, 0.779945699798075, -1.91031600953291E-16));
#248 = CARTESIAN_POINT ('', (-0.0758056175953781, 0.454602033867177, -1.11345385132263E-16));
#249 = CARTESIAN_POINT ('', (3.08148791101958E-33, 0.176020139950704, -4.31125001952197E-17));
#250 = CARTESIAN_POINT ('', (0., 0., 0.));
#251 = CARTESIAN_POINT ('', (-1., 1., 4.));
#252 = CARTESIAN_POINT ('', (-0.890744622220274, 1., 4.));
#253 = CARTESIAN_POINT ('', (-0.646258066388878, 0.959471539624312, 3.83788615849724));
#254 = CARTESIAN_POINT ('', (-0.340300069367816, 0.779945699798076, 3.1197827991923));
#255 = CARTESIAN_POINT ('', (-0.0758056175953782, 0.454602033867178, 1.81840813546871));
#256 = CARTESIAN_POINT ('', (-4.31125001952197E-17, 0.176020139950704, 0.704080559802815));
#257 = CARTESIAN_POINT ('', (0., 0., 0.));
#258 = CARTESIAN_POINT ('', (-1., -3., 2.));
#259 = CARTESIAN_POINT ('', (-0.890744622220274, -3., 2.));
#260 = CARTESIAN_POINT ('', (-0.646258066388878, -2.87841461887293, 1.91894307924862));
#261 = CARTESIAN_POINT ('', (-0.340300069367816, -2.33983709939423, 1.55989139959615));
#262 = CARTESIAN_POINT ('', (-0.0758056175953783, -1.36380610160153, 0.909204067734355));
#263 = CARTESIAN_POINT ('', (-6.46687502928296E-17, -0.528060419852111, 0.352040279901408));
#264 = CARTESIAN_POINT ('', (0., 0., 0.));
#265 = CARTESIAN_POINT ('', (-1., -3., -2.));
#266 = CARTESIAN_POINT ('', (-0.890744622220274, -3., -2.));
#267 = CARTESIAN_POINT ('', (-0.646258066388878, -2.87841461887293, -1.91894307924862));
#268 = CARTESIAN_POINT ('', (-0.340300069367816, -2.33983709939423, -1.55989139959615));
#269 = CARTESIAN_POINT ('', (-0.0758056175953782, -1.36380610160153, -0.909204067734354));
#270 = CARTESIAN_POINT ('', (-2.15562500976099E-17, -0.528060419852111, -0.352040279901407));
#271 = CARTESIAN_POINT ('', (0., 0., 0.));
#272 = CARTESIAN_POINT ('', (-1., 0.999999999999999, -4.));
#273 = CARTESIAN_POINT ('', (-0.890744622220274, 0.999999999999999, -4.));
#274 = CARTESIAN_POINT ('', (-0.646258066388877, 0.95947153962431, -3.83788615849724));
#275 = CARTESIAN_POINT ('', (-0.340300069367816, 0.779945699798075, -3.1197827991923));
#276 = CARTESIAN_POINT ('', (-0.075805617595378, 0.454602033867177, -1.81840813546871));
#277 = CARTESIAN_POINT ('', (4.31125001952197E-17, 0.176020139950704, -0.704080559802815));
#278 = CARTESIAN_POINT ('', (0., 0., 0.));
#279 = CARTESIAN_POINT ('', (-1., 1., -2.44929359829471E-16));
#280 = CARTESIAN_POINT ('', (-0.890744622220274, 1., -2.44929359829471E-16));
#281 = CARTESIAN_POINT ('', (-0.646258066388878, 0.959471539624311, -2.35002749974779E-16));
#282 = CARTESIAN_POINT ('', (-0.340300069367816, 0.779945699798075, -1.91031600953291E-16));
#283 = CARTESIAN_POINT ('', (-0.0758056175953781, 0.454602033867177, -1.11345385132263E-16));
#284 = CARTESIAN_POINT ('', (3.08148791101958E-33, 0.176020139950704, -4.31125001952197E-17));
#285 = CARTESIAN_POINT ('', (0., 0., 0.));
#286 = (
   BOUNDED_SURFACE ()
   B_SPLINE_SURFACE (5, 3, ((#244, #245, #246, #247, #248, #249, #250), (#251, #252, #253, #254, #255, #256, #257), (#258, #259, #260, #261, #262, #263, #264), (#265, #266, #267, #268, #269, #270, #271), (#272, #273, #274, #275, #276, #277, #278), (#279, #280, #281, #282, #283, #284, #285)), .UNSPECIFIED., .T., .F., .U.)
   B_SPLINE_SURFACE_WITH_KNOTS ((6, 6), (4, 1, 1, 1, 4), (0., 1.), (0., 0.208662401196191, 0.467060336615637, 0.66382629571742, 1.), .UNSPECIFIED.)
   SURFACE ()
   GEOMETRIC_REPRESENTATION_ITEM ()
   RATIONAL_B_SPLINE_SURFACE (((5., 5., 5., 5., 5., 5., 5.), (1., 1., 1., 1., 1., 1., 1.), (1., 1., 1., 1., 1., 1., 1.), (1., 1., 1., 1., 1., 1., 1.), (1., 1., 1., 1., 1., 1., 1.), (5., 5., 5., 5., 5., 5., 5.)))
   REPRESENTATION_ITEM ('')
);
#287 = ADVANCED_FACE ('', (#243), #286, .T.);
#288 = CLOSED_SHELL ('', (#58, #106, #154, #202, #227, #287));
#289 = MANIFOLD_SOLID_BREP ('', #288);
#290 = (
   LENGTH_UNIT ()
   NAMED_UNIT (*)
   SI_UNIT (.MILLI., .METRE.)
);
#291 = (
   NAMED_UNIT (*)
   SI_UNIT ($, .STERADIAN.)
   SOLID_ANGLE_UNIT ()
);
#292 = (
   NAMED_UNIT (*)
   SI_UNIT ($, .RADIAN.)
   PLANE_ANGLE_UNIT ()
);
#293 = UNCERTAINTY_MEASURE_WITH_UNIT (LENGTH_MEASURE(0.001), #290, 'DISTANCE_ACCURACY_VALUE', '');
#294 = (
   GEOMETRIC_REPRESENTATION_CONTEXT (3)
   GLOBAL_UNCERTAINTY_ASSIGNED_CONTEXT ((#293))
   GLOBAL_UNIT_ASSIGNED_CONTEXT ((#290, #291, #292))
   REPRESENTATION_CONTEXT ('', '3D')
);
#295 = SHAPE_REPRESENTATION ('', (), #294);
#296 = APPLICATION_CONTEXT ('configuration controlled 3D designs of mechanical parts and assemblies');
#297 = APPLICATION_PROTOCOL_DEFINITION ('International Standard', 'config_control_design', 1997, #296);
#298 = MECHANICAL_CONTEXT ('', #296, 'mechanical');
#299 = PRODUCT ('', '', '', (#298));
#300 = PERSON_AND_ORGANIZATION_ROLE ('design_owner');
#301 = PERSON ('', '', $, $, $, $);
#302 = ORGANIZATION ($, '', '');
#303 = PERSON_AND_ORGANIZATION (#301, #302);
#304 = CC_DESIGN_PERSON_AND_ORGANIZATION_ASSIGNMENT (#303, #300, (#299));
#305 = PRODUCT_RELATED_PRODUCT_CATEGORY ('detail', $, (#299));
#306 = PRODUCT_DEFINITION_FORMATION_WITH_SPECIFIED_SOURCE ('', '', #299, .NOT_KNOWN.);
#307 = APPROVAL_STATUS ('approved');
#308 = APPROVAL (#307, '');
#309 = CALENDAR_DATE (2021, 26, 1);
#310 = COORDINATED_UNIVERSAL_TIME_OFFSET (0, $, .AHEAD.);
#311 = LOCAL_TIME (9, 24, 32., #310);
#312 = DATE_AND_TIME (#309, #311);
#313 = APPROVAL_DATE_TIME (#312, #308);
#314 = APPROVAL_ROLE ('');
#315 = PERSON ('', '', $, $, $, $);
#316 = ORGANIZATION ($, '', '');
#317 = PERSON_AND_ORGANIZATION (#315, #316);
#318 = APPROVAL_PERSON_ORGANIZATION (#317, #308, #314);
#319 = CC_DESIGN_APPROVAL (#308, (#306));
#320 = PERSON_AND_ORGANIZATION_ROLE ('creator');
#321 = PERSON ('', '', $, $, $, $);
#322 = ORGANIZATION ($, '', '');
#323 = PERSON_AND_ORGANIZATION (#321, #322);
#324 = CC_DESIGN_PERSON_AND_ORGANIZATION_ASSIGNMENT (#323, #320, (#306));
#325 = PERSON_AND_ORGANIZATION_ROLE ('part_supplier');
#326 = PERSON ('', '', $, $, $, $);
#327 = ORGANIZATION ($, '', '');
#328 = PERSON_AND_ORGANIZATION (#326, #327);
#329 = CC_DESIGN_PERSON_AND_ORGANIZATION_ASSIGNMENT (#328, #325, (#306));
#330 = SECURITY_CLASSIFICATION_LEVEL ('unclassified');
#331 = SECURITY_CLASSIFICATION ('', '', #330);
#332 = APPROVAL_STATUS ('approved');
#333 = APPROVAL (#332, '');
#334 = CALENDAR_DATE (2021, 26, 1);
#335 = COORDINATED_UNIVERSAL_TIME_OFFSET (0, $, .AHEAD.);
#336 = LOCAL_TIME (9, 24, 32., #335);
#337 = DATE_AND_TIME (#334, #336);
#338 = APPROVAL_DATE_TIME (#337, #333);
#339 = APPROVAL_ROLE ('');
#340 = PERSON ('', '', $, $, $, $);
#341 = ORGANIZATION ($, '', '');
#342 = PERSON_AND_ORGANIZATION (#340, #341);
#343 = APPROVAL_PERSON_ORGANIZATION (#342, #333, #339);
#344 = CC_DESIGN_APPROVAL (#333, (#331));
#345 = DATE_TIME_ROLE ('classification_date');
#346 = CALENDAR_DATE (2021, 26, 1);
#347 = COORDINATED_UNIVERSAL_TIME_OFFSET (0, $, .AHEAD.);
#348 = LOCAL_TIME (9, 24, 32., #347);
#349 = DATE_AND_TIME (#346, #348);
#350 = CC_DESIGN_DATE_AND_TIME_ASSIGNMENT (#349, #345, (#331));
#351 = PERSON_AND_ORGANIZATION_ROLE ('classification_officer');
#352 = PERSON ('', '', $, $, $, $);
#353 = ORGANIZATION ($, '', '');
#354 = PERSON_AND_ORGANIZATION (#352, #353);
#355 = CC_DESIGN_PERSON_AND_ORGANIZATION_ASSIGNMENT (#354, #351, (#331));
#356 = CC_DESIGN_SECURITY_CLASSIFICATION (#331, (#306));
#357 = DESIGN_CONTEXT ('', #296, 'design');
#358 = PRODUCT_DEFINITION ('', '', #306, #357);
#359 = APPROVAL_STATUS ('approved');
#360 = APPROVAL (#359, '');
#361 = CALENDAR_DATE (2021, 26, 1);
#362 = COORDINATED_UNIVERSAL_TIME_OFFSET (0, $, .AHEAD.);
#363 = LOCAL_TIME (9, 24, 32., #362);
#364 = DATE_AND_TIME (#361, #363);
#365 = APPROVAL_DATE_TIME (#364, #360);
#366 = APPROVAL_ROLE ('');
#367 = PERSON ('', '', $, $, $, $);
#368 = ORGANIZATION ($, '', '');
#369 = PERSON_AND_ORGANIZATION (#367, #368);
#370 = APPROVAL_PERSON_ORGANIZATION (#369, #360, #366);
#371 = CC_DESIGN_APPROVAL (#360, (#358));
#372 = DATE_TIME_ROLE ('creation_date');
#373 = CALENDAR_DATE (2021, 26, 1);
#374 = COORDINATED_UNIVERSAL_TIME_OFFSET (0, $, .AHEAD.);
#375 = LOCAL_TIME (9, 24, 32., #374);
#376 = DATE_AND_TIME (#373, #375);
#377 = CC_DESIGN_DATE_AND_TIME_ASSIGNMENT (#376, #372, (#358));
#378 = PERSON_AND_ORGANIZATION_ROLE ('creator');
#379 = PERSON ('', '', $, $, $, $);
#380 = ORGANIZATION ($, '', '');
#381 = PERSON_AND_ORGANIZATION (#379, #380);
#382 = CC_DESIGN_PERSON_AND_ORGANIZATION_ASSIGNMENT (#381, #378, (#358));
#383 = PRODUCT_DEFINITION_SHAPE ('', '', #358);
#384 = SHAPE_DEFINITION_REPRESENTATION (#383, #295);
#385 = SHAPE_REPRESENTATION_RELATIONSHIP ('', '', #295, #386);
#386 = ADVANCED_BREP_SHAPE_REPRESENTATION ('', (#289), #294);
ENDSEC;
END-ISO-10303-21;
