ISO-10303-21;
HEADER;
FILE_DESCRIPTION ((), '1');
FILE_NAME ('D:\\OneDrive - MAFord Europe\\Desktop\\250\\STEP\\250M04041B.STP', '2021-01-26T09:31:20', ('Unknown'), ('M. A. Ford Europe Ltd.'), 'OneCNC-XR8 Mill 3D Expert', 'OneCNC-XR8 Mill 3D Expert', '');
FILE_SCHEMA (('CONFIG_CONTROL_DESIGN'));
ENDSEC;

DATA;
#1 = CARTESIAN_POINT ('', (-2., 2., -4.89858719658941E-16));
#2 = VERTEX_POINT ('', #1);
#3 = CARTESIAN_POINT ('', (0., 0., 0.));
#4 = VERTEX_POINT ('', #3);
#5 = CARTESIAN_POINT ('', (-2., 2., -4.89858719658941E-16));
#6 = CARTESIAN_POINT ('', (-1.78148924444055, 2., -4.89858719658941E-16));
#7 = CARTESIAN_POINT ('', (-1.29251613277776, 1.91894307924862, -4.70005499949558E-16));
#8 = CARTESIAN_POINT ('', (-0.680600138735632, 1.55989139959615, -3.82063201906582E-16));
#9 = CARTESIAN_POINT ('', (-0.151611235190756, 0.909204067734355, -2.22690770264526E-16));
#10 = CARTESIAN_POINT ('', (6.16297582203915E-33, 0.352040279901408, -8.62250003904394E-17));
#11 = CARTESIAN_POINT ('', (0., 0., 0.));
#12 = B_SPLINE_CURVE_WITH_KNOTS ('', 3, (#5, #6, #7, #8, #9, #10, #11), .UNSPECIFIED., .F., .U., (4, 1, 1, 1, 4), (0., 0.208662401196191, 0.467060336615637, 0.66382629571742, 1.), .UNSPECIFIED.);
#13 = EDGE_CURVE ('', #2, #4, #12, .T.);
#14 = ORIENTED_EDGE ('', *, *, #13, .F.);
#15 = CARTESIAN_POINT ('', (-2., 2., -4.89858719658941E-16));
#16 = CARTESIAN_POINT ('', (-2., 2., 8.));
#17 = CARTESIAN_POINT ('', (-2., -6., 4.));
#18 = CARTESIAN_POINT ('', (-2., -6., -4.));
#19 = CARTESIAN_POINT ('', (-2., 2., -8.));
#20 = CARTESIAN_POINT ('', (-2., 2., -4.89858719658941E-16));
#21 = (
   BOUNDED_CURVE ()
   B_SPLINE_CURVE (5, (#15, #16, #17, #18, #19, #20), .UNSPECIFIED., .T., .U.)
   B_SPLINE_CURVE_WITH_KNOTS ((6, 6), (0., 1.), .UNSPECIFIED.)
   CURVE ()
   GEOMETRIC_REPRESENTATION_ITEM ()
   RATIONAL_B_SPLINE_CURVE ((5., 1., 1., 1., 1., 5.))
   REPRESENTATION_ITEM ('')
);
#22 = EDGE_CURVE ('', #2, #2, #21, .T.);
#23 = ORIENTED_EDGE ('', *, *, #22, .T.);
#24 = ORIENTED_EDGE ('', *, *, #13, .T.);
#25 = EDGE_LOOP ('', (#14, #23, #24));
#26 = FACE_OUTER_BOUND ('', #25, .T.);
#27 = CARTESIAN_POINT ('', (-2., 2., -4.89858719658941E-16));
#28 = CARTESIAN_POINT ('', (-1.78148924444055, 2., -4.89858719658941E-16));
#29 = CARTESIAN_POINT ('', (-1.29251613277776, 1.91894307924862, -4.70005499949558E-16));
#30 = CARTESIAN_POINT ('', (-0.680600138735632, 1.55989139959615, -3.82063201906582E-16));
#31 = CARTESIAN_POINT ('', (-0.151611235190756, 0.909204067734355, -2.22690770264526E-16));
#32 = CARTESIAN_POINT ('', (6.16297582203915E-33, 0.352040279901408, -8.62250003904394E-17));
#33 = CARTESIAN_POINT ('', (0., 0., 0.));
#34 = CARTESIAN_POINT ('', (-2., 2., 8.));
#35 = CARTESIAN_POINT ('', (-1.78148924444055, 2., 8.));
#36 = CARTESIAN_POINT ('', (-1.29251613277776, 1.91894307924862, 7.67577231699449));
#37 = CARTESIAN_POINT ('', (-0.680600138735632, 1.55989139959615, 6.2395655983846));
#38 = CARTESIAN_POINT ('', (-0.151611235190756, 0.909204067734356, 3.63681627093742));
#39 = CARTESIAN_POINT ('', (-8.62250003904394E-17, 0.352040279901408, 1.40816111960563));
#40 = CARTESIAN_POINT ('', (0., 0., 0.));
#41 = CARTESIAN_POINT ('', (-2., -6., 4.));
#42 = CARTESIAN_POINT ('', (-1.78148924444055, -6., 4.));
#43 = CARTESIAN_POINT ('', (-1.29251613277776, -5.75682923774586, 3.83788615849724));
#44 = CARTESIAN_POINT ('', (-0.680600138735632, -4.67967419878845, 3.1197827991923));
#45 = CARTESIAN_POINT ('', (-0.151611235190757, -2.72761220320306, 1.81840813546871));
#46 = CARTESIAN_POINT ('', (-1.29337500585659E-16, -1.05612083970422, 0.704080559802815));
#47 = CARTESIAN_POINT ('', (0., 0., 0.));
#48 = CARTESIAN_POINT ('', (-2., -6., -4.));
#49 = CARTESIAN_POINT ('', (-1.78148924444055, -6., -4.));
#50 = CARTESIAN_POINT ('', (-1.29251613277776, -5.75682923774587, -3.83788615849724));
#51 = CARTESIAN_POINT ('', (-0.680600138735632, -4.67967419878845, -3.1197827991923));
#52 = CARTESIAN_POINT ('', (-0.151611235190756, -2.72761220320306, -1.81840813546871));
#53 = CARTESIAN_POINT ('', (-4.31125001952197E-17, -1.05612083970422, -0.704080559802815));
#54 = CARTESIAN_POINT ('', (0., 0., 0.));
#55 = CARTESIAN_POINT ('', (-2., 2., -8.));
#56 = CARTESIAN_POINT ('', (-1.78148924444055, 2., -8.));
#57 = CARTESIAN_POINT ('', (-1.29251613277775, 1.91894307924862, -7.67577231699449));
#58 = CARTESIAN_POINT ('', (-0.680600138735632, 1.55989139959615, -6.2395655983846));
#59 = CARTESIAN_POINT ('', (-0.151611235190756, 0.909204067734354, -3.63681627093742));
#60 = CARTESIAN_POINT ('', (8.62250003904394E-17, 0.352040279901407, -1.40816111960563));
#61 = CARTESIAN_POINT ('', (0., 0., 0.));
#62 = CARTESIAN_POINT ('', (-2., 2., -4.89858719658941E-16));
#63 = CARTESIAN_POINT ('', (-1.78148924444055, 2., -4.89858719658941E-16));
#64 = CARTESIAN_POINT ('', (-1.29251613277776, 1.91894307924862, -4.70005499949558E-16));
#65 = CARTESIAN_POINT ('', (-0.680600138735632, 1.55989139959615, -3.82063201906582E-16));
#66 = CARTESIAN_POINT ('', (-0.151611235190756, 0.909204067734355, -2.22690770264526E-16));
#67 = CARTESIAN_POINT ('', (6.16297582203915E-33, 0.352040279901408, -8.62250003904394E-17));
#68 = CARTESIAN_POINT ('', (0., 0., 0.));
#69 = (
   BOUNDED_SURFACE ()
   B_SPLINE_SURFACE (5, 3, ((#27, #28, #29, #30, #31, #32, #33), (#34, #35, #36, #37, #38, #39, #40), (#41, #42, #43, #44, #45, #46, #47), (#48, #49, #50, #51, #52, #53, #54), (#55, #56, #57, #58, #59, #60, #61), (#62, #63, #64, #65, #66, #67, #68)), .UNSPECIFIED., .T., .F., .U.)
   B_SPLINE_SURFACE_WITH_KNOTS ((6, 6), (4, 1, 1, 1, 4), (0., 1.), (0., 0.208662401196191, 0.467060336615637, 0.66382629571742, 1.), .UNSPECIFIED.)
   SURFACE ()
   GEOMETRIC_REPRESENTATION_ITEM ()
   RATIONAL_B_SPLINE_SURFACE (((5., 5., 5., 5., 5., 5., 5.), (1., 1., 1., 1., 1., 1., 1.), (1., 1., 1., 1., 1., 1., 1.), (1., 1., 1., 1., 1., 1., 1.), (1., 1., 1., 1., 1., 1., 1.), (5., 5., 5., 5., 5., 5., 5.)))
   REPRESENTATION_ITEM ('')
);
#70 = ADVANCED_FACE ('', (#26), #69, .T.);
#71 = CARTESIAN_POINT ('', (-49.75, 2., -4.89858719658941E-16));
#72 = VERTEX_POINT ('', #71);
#73 = CARTESIAN_POINT ('', (-49.75, 2., -4.89858719658941E-16));
#74 = CARTESIAN_POINT ('', (-33.8333333333334, 2., -4.8985871965894E-16));
#75 = CARTESIAN_POINT ('', (-17.9166666666667, 2., -4.89858719658941E-16));
#76 = CARTESIAN_POINT ('', (-2., 2., -4.89858719658941E-16));
#77 = B_SPLINE_CURVE_WITH_KNOTS ('', 3, (#73, #74, #75, #76), .UNSPECIFIED., .F., .U., (4, 4), (0., 1.), .UNSPECIFIED.);
#78 = EDGE_CURVE ('', #72, #2, #77, .T.);
#79 = ORIENTED_EDGE ('', *, *, #78, .F.);
#80 = CARTESIAN_POINT ('', (-49.75, 2., -4.89858719658941E-16));
#81 = CARTESIAN_POINT ('', (-49.75, 1.99999999999999, 7.99999999999999));
#82 = CARTESIAN_POINT ('', (-49.75, -5.99999999999999, 3.99999999999998));
#83 = CARTESIAN_POINT ('', (-49.75, -5.99999999999998, -4.));
#84 = CARTESIAN_POINT ('', (-49.75, 2.00000000000001, -7.99999999999999));
#85 = CARTESIAN_POINT ('', (-49.75, 2., -4.89858719658941E-16));
#86 = (
   BOUNDED_CURVE ()
   B_SPLINE_CURVE (5, (#80, #81, #82, #83, #84, #85), .UNSPECIFIED., .T., .U.)
   B_SPLINE_CURVE_WITH_KNOTS ((6, 6), (0., 1.), .UNSPECIFIED.)
   CURVE ()
   GEOMETRIC_REPRESENTATION_ITEM ()
   RATIONAL_B_SPLINE_CURVE ((5., 1., 1., 1., 1., 5.))
   REPRESENTATION_ITEM ('')
);
#87 = EDGE_CURVE ('', #72, #72, #86, .T.);
#88 = ORIENTED_EDGE ('', *, *, #87, .T.);
#89 = ORIENTED_EDGE ('', *, *, #78, .T.);
#90 = ORIENTED_EDGE ('', *, *, #22, .F.);
#91 = EDGE_LOOP ('', (#79, #88, #89, #90));
#92 = FACE_OUTER_BOUND ('', #91, .T.);
#93 = CARTESIAN_POINT ('', (-49.75, 2., -4.89858719658941E-16));
#94 = CARTESIAN_POINT ('', (-33.8333333333334, 2., -4.8985871965894E-16));
#95 = CARTESIAN_POINT ('', (-17.9166666666667, 2., -4.89858719658941E-16));
#96 = CARTESIAN_POINT ('', (-2., 2., -4.89858719658941E-16));
#97 = CARTESIAN_POINT ('', (-49.75, 1.99999999999999, 7.99999999999999));
#98 = CARTESIAN_POINT ('', (-33.8333333333334, 1.99999999999999, 7.99999999999999));
#99 = CARTESIAN_POINT ('', (-17.9166666666667, 2., 8.));
#100 = CARTESIAN_POINT ('', (-2., 2., 8.));
#101 = CARTESIAN_POINT ('', (-49.75, -5.99999999999999, 3.99999999999998));
#102 = CARTESIAN_POINT ('', (-33.8333333333334, -6., 3.99999999999999));
#103 = CARTESIAN_POINT ('', (-17.9166666666667, -6., 4.));
#104 = CARTESIAN_POINT ('', (-2., -6., 4.));
#105 = CARTESIAN_POINT ('', (-49.75, -5.99999999999998, -4.));
#106 = CARTESIAN_POINT ('', (-33.8333333333334, -5.99999999999999, -4.));
#107 = CARTESIAN_POINT ('', (-17.9166666666667, -5.99999999999999, -4.));
#108 = CARTESIAN_POINT ('', (-2., -6., -4.));
#109 = CARTESIAN_POINT ('', (-49.75, 2.00000000000001, -7.99999999999999));
#110 = CARTESIAN_POINT ('', (-33.8333333333334, 2.00000000000001, -7.99999999999999));
#111 = CARTESIAN_POINT ('', (-17.9166666666667, 2., -8.));
#112 = CARTESIAN_POINT ('', (-2., 2., -8.));
#113 = CARTESIAN_POINT ('', (-49.75, 2., -4.89858719658941E-16));
#114 = CARTESIAN_POINT ('', (-33.8333333333334, 2., -4.8985871965894E-16));
#115 = CARTESIAN_POINT ('', (-17.9166666666667, 2., -4.89858719658941E-16));
#116 = CARTESIAN_POINT ('', (-2., 2., -4.89858719658941E-16));
#117 = (
   BOUNDED_SURFACE ()
   B_SPLINE_SURFACE (5, 3, ((#93, #94, #95, #96), (#97, #98, #99, #100), (#101, #102, #103, #104), (#105, #106, #107, #108), (#109, #110, #111, #112), (#113, #114, #115, #116)), .UNSPECIFIED., .T., .F., .U.)
   B_SPLINE_SURFACE_WITH_KNOTS ((6, 6), (4, 4), (0., 1.), (0., 1.), .UNSPECIFIED.)
   SURFACE ()
   GEOMETRIC_REPRESENTATION_ITEM ()
   RATIONAL_B_SPLINE_SURFACE (((5., 5., 5., 5.), (1., 1., 1., 1.), (1., 1., 1., 1.), (1., 1., 1., 1.), (1., 1., 1., 1.), (5., 5., 5., 5.)))
   REPRESENTATION_ITEM ('')
);
#118 = ADVANCED_FACE ('', (#92), #117, .T.);
#119 = CARTESIAN_POINT ('', (-50., 3.06161699786838E-15, -3.06161699786838E-15));
#120 = VERTEX_POINT ('', #119);
#121 = CARTESIAN_POINT ('', (-50., 1.75, -4.28626379701573E-16));
#122 = VERTEX_POINT ('', #121);
#123 = CARTESIAN_POINT ('', (-50., 3.06161699786838E-15, -3.06161699786838E-15));
#124 = CARTESIAN_POINT ('', (-50., 1.75, -4.28626379701573E-16));
#125 = B_SPLINE_CURVE_WITH_KNOTS ('', 1, (#123, #124), .UNSPECIFIED., .F., .U., (2, 2), (0., 1.), .UNSPECIFIED.);
#126 = EDGE_CURVE ('', #120, #122, #125, .T.);
#127 = ORIENTED_EDGE ('', *, *, #126, .F.);
#128 = ORIENTED_EDGE ('', *, *, #126, .T.);
#129 = CARTESIAN_POINT ('', (-50., 1.75, -4.28626379701573E-16));
#130 = CARTESIAN_POINT ('', (-50., 1.74999999999999, 6.99999999999999));
#131 = CARTESIAN_POINT ('', (-50., -5.24999999999999, 3.49999999999998));
#132 = CARTESIAN_POINT ('', (-50., -5.24999999999998, -3.5));
#133 = CARTESIAN_POINT ('', (-50., 1.75000000000001, -6.99999999999999));
#134 = CARTESIAN_POINT ('', (-50., 1.75, -4.28626379701573E-16));
#135 = (
   BOUNDED_CURVE ()
   B_SPLINE_CURVE (5, (#129, #130, #131, #132, #133, #134), .UNSPECIFIED., .T., .U.)
   B_SPLINE_CURVE_WITH_KNOTS ((6, 6), (0., 1.), .UNSPECIFIED.)
   CURVE ()
   GEOMETRIC_REPRESENTATION_ITEM ()
   RATIONAL_B_SPLINE_CURVE ((5., 1., 1., 1., 1., 5.))
   REPRESENTATION_ITEM ('')
);
#136 = EDGE_CURVE ('', #122, #122, #135, .T.);
#137 = ORIENTED_EDGE ('', *, *, #136, .F.);
#138 = EDGE_LOOP ('', (#127, #128, #137));
#139 = FACE_OUTER_BOUND ('', #138, .T.);
#140 = CARTESIAN_POINT ('', (-50., 3.06161699786838E-15, -3.06161699786838E-15));
#141 = CARTESIAN_POINT ('', (-50., 1.75, -4.28626379701573E-16));
#142 = CARTESIAN_POINT ('', (-50., 3.06161699786838E-15, -3.06161699786838E-15));
#143 = CARTESIAN_POINT ('', (-50., 1.74999999999999, 6.99999999999999));
#144 = CARTESIAN_POINT ('', (-50., 3.06161699786838E-15, -3.06161699786838E-15));
#145 = CARTESIAN_POINT ('', (-50., -5.24999999999999, 3.49999999999998));
#146 = CARTESIAN_POINT ('', (-50., 3.06161699786838E-15, -3.06161699786838E-15));
#147 = CARTESIAN_POINT ('', (-50., -5.24999999999998, -3.5));
#148 = CARTESIAN_POINT ('', (-50., 3.06161699786838E-15, -3.06161699786838E-15));
#149 = CARTESIAN_POINT ('', (-50., 1.75000000000001, -6.99999999999999));
#150 = CARTESIAN_POINT ('', (-50., 3.06161699786838E-15, -3.06161699786838E-15));
#151 = CARTESIAN_POINT ('', (-50., 1.75, -4.28626379701573E-16));
#152 = (
   BOUNDED_SURFACE ()
   B_SPLINE_SURFACE (5, 1, ((#140, #141), (#142, #143), (#144, #145), (#146, #147), (#148, #149), (#150, #151)), .UNSPECIFIED., .T., .F., .U.)
   B_SPLINE_SURFACE_WITH_KNOTS ((6, 6), (2, 2), (0., 1.), (0., 1.), .UNSPECIFIED.)
   SURFACE ()
   GEOMETRIC_REPRESENTATION_ITEM ()
   RATIONAL_B_SPLINE_SURFACE (((5., 5.), (1., 1.), (1., 1.), (1., 1.), (1., 1.), (5., 5.)))
   REPRESENTATION_ITEM ('')
);
#153 = ADVANCED_FACE ('', (#139), #152, .T.);
#154 = CARTESIAN_POINT ('', (-50., 1.75, -4.28626379701573E-16));
#155 = CARTESIAN_POINT ('', (-49.9166666666667, 1.83333333333333, -4.49037159687362E-16));
#156 = CARTESIAN_POINT ('', (-49.8333333333334, 1.91666666666666, -4.69447939673151E-16));
#157 = CARTESIAN_POINT ('', (-49.75, 2., -4.89858719658941E-16));
#158 = B_SPLINE_CURVE_WITH_KNOTS ('', 3, (#154, #155, #156, #157), .UNSPECIFIED., .F., .U., (4, 4), (0., 1.), .UNSPECIFIED.);
#159 = EDGE_CURVE ('', #122, #72, #158, .T.);
#160 = ORIENTED_EDGE ('', *, *, #159, .F.);
#161 = ORIENTED_EDGE ('', *, *, #136, .T.);
#162 = ORIENTED_EDGE ('', *, *, #159, .T.);
#163 = ORIENTED_EDGE ('', *, *, #87, .F.);
#164 = EDGE_LOOP ('', (#160, #161, #162, #163));
#165 = FACE_OUTER_BOUND ('', #164, .T.);
#166 = CARTESIAN_POINT ('', (-50., 1.75, -4.28626379701573E-16));
#167 = CARTESIAN_POINT ('', (-49.9166666666667, 1.83333333333333, -4.49037159687362E-16));
#168 = CARTESIAN_POINT ('', (-49.8333333333334, 1.91666666666666, -4.69447939673151E-16));
#169 = CARTESIAN_POINT ('', (-49.75, 2., -4.89858719658941E-16));
#170 = CARTESIAN_POINT ('', (-50., 1.74999999999999, 6.99999999999999));
#171 = CARTESIAN_POINT ('', (-49.9166666666667, 1.83333333333332, 7.33333333333331));
#172 = CARTESIAN_POINT ('', (-49.8333333333334, 1.91666666666665, 7.66666666666665));
#173 = CARTESIAN_POINT ('', (-49.75, 1.99999999999999, 7.99999999999999));
#174 = CARTESIAN_POINT ('', (-50., -5.24999999999999, 3.49999999999998));
#175 = CARTESIAN_POINT ('', (-49.9166666666667, -5.49999999999999, 3.66666666666665));
#176 = CARTESIAN_POINT ('', (-49.8333333333334, -5.74999999999999, 3.83333333333331));
#177 = CARTESIAN_POINT ('', (-49.75, -5.99999999999999, 3.99999999999998));
#178 = CARTESIAN_POINT ('', (-50., -5.24999999999998, -3.5));
#179 = CARTESIAN_POINT ('', (-49.9166666666667, -5.49999999999998, -3.66666666666667));
#180 = CARTESIAN_POINT ('', (-49.8333333333334, -5.74999999999998, -3.83333333333334));
#181 = CARTESIAN_POINT ('', (-49.75, -5.99999999999998, -4.));
#182 = CARTESIAN_POINT ('', (-50., 1.75000000000001, -6.99999999999999));
#183 = CARTESIAN_POINT ('', (-49.9166666666667, 1.83333333333334, -7.33333333333331));
#184 = CARTESIAN_POINT ('', (-49.8333333333334, 1.91666666666668, -7.66666666666665));
#185 = CARTESIAN_POINT ('', (-49.75, 2.00000000000001, -7.99999999999999));
#186 = CARTESIAN_POINT ('', (-50., 1.75, -4.28626379701573E-16));
#187 = CARTESIAN_POINT ('', (-49.9166666666667, 1.83333333333333, -4.49037159687362E-16));
#188 = CARTESIAN_POINT ('', (-49.8333333333334, 1.91666666666666, -4.69447939673151E-16));
#189 = CARTESIAN_POINT ('', (-49.75, 2., -4.89858719658941E-16));
#190 = (
   BOUNDED_SURFACE ()
   B_SPLINE_SURFACE (5, 3, ((#166, #167, #168, #169), (#170, #171, #172, #173), (#174, #175, #176, #177), (#178, #179, #180, #181), (#182, #183, #184, #185), (#186, #187, #188, #189)), .UNSPECIFIED., .T., .F., .U.)
   B_SPLINE_SURFACE_WITH_KNOTS ((6, 6), (4, 4), (0., 1.), (0., 1.), .UNSPECIFIED.)
   SURFACE ()
   GEOMETRIC_REPRESENTATION_ITEM ()
   RATIONAL_B_SPLINE_SURFACE (((5., 5., 5., 5.), (1., 1., 1., 1.), (1., 1., 1., 1.), (1., 1., 1., 1.), (1., 1., 1., 1.), (5., 5., 5., 5.)))
   REPRESENTATION_ITEM ('')
);
#191 = ADVANCED_FACE ('', (#165), #190, .T.);
#192 = CLOSED_SHELL ('', (#70, #118, #153, #191));
#193 = MANIFOLD_SOLID_BREP ('', #192);
#194 = (
   LENGTH_UNIT ()
   NAMED_UNIT (*)
   SI_UNIT (.MILLI., .METRE.)
);
#195 = (
   NAMED_UNIT (*)
   SI_UNIT ($, .STERADIAN.)
   SOLID_ANGLE_UNIT ()
);
#196 = (
   NAMED_UNIT (*)
   SI_UNIT ($, .RADIAN.)
   PLANE_ANGLE_UNIT ()
);
#197 = UNCERTAINTY_MEASURE_WITH_UNIT (LENGTH_MEASURE(0.001), #194, 'DISTANCE_ACCURACY_VALUE', '');
#198 = (
   GEOMETRIC_REPRESENTATION_CONTEXT (3)
   GLOBAL_UNCERTAINTY_ASSIGNED_CONTEXT ((#197))
   GLOBAL_UNIT_ASSIGNED_CONTEXT ((#194, #195, #196))
   REPRESENTATION_CONTEXT ('', '3D')
);
#199 = SHAPE_REPRESENTATION ('', (), #198);
#200 = APPLICATION_CONTEXT ('configuration controlled 3D designs of mechanical parts and assemblies');
#201 = APPLICATION_PROTOCOL_DEFINITION ('International Standard', 'config_control_design', 1997, #200);
#202 = MECHANICAL_CONTEXT ('', #200, 'mechanical');
#203 = PRODUCT ('', '', '', (#202));
#204 = PERSON_AND_ORGANIZATION_ROLE ('design_owner');
#205 = PERSON ('', '', $, $, $, $);
#206 = ORGANIZATION ($, '', '');
#207 = PERSON_AND_ORGANIZATION (#205, #206);
#208 = CC_DESIGN_PERSON_AND_ORGANIZATION_ASSIGNMENT (#207, #204, (#203));
#209 = PRODUCT_RELATED_PRODUCT_CATEGORY ('detail', $, (#203));
#210 = PRODUCT_DEFINITION_FORMATION_WITH_SPECIFIED_SOURCE ('', '', #203, .NOT_KNOWN.);
#211 = APPROVAL_STATUS ('approved');
#212 = APPROVAL (#211, '');
#213 = CALENDAR_DATE (2021, 26, 1);
#214 = COORDINATED_UNIVERSAL_TIME_OFFSET (0, $, .AHEAD.);
#215 = LOCAL_TIME (9, 31, 20., #214);
#216 = DATE_AND_TIME (#213, #215);
#217 = APPROVAL_DATE_TIME (#216, #212);
#218 = APPROVAL_ROLE ('');
#219 = PERSON ('', '', $, $, $, $);
#220 = ORGANIZATION ($, '', '');
#221 = PERSON_AND_ORGANIZATION (#219, #220);
#222 = APPROVAL_PERSON_ORGANIZATION (#221, #212, #218);
#223 = CC_DESIGN_APPROVAL (#212, (#210));
#224 = PERSON_AND_ORGANIZATION_ROLE ('creator');
#225 = PERSON ('', '', $, $, $, $);
#226 = ORGANIZATION ($, '', '');
#227 = PERSON_AND_ORGANIZATION (#225, #226);
#228 = CC_DESIGN_PERSON_AND_ORGANIZATION_ASSIGNMENT (#227, #224, (#210));
#229 = PERSON_AND_ORGANIZATION_ROLE ('part_supplier');
#230 = PERSON ('', '', $, $, $, $);
#231 = ORGANIZATION ($, '', '');
#232 = PERSON_AND_ORGANIZATION (#230, #231);
#233 = CC_DESIGN_PERSON_AND_ORGANIZATION_ASSIGNMENT (#232, #229, (#210));
#234 = SECURITY_CLASSIFICATION_LEVEL ('unclassified');
#235 = SECURITY_CLASSIFICATION ('', '', #234);
#236 = APPROVAL_STATUS ('approved');
#237 = APPROVAL (#236, '');
#238 = CALENDAR_DATE (2021, 26, 1);
#239 = COORDINATED_UNIVERSAL_TIME_OFFSET (0, $, .AHEAD.);
#240 = LOCAL_TIME (9, 31, 20., #239);
#241 = DATE_AND_TIME (#238, #240);
#242 = APPROVAL_DATE_TIME (#241, #237);
#243 = APPROVAL_ROLE ('');
#244 = PERSON ('', '', $, $, $, $);
#245 = ORGANIZATION ($, '', '');
#246 = PERSON_AND_ORGANIZATION (#244, #245);
#247 = APPROVAL_PERSON_ORGANIZATION (#246, #237, #243);
#248 = CC_DESIGN_APPROVAL (#237, (#235));
#249 = DATE_TIME_ROLE ('classification_date');
#250 = CALENDAR_DATE (2021, 26, 1);
#251 = COORDINATED_UNIVERSAL_TIME_OFFSET (0, $, .AHEAD.);
#252 = LOCAL_TIME (9, 31, 20., #251);
#253 = DATE_AND_TIME (#250, #252);
#254 = CC_DESIGN_DATE_AND_TIME_ASSIGNMENT (#253, #249, (#235));
#255 = PERSON_AND_ORGANIZATION_ROLE ('classification_officer');
#256 = PERSON ('', '', $, $, $, $);
#257 = ORGANIZATION ($, '', '');
#258 = PERSON_AND_ORGANIZATION (#256, #257);
#259 = CC_DESIGN_PERSON_AND_ORGANIZATION_ASSIGNMENT (#258, #255, (#235));
#260 = CC_DESIGN_SECURITY_CLASSIFICATION (#235, (#210));
#261 = DESIGN_CONTEXT ('', #200, 'design');
#262 = PRODUCT_DEFINITION ('', '', #210, #261);
#263 = APPROVAL_STATUS ('approved');
#264 = APPROVAL (#263, '');
#265 = CALENDAR_DATE (2021, 26, 1);
#266 = COORDINATED_UNIVERSAL_TIME_OFFSET (0, $, .AHEAD.);
#267 = LOCAL_TIME (9, 31, 20., #266);
#268 = DATE_AND_TIME (#265, #267);
#269 = APPROVAL_DATE_TIME (#268, #264);
#270 = APPROVAL_ROLE ('');
#271 = PERSON ('', '', $, $, $, $);
#272 = ORGANIZATION ($, '', '');
#273 = PERSON_AND_ORGANIZATION (#271, #272);
#274 = APPROVAL_PERSON_ORGANIZATION (#273, #264, #270);
#275 = CC_DESIGN_APPROVAL (#264, (#262));
#276 = DATE_TIME_ROLE ('creation_date');
#277 = CALENDAR_DATE (2021, 26, 1);
#278 = COORDINATED_UNIVERSAL_TIME_OFFSET (0, $, .AHEAD.);
#279 = LOCAL_TIME (9, 31, 20., #278);
#280 = DATE_AND_TIME (#277, #279);
#281 = CC_DESIGN_DATE_AND_TIME_ASSIGNMENT (#280, #276, (#262));
#282 = PERSON_AND_ORGANIZATION_ROLE ('creator');
#283 = PERSON ('', '', $, $, $, $);
#284 = ORGANIZATION ($, '', '');
#285 = PERSON_AND_ORGANIZATION (#283, #284);
#286 = CC_DESIGN_PERSON_AND_ORGANIZATION_ASSIGNMENT (#285, #282, (#262));
#287 = PRODUCT_DEFINITION_SHAPE ('', '', #262);
#288 = SHAPE_DEFINITION_REPRESENTATION (#287, #199);
#289 = SHAPE_REPRESENTATION_RELATIONSHIP ('', '', #199, #290);
#290 = ADVANCED_BREP_SHAPE_REPRESENTATION ('', (#193), #198);
ENDSEC;
END-ISO-10303-21;
