ISO-10303-21;
HEADER;
FILE_DESCRIPTION ((), '1');
FILE_NAME ('D:\\OneDrive - MAFord Europe\\Desktop\\250\\STEP\\250M05061B.STP', '2021-01-26T09:42:12', ('Unknown'), ('M. A. Ford Europe Ltd.'), 'OneCNC-XR8 Mill 3D Expert', 'OneCNC-XR8 Mill 3D Expert', '');
FILE_SCHEMA (('CONFIG_CONTROL_DESIGN'));
ENDSEC;

DATA;
#1 = CARTESIAN_POINT ('', (-7.5, 2.5, -6.12323399573677E-16));
#2 = VERTEX_POINT ('', #1);
#3 = CARTESIAN_POINT ('', (-2.5, 2.5, -6.12323399573677E-16));
#4 = VERTEX_POINT ('', #3);
#5 = CARTESIAN_POINT ('', (-7.5, 2.5, -6.12323399573677E-16));
#6 = CARTESIAN_POINT ('', (-5.83333333333334, 2.5, -6.12323399573677E-16));
#7 = CARTESIAN_POINT ('', (-4.16666666666667, 2.5, -6.12323399573677E-16));
#8 = CARTESIAN_POINT ('', (-2.5, 2.5, -6.12323399573677E-16));
#9 = B_SPLINE_CURVE_WITH_KNOTS ('', 3, (#5, #6, #7, #8), .UNSPECIFIED., .F., .U., (4, 4), (0., 1.), .UNSPECIFIED.);
#10 = EDGE_CURVE ('', #2, #4, #9, .T.);
#11 = ORIENTED_EDGE ('', *, *, #10, .F.);
#12 = CARTESIAN_POINT ('', (-7.5, 2.5, -6.12323399573677E-16));
#13 = CARTESIAN_POINT ('', (-7.5, 2.5, 10.));
#14 = CARTESIAN_POINT ('', (-7.5, -7.5, 5.));
#15 = CARTESIAN_POINT ('', (-7.5, -7.5, -5.));
#16 = CARTESIAN_POINT ('', (-7.5, 2.5, -10.));
#17 = CARTESIAN_POINT ('', (-7.5, 2.5, -6.12323399573677E-16));
#18 = (
   BOUNDED_CURVE ()
   B_SPLINE_CURVE (5, (#12, #13, #14, #15, #16, #17), .UNSPECIFIED., .T., .U.)
   B_SPLINE_CURVE_WITH_KNOTS ((6, 6), (0., 1.), .UNSPECIFIED.)
   CURVE ()
   GEOMETRIC_REPRESENTATION_ITEM ()
   RATIONAL_B_SPLINE_CURVE ((5., 1., 1., 1., 1., 5.))
   REPRESENTATION_ITEM ('')
);
#19 = EDGE_CURVE ('', #2, #2, #18, .T.);
#20 = ORIENTED_EDGE ('', *, *, #19, .T.);
#21 = ORIENTED_EDGE ('', *, *, #10, .T.);
#22 = CARTESIAN_POINT ('', (-2.5, 2.5, -6.12323399573677E-16));
#23 = CARTESIAN_POINT ('', (-2.5, 2.5, 10.));
#24 = CARTESIAN_POINT ('', (-2.5, -7.5, 5.));
#25 = CARTESIAN_POINT ('', (-2.5, -7.5, -5.));
#26 = CARTESIAN_POINT ('', (-2.5, 2.5, -10.));
#27 = CARTESIAN_POINT ('', (-2.5, 2.5, -6.12323399573677E-16));
#28 = (
   BOUNDED_CURVE ()
   B_SPLINE_CURVE (5, (#22, #23, #24, #25, #26, #27), .UNSPECIFIED., .T., .U.)
   B_SPLINE_CURVE_WITH_KNOTS ((6, 6), (0., 1.), .UNSPECIFIED.)
   CURVE ()
   GEOMETRIC_REPRESENTATION_ITEM ()
   RATIONAL_B_SPLINE_CURVE ((5., 1., 1., 1., 1., 5.))
   REPRESENTATION_ITEM ('')
);
#29 = EDGE_CURVE ('', #4, #4, #28, .T.);
#30 = ORIENTED_EDGE ('', *, *, #29, .F.);
#31 = EDGE_LOOP ('', (#11, #20, #21, #30));
#32 = FACE_OUTER_BOUND ('', #31, .T.);
#33 = CARTESIAN_POINT ('', (-7.5, 2.5, -6.12323399573677E-16));
#34 = CARTESIAN_POINT ('', (-5.83333333333334, 2.5, -6.12323399573677E-16));
#35 = CARTESIAN_POINT ('', (-4.16666666666667, 2.5, -6.12323399573677E-16));
#36 = CARTESIAN_POINT ('', (-2.5, 2.5, -6.12323399573677E-16));
#37 = CARTESIAN_POINT ('', (-7.5, 2.5, 10.));
#38 = CARTESIAN_POINT ('', (-5.83333333333334, 2.5, 10.));
#39 = CARTESIAN_POINT ('', (-4.16666666666667, 2.5, 10.));
#40 = CARTESIAN_POINT ('', (-2.5, 2.5, 10.));
#41 = CARTESIAN_POINT ('', (-7.5, -7.5, 5.));
#42 = CARTESIAN_POINT ('', (-5.83333333333334, -7.5, 5.));
#43 = CARTESIAN_POINT ('', (-4.16666666666667, -7.5, 5.));
#44 = CARTESIAN_POINT ('', (-2.5, -7.5, 5.));
#45 = CARTESIAN_POINT ('', (-7.5, -7.5, -5.));
#46 = CARTESIAN_POINT ('', (-5.83333333333334, -7.5, -5.));
#47 = CARTESIAN_POINT ('', (-4.16666666666667, -7.5, -5.));
#48 = CARTESIAN_POINT ('', (-2.5, -7.5, -5.));
#49 = CARTESIAN_POINT ('', (-7.5, 2.5, -10.));
#50 = CARTESIAN_POINT ('', (-5.83333333333334, 2.5, -10.));
#51 = CARTESIAN_POINT ('', (-4.16666666666667, 2.5, -10.));
#52 = CARTESIAN_POINT ('', (-2.5, 2.5, -10.));
#53 = CARTESIAN_POINT ('', (-7.5, 2.5, -6.12323399573677E-16));
#54 = CARTESIAN_POINT ('', (-5.83333333333334, 2.5, -6.12323399573677E-16));
#55 = CARTESIAN_POINT ('', (-4.16666666666667, 2.5, -6.12323399573677E-16));
#56 = CARTESIAN_POINT ('', (-2.5, 2.5, -6.12323399573677E-16));
#57 = (
   BOUNDED_SURFACE ()
   B_SPLINE_SURFACE (5, 3, ((#33, #34, #35, #36), (#37, #38, #39, #40), (#41, #42, #43, #44), (#45, #46, #47, #48), (#49, #50, #51, #52), (#53, #54, #55, #56)), .UNSPECIFIED., .T., .F., .U.)
   B_SPLINE_SURFACE_WITH_KNOTS ((6, 6), (4, 4), (0., 1.), (0., 1.), .UNSPECIFIED.)
   SURFACE ()
   GEOMETRIC_REPRESENTATION_ITEM ()
   RATIONAL_B_SPLINE_SURFACE (((5., 5., 5., 5.), (1., 1., 1., 1.), (1., 1., 1., 1.), (1., 1., 1., 1.), (1., 1., 1., 1.), (5., 5., 5., 5.)))
   REPRESENTATION_ITEM ('')
);
#58 = ADVANCED_FACE ('', (#32), #57, .T.);
#59 = CARTESIAN_POINT ('', (-9.24370722192046, 3., -7.34788079488412E-16));
#60 = VERTEX_POINT ('', #59);
#61 = CARTESIAN_POINT ('', (-9.24370722192046, 3., -7.34788079488412E-16));
#62 = CARTESIAN_POINT ('', (-8.66247148128031, 2.83333333333332, -6.93966519516831E-16));
#63 = CARTESIAN_POINT ('', (-8.08123574064013, 2.66666666666666, -6.53144959545254E-16));
#64 = CARTESIAN_POINT ('', (-7.5, 2.5, -6.12323399573677E-16));
#65 = B_SPLINE_CURVE_WITH_KNOTS ('', 3, (#61, #62, #63, #64), .UNSPECIFIED., .F., .U., (4, 4), (0., 1.), .UNSPECIFIED.);
#66 = EDGE_CURVE ('', #60, #2, #65, .T.);
#67 = ORIENTED_EDGE ('', *, *, #66, .F.);
#68 = CARTESIAN_POINT ('', (-9.24370722192046, 3., -7.34788079488412E-16));
#69 = CARTESIAN_POINT ('', (-9.24370722192046, 3., 12.));
#70 = CARTESIAN_POINT ('', (-9.24370722192046, -9., 6.));
#71 = CARTESIAN_POINT ('', (-9.24370722192046, -9., -6.));
#72 = CARTESIAN_POINT ('', (-9.24370722192045, 3., -12.));
#73 = CARTESIAN_POINT ('', (-9.24370722192046, 3., -7.34788079488412E-16));
#74 = (
   BOUNDED_CURVE ()
   B_SPLINE_CURVE (5, (#68, #69, #70, #71, #72, #73), .UNSPECIFIED., .T., .U.)
   B_SPLINE_CURVE_WITH_KNOTS ((6, 6), (0., 1.), .UNSPECIFIED.)
   CURVE ()
   GEOMETRIC_REPRESENTATION_ITEM ()
   RATIONAL_B_SPLINE_CURVE ((5., 1., 1., 1., 1., 5.))
   REPRESENTATION_ITEM ('')
);
#75 = EDGE_CURVE ('', #60, #60, #74, .T.);
#76 = ORIENTED_EDGE ('', *, *, #75, .T.);
#77 = ORIENTED_EDGE ('', *, *, #66, .T.);
#78 = ORIENTED_EDGE ('', *, *, #19, .F.);
#79 = EDGE_LOOP ('', (#67, #76, #77, #78));
#80 = FACE_OUTER_BOUND ('', #79, .T.);
#81 = CARTESIAN_POINT ('', (-9.24370722192046, 3., -7.34788079488412E-16));
#82 = CARTESIAN_POINT ('', (-8.66247148128031, 2.83333333333332, -6.93966519516831E-16));
#83 = CARTESIAN_POINT ('', (-8.08123574064013, 2.66666666666666, -6.53144959545254E-16));
#84 = CARTESIAN_POINT ('', (-7.5, 2.5, -6.12323399573677E-16));
#85 = CARTESIAN_POINT ('', (-9.24370722192046, 3., 12.));
#86 = CARTESIAN_POINT ('', (-8.66247148128031, 2.83333333333333, 11.3333333333333));
#87 = CARTESIAN_POINT ('', (-8.08123574064013, 2.66666666666666, 10.6666666666666));
#88 = CARTESIAN_POINT ('', (-7.5, 2.5, 10.));
#89 = CARTESIAN_POINT ('', (-9.24370722192046, -9., 6.));
#90 = CARTESIAN_POINT ('', (-8.66247148128031, -8.49999999999997, 5.66666666666665));
#91 = CARTESIAN_POINT ('', (-8.08123574064013, -7.99999999999998, 5.33333333333332));
#92 = CARTESIAN_POINT ('', (-7.5, -7.5, 5.));
#93 = CARTESIAN_POINT ('', (-9.24370722192046, -9., -6.));
#94 = CARTESIAN_POINT ('', (-8.66247148128031, -8.49999999999997, -5.66666666666665));
#95 = CARTESIAN_POINT ('', (-8.08123574064013, -7.99999999999998, -5.33333333333332));
#96 = CARTESIAN_POINT ('', (-7.5, -7.5, -5.));
#97 = CARTESIAN_POINT ('', (-9.24370722192045, 3., -12.));
#98 = CARTESIAN_POINT ('', (-8.66247148128031, 2.83333333333332, -11.3333333333333));
#99 = CARTESIAN_POINT ('', (-8.08123574064013, 2.66666666666666, -10.6666666666666));
#100 = CARTESIAN_POINT ('', (-7.5, 2.5, -10.));
#101 = CARTESIAN_POINT ('', (-9.24370722192046, 3., -7.34788079488412E-16));
#102 = CARTESIAN_POINT ('', (-8.66247148128031, 2.83333333333332, -6.93966519516831E-16));
#103 = CARTESIAN_POINT ('', (-8.08123574064013, 2.66666666666666, -6.53144959545254E-16));
#104 = CARTESIAN_POINT ('', (-7.5, 2.5, -6.12323399573677E-16));
#105 = (
   BOUNDED_SURFACE ()
   B_SPLINE_SURFACE (5, 3, ((#81, #82, #83, #84), (#85, #86, #87, #88), (#89, #90, #91, #92), (#93, #94, #95, #96), (#97, #98, #99, #100), (#101, #102, #103, #104)), .UNSPECIFIED., .T., .F., .U.)
   B_SPLINE_SURFACE_WITH_KNOTS ((6, 6), (4, 4), (0., 1.), (0., 1.), .UNSPECIFIED.)
   SURFACE ()
   GEOMETRIC_REPRESENTATION_ITEM ()
   RATIONAL_B_SPLINE_SURFACE (((5., 5., 5., 5.), (1., 1., 1., 1.), (1., 1., 1., 1.), (1., 1., 1., 1.), (1., 1., 1., 1.), (5., 5., 5., 5.)))
   REPRESENTATION_ITEM ('')
);
#106 = ADVANCED_FACE ('', (#80), #105, .T.);
#107 = CARTESIAN_POINT ('', (-49.75, 3., -7.34788079488411E-16));
#108 = VERTEX_POINT ('', #107);
#109 = CARTESIAN_POINT ('', (-49.75, 3., -7.34788079488411E-16));
#110 = CARTESIAN_POINT ('', (-36.2479024073068, 3., -7.34788079488411E-16));
#111 = CARTESIAN_POINT ('', (-22.7458048146136, 3., -7.34788079488412E-16));
#112 = CARTESIAN_POINT ('', (-9.24370722192045, 3., -7.34788079488412E-16));
#113 = B_SPLINE_CURVE_WITH_KNOTS ('', 3, (#109, #110, #111, #112), .UNSPECIFIED., .F., .U., (4, 4), (0., 1.), .UNSPECIFIED.);
#114 = EDGE_CURVE ('', #108, #60, #113, .T.);
#115 = ORIENTED_EDGE ('', *, *, #114, .F.);
#116 = CARTESIAN_POINT ('', (-49.75, 3., -7.34788079488411E-16));
#117 = CARTESIAN_POINT ('', (-49.75, 2.99999999999999, 12.));
#118 = CARTESIAN_POINT ('', (-49.75, -8.99999999999999, 5.99999999999998));
#119 = CARTESIAN_POINT ('', (-49.75, -8.99999999999998, -6.));
#120 = CARTESIAN_POINT ('', (-49.75, 3.00000000000001, -12.));
#121 = CARTESIAN_POINT ('', (-49.75, 3., -7.34788079488411E-16));
#122 = (
   BOUNDED_CURVE ()
   B_SPLINE_CURVE (5, (#116, #117, #118, #119, #120, #121), .UNSPECIFIED., .T., .U.)
   B_SPLINE_CURVE_WITH_KNOTS ((6, 6), (0., 1.), .UNSPECIFIED.)
   CURVE ()
   GEOMETRIC_REPRESENTATION_ITEM ()
   RATIONAL_B_SPLINE_CURVE ((5., 1., 1., 1., 1., 5.))
   REPRESENTATION_ITEM ('')
);
#123 = EDGE_CURVE ('', #108, #108, #122, .T.);
#124 = ORIENTED_EDGE ('', *, *, #123, .T.);
#125 = ORIENTED_EDGE ('', *, *, #114, .T.);
#126 = ORIENTED_EDGE ('', *, *, #75, .F.);
#127 = EDGE_LOOP ('', (#115, #124, #125, #126));
#128 = FACE_OUTER_BOUND ('', #127, .T.);
#129 = CARTESIAN_POINT ('', (-49.75, 3., -7.34788079488411E-16));
#130 = CARTESIAN_POINT ('', (-36.2479024073068, 3., -7.34788079488411E-16));
#131 = CARTESIAN_POINT ('', (-22.7458048146136, 3., -7.34788079488412E-16));
#132 = CARTESIAN_POINT ('', (-9.24370722192045, 3., -7.34788079488412E-16));
#133 = CARTESIAN_POINT ('', (-49.75, 2.99999999999999, 12.));
#134 = CARTESIAN_POINT ('', (-36.2479024073068, 2.99999999999999, 12.));
#135 = CARTESIAN_POINT ('', (-22.7458048146136, 3., 12.));
#136 = CARTESIAN_POINT ('', (-9.24370722192045, 3., 12.));
#137 = CARTESIAN_POINT ('', (-49.75, -8.99999999999999, 5.99999999999998));
#138 = CARTESIAN_POINT ('', (-36.2479024073068, -8.99999999999999, 5.99999999999999));
#139 = CARTESIAN_POINT ('', (-22.7458048146136, -9., 6.));
#140 = CARTESIAN_POINT ('', (-9.24370722192045, -9., 6.));
#141 = CARTESIAN_POINT ('', (-49.75, -8.99999999999998, -6.));
#142 = CARTESIAN_POINT ('', (-36.2479024073068, -8.99999999999999, -6.));
#143 = CARTESIAN_POINT ('', (-22.7458048146136, -8.99999999999999, -6.));
#144 = CARTESIAN_POINT ('', (-9.24370722192045, -9., -6.));
#145 = CARTESIAN_POINT ('', (-49.75, 3.00000000000001, -12.));
#146 = CARTESIAN_POINT ('', (-36.2479024073068, 3.00000000000001, -12.));
#147 = CARTESIAN_POINT ('', (-22.7458048146136, 3., -12.));
#148 = CARTESIAN_POINT ('', (-9.24370722192045, 3., -12.));
#149 = CARTESIAN_POINT ('', (-49.75, 3., -7.34788079488411E-16));
#150 = CARTESIAN_POINT ('', (-36.2479024073068, 3., -7.34788079488411E-16));
#151 = CARTESIAN_POINT ('', (-22.7458048146136, 3., -7.34788079488412E-16));
#152 = CARTESIAN_POINT ('', (-9.24370722192045, 3., -7.34788079488412E-16));
#153 = (
   BOUNDED_SURFACE ()
   B_SPLINE_SURFACE (5, 3, ((#129, #130, #131, #132), (#133, #134, #135, #136), (#137, #138, #139, #140), (#141, #142, #143, #144), (#145, #146, #147, #148), (#149, #150, #151, #152)), .UNSPECIFIED., .T., .F., .U.)
   B_SPLINE_SURFACE_WITH_KNOTS ((6, 6), (4, 4), (0., 1.), (0., 1.), .UNSPECIFIED.)
   SURFACE ()
   GEOMETRIC_REPRESENTATION_ITEM ()
   RATIONAL_B_SPLINE_SURFACE (((5., 5., 5., 5.), (1., 1., 1., 1.), (1., 1., 1., 1.), (1., 1., 1., 1.), (1., 1., 1., 1.), (5., 5., 5., 5.)))
   REPRESENTATION_ITEM ('')
);
#154 = ADVANCED_FACE ('', (#128), #153, .T.);
#155 = CARTESIAN_POINT ('', (-50., 3.06161699786838E-15, -3.06161699786838E-15));
#156 = VERTEX_POINT ('', #155);
#157 = CARTESIAN_POINT ('', (-50., 2.75, -6.73555739531044E-16));
#158 = VERTEX_POINT ('', #157);
#159 = CARTESIAN_POINT ('', (-50., 3.06161699786838E-15, -3.06161699786838E-15));
#160 = CARTESIAN_POINT ('', (-50., 2.75, -6.73555739531044E-16));
#161 = B_SPLINE_CURVE_WITH_KNOTS ('', 1, (#159, #160), .UNSPECIFIED., .F., .U., (2, 2), (0., 1.), .UNSPECIFIED.);
#162 = EDGE_CURVE ('', #156, #158, #161, .T.);
#163 = ORIENTED_EDGE ('', *, *, #162, .F.);
#164 = ORIENTED_EDGE ('', *, *, #162, .T.);
#165 = CARTESIAN_POINT ('', (-50., 2.75, -6.73555739531044E-16));
#166 = CARTESIAN_POINT ('', (-50., 2.74999999999999, 11.));
#167 = CARTESIAN_POINT ('', (-50., -8.24999999999999, 5.49999999999998));
#168 = CARTESIAN_POINT ('', (-50., -8.24999999999998, -5.5));
#169 = CARTESIAN_POINT ('', (-50., 2.75000000000001, -11.));
#170 = CARTESIAN_POINT ('', (-50., 2.75, -6.73555739531044E-16));
#171 = (
   BOUNDED_CURVE ()
   B_SPLINE_CURVE (5, (#165, #166, #167, #168, #169, #170), .UNSPECIFIED., .T., .U.)
   B_SPLINE_CURVE_WITH_KNOTS ((6, 6), (0., 1.), .UNSPECIFIED.)
   CURVE ()
   GEOMETRIC_REPRESENTATION_ITEM ()
   RATIONAL_B_SPLINE_CURVE ((5., 1., 1., 1., 1., 5.))
   REPRESENTATION_ITEM ('')
);
#172 = EDGE_CURVE ('', #158, #158, #171, .T.);
#173 = ORIENTED_EDGE ('', *, *, #172, .F.);
#174 = EDGE_LOOP ('', (#163, #164, #173));
#175 = FACE_OUTER_BOUND ('', #174, .T.);
#176 = CARTESIAN_POINT ('', (-50., 3.06161699786838E-15, -3.06161699786838E-15));
#177 = CARTESIAN_POINT ('', (-50., 2.75, -6.73555739531044E-16));
#178 = CARTESIAN_POINT ('', (-50., 3.06161699786838E-15, -3.06161699786838E-15));
#179 = CARTESIAN_POINT ('', (-50., 2.74999999999999, 11.));
#180 = CARTESIAN_POINT ('', (-50., 3.06161699786838E-15, -3.06161699786838E-15));
#181 = CARTESIAN_POINT ('', (-50., -8.24999999999999, 5.49999999999998));
#182 = CARTESIAN_POINT ('', (-50., 3.06161699786838E-15, -3.06161699786838E-15));
#183 = CARTESIAN_POINT ('', (-50., -8.24999999999998, -5.5));
#184 = CARTESIAN_POINT ('', (-50., 3.06161699786838E-15, -3.06161699786838E-15));
#185 = CARTESIAN_POINT ('', (-50., 2.75000000000001, -11.));
#186 = CARTESIAN_POINT ('', (-50., 3.06161699786838E-15, -3.06161699786838E-15));
#187 = CARTESIAN_POINT ('', (-50., 2.75, -6.73555739531044E-16));
#188 = (
   BOUNDED_SURFACE ()
   B_SPLINE_SURFACE (5, 1, ((#176, #177), (#178, #179), (#180, #181), (#182, #183), (#184, #185), (#186, #187)), .UNSPECIFIED., .T., .F., .U.)
   B_SPLINE_SURFACE_WITH_KNOTS ((6, 6), (2, 2), (0., 1.), (0., 1.), .UNSPECIFIED.)
   SURFACE ()
   GEOMETRIC_REPRESENTATION_ITEM ()
   RATIONAL_B_SPLINE_SURFACE (((5., 5.), (1., 1.), (1., 1.), (1., 1.), (1., 1.), (5., 5.)))
   REPRESENTATION_ITEM ('')
);
#189 = ADVANCED_FACE ('', (#175), #188, .T.);
#190 = CARTESIAN_POINT ('', (-50., 2.75, -6.73555739531044E-16));
#191 = CARTESIAN_POINT ('', (-49.9166666666668, 2.83333333333333, -6.93966519516831E-16));
#192 = CARTESIAN_POINT ('', (-49.8333333333334, 2.91666666666666, -7.14377299502621E-16));
#193 = CARTESIAN_POINT ('', (-49.75, 3., -7.34788079488411E-16));
#194 = B_SPLINE_CURVE_WITH_KNOTS ('', 3, (#190, #191, #192, #193), .UNSPECIFIED., .F., .U., (4, 4), (0., 1.), .UNSPECIFIED.);
#195 = EDGE_CURVE ('', #158, #108, #194, .T.);
#196 = ORIENTED_EDGE ('', *, *, #195, .F.);
#197 = ORIENTED_EDGE ('', *, *, #172, .T.);
#198 = ORIENTED_EDGE ('', *, *, #195, .T.);
#199 = ORIENTED_EDGE ('', *, *, #123, .F.);
#200 = EDGE_LOOP ('', (#196, #197, #198, #199));
#201 = FACE_OUTER_BOUND ('', #200, .T.);
#202 = CARTESIAN_POINT ('', (-50., 2.75, -6.73555739531044E-16));
#203 = CARTESIAN_POINT ('', (-49.9166666666668, 2.83333333333333, -6.93966519516831E-16));
#204 = CARTESIAN_POINT ('', (-49.8333333333334, 2.91666666666666, -7.14377299502621E-16));
#205 = CARTESIAN_POINT ('', (-49.75, 3., -7.34788079488411E-16));
#206 = CARTESIAN_POINT ('', (-50., 2.74999999999999, 11.));
#207 = CARTESIAN_POINT ('', (-49.9166666666668, 2.83333333333332, 11.3333333333333));
#208 = CARTESIAN_POINT ('', (-49.8333333333334, 2.91666666666665, 11.6666666666666));
#209 = CARTESIAN_POINT ('', (-49.75, 2.99999999999999, 12.));
#210 = CARTESIAN_POINT ('', (-50., -8.24999999999999, 5.49999999999998));
#211 = CARTESIAN_POINT ('', (-49.9166666666668, -8.49999999999997, 5.66666666666664));
#212 = CARTESIAN_POINT ('', (-49.8333333333334, -8.74999999999999, 5.83333333333331));
#213 = CARTESIAN_POINT ('', (-49.75, -8.99999999999999, 5.99999999999998));
#214 = CARTESIAN_POINT ('', (-50., -8.24999999999998, -5.5));
#215 = CARTESIAN_POINT ('', (-49.9166666666668, -8.49999999999996, -5.66666666666666));
#216 = CARTESIAN_POINT ('', (-49.8333333333334, -8.74999999999998, -5.83333333333333));
#217 = CARTESIAN_POINT ('', (-49.75, -8.99999999999998, -6.));
#218 = CARTESIAN_POINT ('', (-50., 2.75000000000001, -11.));
#219 = CARTESIAN_POINT ('', (-49.9166666666668, 2.83333333333334, -11.3333333333333));
#220 = CARTESIAN_POINT ('', (-49.8333333333334, 2.91666666666667, -11.6666666666666));
#221 = CARTESIAN_POINT ('', (-49.75, 3.00000000000001, -12.));
#222 = CARTESIAN_POINT ('', (-50., 2.75, -6.73555739531044E-16));
#223 = CARTESIAN_POINT ('', (-49.9166666666668, 2.83333333333333, -6.93966519516831E-16));
#224 = CARTESIAN_POINT ('', (-49.8333333333334, 2.91666666666666, -7.14377299502621E-16));
#225 = CARTESIAN_POINT ('', (-49.75, 3., -7.34788079488411E-16));
#226 = (
   BOUNDED_SURFACE ()
   B_SPLINE_SURFACE (5, 3, ((#202, #203, #204, #205), (#206, #207, #208, #209), (#210, #211, #212, #213), (#214, #215, #216, #217), (#218, #219, #220, #221), (#222, #223, #224, #225)), .UNSPECIFIED., .T., .F., .U.)
   B_SPLINE_SURFACE_WITH_KNOTS ((6, 6), (4, 4), (0., 1.), (0., 1.), .UNSPECIFIED.)
   SURFACE ()
   GEOMETRIC_REPRESENTATION_ITEM ()
   RATIONAL_B_SPLINE_SURFACE (((5., 5., 5., 5.), (1., 1., 1., 1.), (1., 1., 1., 1.), (1., 1., 1., 1.), (1., 1., 1., 1.), (5., 5., 5., 5.)))
   REPRESENTATION_ITEM ('')
);
#227 = ADVANCED_FACE ('', (#201), #226, .T.);
#228 = CARTESIAN_POINT ('', (0., 0., 0.));
#229 = VERTEX_POINT ('', #228);
#230 = CARTESIAN_POINT ('', (-2.5, 2.5, -6.12323399573677E-16));
#231 = CARTESIAN_POINT ('', (-2.05994965012324, 2.5, -6.12323399573677E-16));
#232 = CARTESIAN_POINT ('', (-1.36349491533205, 2.31048595601156, -5.65905846100893E-16));
#233 = CARTESIAN_POINT ('', (-0.550135750504816, 1.64924982658046, -4.03949704223218E-16));
#234 = CARTESIAN_POINT ('', (-0.101321150939219, 0.884354834027802, -2.16604463360527E-16));
#235 = CARTESIAN_POINT ('', (3.08148791101958E-33, 0.273138444449316, -6.68996243437885E-17));
#236 = CARTESIAN_POINT ('', (0., 0., 0.));
#237 = B_SPLINE_CURVE_WITH_KNOTS ('', 3, (#230, #231, #232, #233, #234, #235, #236), .UNSPECIFIED., .F., .U., (4, 1, 1, 1, 4), (0., 0.33617370428258, 0.532939663384363, 0.791337598803809, 1.), .UNSPECIFIED.);
#238 = EDGE_CURVE ('', #4, #229, #237, .T.);
#239 = ORIENTED_EDGE ('', *, *, #238, .F.);
#240 = ORIENTED_EDGE ('', *, *, #29, .T.);
#241 = ORIENTED_EDGE ('', *, *, #238, .T.);
#242 = EDGE_LOOP ('', (#239, #240, #241));
#243 = FACE_OUTER_BOUND ('', #242, .T.);
#244 = CARTESIAN_POINT ('', (-2.5, 2.5, -6.12323399573677E-16));
#245 = CARTESIAN_POINT ('', (-2.05994965012324, 2.5, -6.12323399573677E-16));
#246 = CARTESIAN_POINT ('', (-1.36349491533205, 2.31048595601156, -5.65905846100893E-16));
#247 = CARTESIAN_POINT ('', (-0.550135750504816, 1.64924982658046, -4.03949704223218E-16));
#248 = CARTESIAN_POINT ('', (-0.101321150939219, 0.884354834027802, -2.16604463360527E-16));
#249 = CARTESIAN_POINT ('', (3.08148791101958E-33, 0.273138444449316, -6.68996243437885E-17));
#250 = CARTESIAN_POINT ('', (0., 0., 0.));
#251 = CARTESIAN_POINT ('', (-2.5, 2.5, 10.));
#252 = CARTESIAN_POINT ('', (-2.05994965012324, 2.5, 10.));
#253 = CARTESIAN_POINT ('', (-1.36349491533206, 2.31048595601156, 9.24194382404623));
#254 = CARTESIAN_POINT ('', (-0.550135750504816, 1.64924982658046, 6.59699930632184));
#255 = CARTESIAN_POINT ('', (-0.101321150939219, 0.884354834027803, 3.53741933611121));
#256 = CARTESIAN_POINT ('', (-6.68996243437885E-17, 0.273138444449317, 1.09255377779727));
#257 = CARTESIAN_POINT ('', (0., 0., 0.));
#258 = CARTESIAN_POINT ('', (-2.5, -7.5, 5.));
#259 = CARTESIAN_POINT ('', (-2.05994965012324, -7.5, 5.));
#260 = CARTESIAN_POINT ('', (-1.36349491533206, -6.93145786803467, 4.62097191202312));
#261 = CARTESIAN_POINT ('', (-0.550135750504816, -4.94774947974138, 3.29849965316092));
#262 = CARTESIAN_POINT ('', (-0.101321150939219, -2.65306450208341, 1.7687096680556));
#263 = CARTESIAN_POINT ('', (-1.00349436515683E-16, -0.819415333347949, 0.546276888898633));
#264 = CARTESIAN_POINT ('', (0., 0., 0.));
#265 = CARTESIAN_POINT ('', (-2.5, -7.5, -5.));
#266 = CARTESIAN_POINT ('', (-2.05994965012324, -7.5, -5.));
#267 = CARTESIAN_POINT ('', (-1.36349491533206, -6.93145786803467, -4.62097191202311));
#268 = CARTESIAN_POINT ('', (-0.550135750504816, -4.94774947974138, -3.29849965316092));
#269 = CARTESIAN_POINT ('', (-0.101321150939219, -2.65306450208341, -1.7687096680556));
#270 = CARTESIAN_POINT ('', (-3.34498121718943E-17, -0.819415333347949, -0.546276888898633));
#271 = CARTESIAN_POINT ('', (0., 0., 0.));
#272 = CARTESIAN_POINT ('', (-2.5, 2.5, -10.));
#273 = CARTESIAN_POINT ('', (-2.05994965012324, 2.5, -10.));
#274 = CARTESIAN_POINT ('', (-1.36349491533205, 2.31048595601156, -9.24194382404623));
#275 = CARTESIAN_POINT ('', (-0.550135750504815, 1.64924982658046, -6.59699930632184));
#276 = CARTESIAN_POINT ('', (-0.101321150939219, 0.884354834027801, -3.53741933611121));
#277 = CARTESIAN_POINT ('', (6.68996243437885E-17, 0.273138444449316, -1.09255377779727));
#278 = CARTESIAN_POINT ('', (0., 0., 0.));
#279 = CARTESIAN_POINT ('', (-2.5, 2.5, -6.12323399573677E-16));
#280 = CARTESIAN_POINT ('', (-2.05994965012324, 2.5, -6.12323399573677E-16));
#281 = CARTESIAN_POINT ('', (-1.36349491533205, 2.31048595601156, -5.65905846100893E-16));
#282 = CARTESIAN_POINT ('', (-0.550135750504816, 1.64924982658046, -4.03949704223218E-16));
#283 = CARTESIAN_POINT ('', (-0.101321150939219, 0.884354834027802, -2.16604463360527E-16));
#284 = CARTESIAN_POINT ('', (3.08148791101958E-33, 0.273138444449316, -6.68996243437885E-17));
#285 = CARTESIAN_POINT ('', (0., 0., 0.));
#286 = (
   BOUNDED_SURFACE ()
   B_SPLINE_SURFACE (5, 3, ((#244, #245, #246, #247, #248, #249, #250), (#251, #252, #253, #254, #255, #256, #257), (#258, #259, #260, #261, #262, #263, #264), (#265, #266, #267, #268, #269, #270, #271), (#272, #273, #274, #275, #276, #277, #278), (#279, #280, #281, #282, #283, #284, #285)), .UNSPECIFIED., .T., .F., .U.)
   B_SPLINE_SURFACE_WITH_KNOTS ((6, 6), (4, 1, 1, 1, 4), (0., 1.), (0., 0.33617370428258, 0.532939663384363, 0.791337598803809, 1.), .UNSPECIFIED.)
   SURFACE ()
   GEOMETRIC_REPRESENTATION_ITEM ()
   RATIONAL_B_SPLINE_SURFACE (((5., 5., 5., 5., 5., 5., 5.), (1., 1., 1., 1., 1., 1., 1.), (1., 1., 1., 1., 1., 1., 1.), (1., 1., 1., 1., 1., 1., 1.), (1., 1., 1., 1., 1., 1., 1.), (5., 5., 5., 5., 5., 5., 5.)))
   REPRESENTATION_ITEM ('')
);
#287 = ADVANCED_FACE ('', (#243), #286, .T.);
#288 = CLOSED_SHELL ('', (#58, #106, #154, #189, #227, #287));
#289 = MANIFOLD_SOLID_BREP ('', #288);
#290 = (
   LENGTH_UNIT ()
   NAMED_UNIT (*)
   SI_UNIT (.MILLI., .METRE.)
);
#291 = (
   NAMED_UNIT (*)
   SI_UNIT ($, .STERADIAN.)
   SOLID_ANGLE_UNIT ()
);
#292 = (
   NAMED_UNIT (*)
   SI_UNIT ($, .RADIAN.)
   PLANE_ANGLE_UNIT ()
);
#293 = UNCERTAINTY_MEASURE_WITH_UNIT (LENGTH_MEASURE(0.001), #290, 'DISTANCE_ACCURACY_VALUE', '');
#294 = (
   GEOMETRIC_REPRESENTATION_CONTEXT (3)
   GLOBAL_UNCERTAINTY_ASSIGNED_CONTEXT ((#293))
   GLOBAL_UNIT_ASSIGNED_CONTEXT ((#290, #291, #292))
   REPRESENTATION_CONTEXT ('', '3D')
);
#295 = SHAPE_REPRESENTATION ('', (), #294);
#296 = APPLICATION_CONTEXT ('configuration controlled 3D designs of mechanical parts and assemblies');
#297 = APPLICATION_PROTOCOL_DEFINITION ('International Standard', 'config_control_design', 1997, #296);
#298 = MECHANICAL_CONTEXT ('', #296, 'mechanical');
#299 = PRODUCT ('', '', '', (#298));
#300 = PERSON_AND_ORGANIZATION_ROLE ('design_owner');
#301 = PERSON ('', '', $, $, $, $);
#302 = ORGANIZATION ($, '', '');
#303 = PERSON_AND_ORGANIZATION (#301, #302);
#304 = CC_DESIGN_PERSON_AND_ORGANIZATION_ASSIGNMENT (#303, #300, (#299));
#305 = PRODUCT_RELATED_PRODUCT_CATEGORY ('detail', $, (#299));
#306 = PRODUCT_DEFINITION_FORMATION_WITH_SPECIFIED_SOURCE ('', '', #299, .NOT_KNOWN.);
#307 = APPROVAL_STATUS ('approved');
#308 = APPROVAL (#307, '');
#309 = CALENDAR_DATE (2021, 26, 1);
#310 = COORDINATED_UNIVERSAL_TIME_OFFSET (0, $, .AHEAD.);
#311 = LOCAL_TIME (9, 42, 12., #310);
#312 = DATE_AND_TIME (#309, #311);
#313 = APPROVAL_DATE_TIME (#312, #308);
#314 = APPROVAL_ROLE ('');
#315 = PERSON ('', '', $, $, $, $);
#316 = ORGANIZATION ($, '', '');
#317 = PERSON_AND_ORGANIZATION (#315, #316);
#318 = APPROVAL_PERSON_ORGANIZATION (#317, #308, #314);
#319 = CC_DESIGN_APPROVAL (#308, (#306));
#320 = PERSON_AND_ORGANIZATION_ROLE ('creator');
#321 = PERSON ('', '', $, $, $, $);
#322 = ORGANIZATION ($, '', '');
#323 = PERSON_AND_ORGANIZATION (#321, #322);
#324 = CC_DESIGN_PERSON_AND_ORGANIZATION_ASSIGNMENT (#323, #320, (#306));
#325 = PERSON_AND_ORGANIZATION_ROLE ('part_supplier');
#326 = PERSON ('', '', $, $, $, $);
#327 = ORGANIZATION ($, '', '');
#328 = PERSON_AND_ORGANIZATION (#326, #327);
#329 = CC_DESIGN_PERSON_AND_ORGANIZATION_ASSIGNMENT (#328, #325, (#306));
#330 = SECURITY_CLASSIFICATION_LEVEL ('unclassified');
#331 = SECURITY_CLASSIFICATION ('', '', #330);
#332 = APPROVAL_STATUS ('approved');
#333 = APPROVAL (#332, '');
#334 = CALENDAR_DATE (2021, 26, 1);
#335 = COORDINATED_UNIVERSAL_TIME_OFFSET (0, $, .AHEAD.);
#336 = LOCAL_TIME (9, 42, 12., #335);
#337 = DATE_AND_TIME (#334, #336);
#338 = APPROVAL_DATE_TIME (#337, #333);
#339 = APPROVAL_ROLE ('');
#340 = PERSON ('', '', $, $, $, $);
#341 = ORGANIZATION ($, '', '');
#342 = PERSON_AND_ORGANIZATION (#340, #341);
#343 = APPROVAL_PERSON_ORGANIZATION (#342, #333, #339);
#344 = CC_DESIGN_APPROVAL (#333, (#331));
#345 = DATE_TIME_ROLE ('classification_date');
#346 = CALENDAR_DATE (2021, 26, 1);
#347 = COORDINATED_UNIVERSAL_TIME_OFFSET (0, $, .AHEAD.);
#348 = LOCAL_TIME (9, 42, 12., #347);
#349 = DATE_AND_TIME (#346, #348);
#350 = CC_DESIGN_DATE_AND_TIME_ASSIGNMENT (#349, #345, (#331));
#351 = PERSON_AND_ORGANIZATION_ROLE ('classification_officer');
#352 = PERSON ('', '', $, $, $, $);
#353 = ORGANIZATION ($, '', '');
#354 = PERSON_AND_ORGANIZATION (#352, #353);
#355 = CC_DESIGN_PERSON_AND_ORGANIZATION_ASSIGNMENT (#354, #351, (#331));
#356 = CC_DESIGN_SECURITY_CLASSIFICATION (#331, (#306));
#357 = DESIGN_CONTEXT ('', #296, 'design');
#358 = PRODUCT_DEFINITION ('', '', #306, #357);
#359 = APPROVAL_STATUS ('approved');
#360 = APPROVAL (#359, '');
#361 = CALENDAR_DATE (2021, 26, 1);
#362 = COORDINATED_UNIVERSAL_TIME_OFFSET (0, $, .AHEAD.);
#363 = LOCAL_TIME (9, 42, 12., #362);
#364 = DATE_AND_TIME (#361, #363);
#365 = APPROVAL_DATE_TIME (#364, #360);
#366 = APPROVAL_ROLE ('');
#367 = PERSON ('', '', $, $, $, $);
#368 = ORGANIZATION ($, '', '');
#369 = PERSON_AND_ORGANIZATION (#367, #368);
#370 = APPROVAL_PERSON_ORGANIZATION (#369, #360, #366);
#371 = CC_DESIGN_APPROVAL (#360, (#358));
#372 = DATE_TIME_ROLE ('creation_date');
#373 = CALENDAR_DATE (2021, 26, 1);
#374 = COORDINATED_UNIVERSAL_TIME_OFFSET (0, $, .AHEAD.);
#375 = LOCAL_TIME (9, 42, 12., #374);
#376 = DATE_AND_TIME (#373, #375);
#377 = CC_DESIGN_DATE_AND_TIME_ASSIGNMENT (#376, #372, (#358));
#378 = PERSON_AND_ORGANIZATION_ROLE ('creator');
#379 = PERSON ('', '', $, $, $, $);
#380 = ORGANIZATION ($, '', '');
#381 = PERSON_AND_ORGANIZATION (#379, #380);
#382 = CC_DESIGN_PERSON_AND_ORGANIZATION_ASSIGNMENT (#381, #378, (#358));
#383 = PRODUCT_DEFINITION_SHAPE ('', '', #358);
#384 = SHAPE_DEFINITION_REPRESENTATION (#383, #295);
#385 = SHAPE_REPRESENTATION_RELATIONSHIP ('', '', #295, #386);
#386 = ADVANCED_BREP_SHAPE_REPRESENTATION ('', (#289), #294);
ENDSEC;
END-ISO-10303-21;
